ISO-10303-21;
HEADER;
FILE_DESCRIPTION (( 'STEP AP214' ),
    '1' );
FILE_NAME ('59487.STEP',
    '2023-07-24T15:07:35',
    ( '' ),
    ( '' ),
    'SwSTEP 2.0',
    'SolidWorks 2023',
    '' );
FILE_SCHEMA (( 'AUTOMOTIVE_DESIGN' ));
ENDSEC;

DATA;
#1 = CARTESIAN_POINT ( 'NONE',  ( 0.000000000000000000, 0.000000000000000000, 0.000000000000000000 ) ) ;
#2 = VECTOR ( 'NONE', #245, 1000.000000000000000 ) ;
#3 = PRODUCT_DEFINITION ( 'UNKNOWN', '', #43, #20 ) ;
#4 = MECHANICAL_DESIGN_GEOMETRIC_PRESENTATION_REPRESENTATION (  '', ( #325 ), #69 ) ;
#5 = EDGE_LOOP ( 'NONE', ( #230, #351, #223, #143 ) ) ;
#6 = DIRECTION ( 'NONE',  ( -1.000000000000000000, 0.000000000000000000, 0.000000000000000000 ) ) ;
#7 = MANIFOLD_SOLID_BREP ( 'Revolve - Tool Body (Straight Shanked)', #330 ) ;
#8 = AXIS2_PLACEMENT_3D ( 'NONE', #307, #16, #105 ) ;
#9 = AXIS2_PLACEMENT_3D ( 'NONE', #209, #44, #11 ) ;
#10 = DIRECTION ( 'NONE',  ( -1.223542297630008506E-16, 1.000000000000000000, -0.000000000000000000 ) ) ;
#11 = DIRECTION ( 'NONE',  ( -1.000000000000000000, -1.223542297630008506E-16, 0.000000000000000000 ) ) ;
#12 = ORIENTED_EDGE ( 'NONE', *, *, #119, .F. ) ;
#13 = FILL_AREA_STYLE ('',( #328 ) ) ;
#14 = STYLED_ITEM ( 'NONE', ( #78 ), #7 ) ;
#15 = EDGE_CURVE ( 'NONE', #301, #339, #265, .T. ) ;
#16 = DIRECTION ( 'NONE',  ( -0.000000000000000000, -1.000000000000000000, -0.000000000000000000 ) ) ;
#17 = ORIENTED_EDGE ( 'NONE', *, *, #39, .F. ) ;
#18 = AXIS2_PLACEMENT_3D ( 'NONE', #229, #157, #316 ) ;
#19 = VERTEX_POINT ( 'NONE', #76 ) ;
#20 = PRODUCT_DEFINITION_CONTEXT ( 'detailed design', #92, 'design' ) ;
#21 = DIRECTION ( 'NONE',  ( 0.000000000000000000, 0.000000000000000000, -1.000000000000000000 ) ) ;
#22 = SURFACE_STYLE_FILL_AREA ( #106 ) ;
#23 = ORIENTED_EDGE ( 'NONE', *, *, #291, .T. ) ;
#24 = DIRECTION ( 'NONE',  ( -0.000000000000000000, -1.000000000000000000, -0.000000000000000000 ) ) ;
#25 = AXIS2_PLACEMENT_3D ( 'NONE', #319, #110, #128 ) ;
#26 = ORIENTED_EDGE ( 'NONE', *, *, #270, .T. ) ;
#27 =( LENGTH_UNIT ( ) NAMED_UNIT ( * ) SI_UNIT ( .MILLI., .METRE. ) );
#28 =( LENGTH_UNIT ( ) NAMED_UNIT ( * ) SI_UNIT ( .MILLI., .METRE. ) );
#29 = ADVANCED_FACE ( 'NONE', ( #237 ), #163, .T. ) ;
#30 = SURFACE_STYLE_FILL_AREA ( #13 ) ;
#31 = MECHANICAL_DESIGN_GEOMETRIC_PRESENTATION_REPRESENTATION (  '', ( #334 ), #109 ) ;
#32 = CIRCLE ( 'NONE', #299, 5.000000000000000000 ) ;
#33 = LINE ( 'NONE', #310, #35 ) ;
#34 = CARTESIAN_POINT ( 'NONE',  ( 4.770489558936219510E-15, 24.00000000000000000, 0.000000000000000000 ) ) ;
#35 = VECTOR ( 'NONE', #254, 1000.000000000000000 ) ;
#36 = CIRCLE ( 'NONE', #18, 6.000000000000000000 ) ;
#37 = DIRECTION ( 'NONE',  ( 0.000000000000000000, 0.000000000000000000, -1.000000000000000000 ) ) ;
#38 = DIRECTION ( 'NONE',  ( 1.000000000000000000, 1.223542297630008506E-16, 0.000000000000000000 ) ) ;
#39 = EDGE_CURVE ( 'NONE', #240, #285, #33, .T. ) ;
#40 = FACE_OUTER_BOUND ( 'NONE', #196, .T. ) ;
#41 = CARTESIAN_POINT ( 'NONE',  ( 7.347880794884119736E-16, 24.00000000000000000, 6.000000000000000000 ) ) ;
#42 =( GEOMETRIC_REPRESENTATION_CONTEXT ( 3 ) GLOBAL_UNCERTAINTY_ASSIGNED_CONTEXT ( ( #305 ) ) GLOBAL_UNIT_ASSIGNED_CONTEXT ( ( #153, #93, #313 ) ) REPRESENTATION_CONTEXT ( 'NONE', 'WORKASPACE' ) );
#43 = PRODUCT_DEFINITION_FORMATION_WITH_SPECIFIED_SOURCE ( 'ANY', '', #202, .NOT_KNOWN. ) ;
#44 = DIRECTION ( 'NONE',  ( -1.223542297630008506E-16, 1.000000000000000000, 0.000000000000000000 ) ) ;
#45 = ORIENTED_EDGE ( 'NONE', *, *, #225, .T. ) ;
#46 = APPLICATION_PROTOCOL_DEFINITION ( 'draft international standard', 'automotive_design', 1998, #92 ) ;
#47 = DIRECTION ( 'NONE',  ( -0.000000000000000000, -1.000000000000000000, -0.000000000000000000 ) ) ;
#48 = ORIENTED_EDGE ( 'NONE', *, *, #211, .F. ) ;
#49 = AXIS2_PLACEMENT_3D ( 'NONE', #318, #160, #102 ) ;
#50 = ORIENTED_EDGE ( 'NONE', *, *, #278, .T. ) ;
#51 =( GEOMETRIC_REPRESENTATION_CONTEXT ( 3 ) GLOBAL_UNCERTAINTY_ASSIGNED_CONTEXT ( ( #242 ) ) GLOBAL_UNIT_ASSIGNED_CONTEXT ( ( #53, #144, #134 ) ) REPRESENTATION_CONTEXT ( 'NONE', 'WORKASPACE' ) );
#52 = FACE_OUTER_BOUND ( 'NONE', #354, .T. ) ;
#53 =( LENGTH_UNIT ( ) NAMED_UNIT ( * ) SI_UNIT ( .MILLI., .METRE. ) );
#54 =( GEOMETRIC_REPRESENTATION_CONTEXT ( 3 ) GLOBAL_UNCERTAINTY_ASSIGNED_CONTEXT ( ( #170 ) ) GLOBAL_UNIT_ASSIGNED_CONTEXT ( ( #192, #107, #219 ) ) REPRESENTATION_CONTEXT ( 'NONE', 'WORKASPACE' ) );
#55 =( NAMED_UNIT ( * ) PLANE_ANGLE_UNIT ( ) SI_UNIT ( $, .RADIAN. ) );
#56 = PRESENTATION_LAYER_ASSIGNMENT (  '', '', ( #147 ) ) ;
#57 = CARTESIAN_POINT ( 'NONE',  ( -5.999999999999991118, 24.00000000000000000, 0.000000000000000000 ) ) ;
#58 =( LENGTH_UNIT ( ) NAMED_UNIT ( * ) SI_UNIT ( .MILLI., .METRE. ) );
#59 = UNCERTAINTY_MEASURE_WITH_UNIT (LENGTH_MEASURE( 1.000000000000000082E-05 ), #267, 'distance_accuracy_value', 'NONE');
#60 = ADVANCED_FACE ( 'NONE', ( #125 ), #79, .T. ) ;
#61 = PRESENTATION_STYLE_ASSIGNMENT (( #369 ) ) ;
#62 = AXIS2_PLACEMENT_3D ( 'NONE', #359, #146, #272 ) ;
#63 = DIRECTION ( 'NONE',  ( -0.000000000000000000, -1.000000000000000000, -0.000000000000000000 ) ) ;
#64 =( GEOMETRIC_REPRESENTATION_CONTEXT ( 3 ) GLOBAL_UNCERTAINTY_ASSIGNED_CONTEXT ( ( #221 ) ) GLOBAL_UNIT_ASSIGNED_CONTEXT ( ( #28, #309, #332 ) ) REPRESENTATION_CONTEXT ( 'NONE', 'WORKASPACE' ) );
#65 = DIRECTION ( 'NONE',  ( -0.000000000000000000, -1.000000000000000000, -0.000000000000000000 ) ) ;
#66 = CLOSED_SHELL ( 'NONE', ( #151, #82, #250, #169, #60, #29 ) ) ;
#67 =( NAMED_UNIT ( * ) SI_UNIT ( $, .STERADIAN. ) SOLID_ANGLE_UNIT ( ) );
#68 = DIRECTION ( 'NONE',  ( -0.000000000000000000, -1.000000000000000000, -0.000000000000000000 ) ) ;
#69 =( GEOMETRIC_REPRESENTATION_CONTEXT ( 3 ) GLOBAL_UNCERTAINTY_ASSIGNED_CONTEXT ( ( #197 ) ) GLOBAL_UNIT_ASSIGNED_CONTEXT ( ( #27, #365, #281 ) ) REPRESENTATION_CONTEXT ( 'NONE', 'WORKASPACE' ) );
#70 = PRESENTATION_STYLE_ASSIGNMENT (( #208 ) ) ;
#71 = DIRECTION ( 'NONE',  ( -1.223542297630008506E-16, 1.000000000000000000, -0.000000000000000000 ) ) ;
#72 = EDGE_CURVE ( 'NONE', #19, #339, #350, .T. ) ;
#73 = DIRECTION ( 'NONE',  ( 0.000000000000000000, 0.000000000000000000, -1.000000000000000000 ) ) ;
#74 = COLOUR_RGB ( '',1.000000000000000000, 0.000000000000000000, 0.000000000000000000 ) ;
#75 = CARTESIAN_POINT ( 'NONE',  ( 6.735557395310443009E-16, 0.000000000000000000, 5.000000000000000000 ) ) ;
#76 = CARTESIAN_POINT ( 'NONE',  ( -6.000000000000003553, 75.00000000000000000, 0.000000000000000000 ) ) ;
#77 = PRESENTATION_STYLE_ASSIGNMENT (( #322 ) ) ;
#78 = PRESENTATION_STYLE_ASSIGNMENT (( #235 ) ) ;
#79 = CYLINDRICAL_SURFACE ( 'NONE', #297, 6.000000000000000000 ) ;
#80 = SURFACE_SIDE_STYLE ('',( #22 ) ) ;
#81 = ORIENTED_EDGE ( 'NONE', *, *, #241, .T. ) ;
#82 = ADVANCED_FACE ( 'NONE', ( #52 ), #136, .T. ) ;
#83 = DIRECTION ( 'NONE',  ( -1.000000000000000000, 0.000000000000000000, 0.000000000000000000 ) ) ;
#84 = AXIS2_PLACEMENT_3D ( 'NONE', #222, #244, #83 ) ;
#85 = SURFACE_STYLE_FILL_AREA ( #198 ) ;
#86 = UNCERTAINTY_MEASURE_WITH_UNIT (LENGTH_MEASURE( 1.000000000000000082E-05 ), #185, 'distance_accuracy_value', 'NONE');
#87 = PRESENTATION_STYLE_ASSIGNMENT (( #362 ) ) ;
#88 = FACE_OUTER_BOUND ( 'NONE', #273, .T. ) ;
#89 = SURFACE_STYLE_FILL_AREA ( #199 ) ;
#90 = EDGE_CURVE ( 'NONE', #148, #268, #32, .T. ) ;
#91 = DIRECTION ( 'NONE',  ( 0.000000000000000000, -0.000000000000000000, 1.000000000000000000 ) ) ;
#92 = APPLICATION_CONTEXT ( 'automotive_design' ) ;
#93 =( NAMED_UNIT ( * ) PLANE_ANGLE_UNIT ( ) SI_UNIT ( $, .RADIAN. ) );
#94 =( GEOMETRIC_REPRESENTATION_CONTEXT ( 3 ) GLOBAL_UNCERTAINTY_ASSIGNED_CONTEXT ( ( #86 ) ) GLOBAL_UNIT_ASSIGNED_CONTEXT ( ( #185, #343, #67 ) ) REPRESENTATION_CONTEXT ( 'NONE', 'WORKASPACE' ) );
#95 = SURFACE_STYLE_FILL_AREA ( #232 ) ;
#96 = CARTESIAN_POINT ( 'NONE',  ( 6.123233995736766282E-16, 1.000000000000000000, 5.000000000000000000 ) ) ;
#97 = APPLICATION_CONTEXT ( 'automotive_design' ) ;
#98 = CARTESIAN_POINT ( 'NONE',  ( -1.469576158976823750E-15, 75.00000000000000000, 0.000000000000000000 ) ) ;
#99 = PRODUCT_RELATED_PRODUCT_CATEGORY ( 'part', '', ( #202 ) ) ;
#100 = CIRCLE ( 'NONE', #84, 5.999999999999996447 ) ;
#101 = AXIS2_PLACEMENT_3D ( 'NONE', #132, #68, #73 ) ;
#102 = DIRECTION ( 'NONE',  ( 0.000000000000000000, 0.000000000000000000, -1.000000000000000000 ) ) ;
#103 = VERTEX_POINT ( 'NONE', #166 ) ;
#104 = STYLED_ITEM ( 'NONE', ( #120 ), #169 ) ;
#105 = DIRECTION ( 'NONE',  ( 0.000000000000000000, 0.000000000000000000, -1.000000000000000000 ) ) ;
#106 = FILL_AREA_STYLE ('',( #161 ) ) ;
#107 =( NAMED_UNIT ( * ) PLANE_ANGLE_UNIT ( ) SI_UNIT ( $, .RADIAN. ) );
#108 = ORIENTED_EDGE ( 'NONE', *, *, #324, .F. ) ;
#109 =( GEOMETRIC_REPRESENTATION_CONTEXT ( 3 ) GLOBAL_UNCERTAINTY_ASSIGNED_CONTEXT ( ( #275 ) ) GLOBAL_UNIT_ASSIGNED_CONTEXT ( ( #58, #55, #252 ) ) REPRESENTATION_CONTEXT ( 'NONE', 'WORKASPACE' ) );
#110 = DIRECTION ( 'NONE',  ( 0.000000000000000000, 0.000000000000000000, 1.000000000000000000 ) ) ;
#111 = DIRECTION ( 'NONE',  ( -0.000000000000000000, -1.000000000000000000, -0.000000000000000000 ) ) ;
#112 = AXIS2_PLACEMENT_3D ( 'NONE', #284, #258, #260 ) ;
#113 = EDGE_LOOP ( 'NONE', ( #180, #48 ) ) ;
#114 = VECTOR ( 'NONE', #348, 1000.000000000000000 ) ;
#115 = EDGE_LOOP ( 'NONE', ( #216, #45, #23, #243 ) ) ;
#116 = DIRECTION ( 'NONE',  ( 0.000000000000000000, 0.000000000000000000, -1.000000000000000000 ) ) ;
#117 = PRESENTATION_STYLE_ASSIGNMENT (( #282 ) ) ;
#118 =( NAMED_UNIT ( * ) PLANE_ANGLE_UNIT ( ) SI_UNIT ( $, .RADIAN. ) );
#119 = EDGE_CURVE ( 'NONE', #268, #148, #259, .T. ) ;
#120 = PRESENTATION_STYLE_ASSIGNMENT (( #122 ) ) ;
#121 = FILL_AREA_STYLE_COLOUR ( '', #366 ) ;
#122 = SURFACE_STYLE_USAGE ( .BOTH. , #149 ) ;
#123 = EDGE_CURVE ( 'NONE', #141, #301, #100, .T. ) ;
#124 = CARTESIAN_POINT ( 'NONE',  ( 0.000000000000000000, 0.000000000000000000, -5.000000000000000000 ) ) ;
#125 = FACE_OUTER_BOUND ( 'NONE', #5, .T. ) ;
#126 = DIRECTION ( 'NONE',  ( 1.000000000000000000, 0.000000000000000000, -1.224646799147353207E-16 ) ) ;
#127 = EDGE_CURVE ( 'NONE', #240, #303, #178, .T. ) ;
#128 = DIRECTION ( 'NONE',  ( 1.000000000000000000, 0.000000000000000000, 0.000000000000000000 ) ) ;
#129 = FACE_OUTER_BOUND ( 'NONE', #363, .T. ) ;
#130 = DIRECTION ( 'NONE',  ( -1.224646799147352468E-16, 0.000000000000000000, -1.000000000000000000 ) ) ;
#131 = AXIS2_PLACEMENT_3D ( 'NONE', #195, #137, #116 ) ;
#132 = CARTESIAN_POINT ( 'NONE',  ( 0.000000000000000000, 1.000000000000000000, 0.000000000000000000 ) ) ;
#133 = ORIENTED_EDGE ( 'NONE', *, *, #123, .T. ) ;
#134 =( NAMED_UNIT ( * ) SI_UNIT ( $, .STERADIAN. ) SOLID_ANGLE_UNIT ( ) );
#135 = MANIFOLD_SOLID_BREP ( 'Revolve - Cutting Edge', #66 ) ;
#136 = TOROIDAL_SURFACE ( 'NONE', #8, 5.000000000000000000, 0.9999999999999995559 ) ;
#137 = DIRECTION ( 'NONE',  ( -0.000000000000000000, -1.000000000000000000, -0.000000000000000000 ) ) ;
#138 = EDGE_LOOP ( 'NONE', ( #323, #50 ) ) ;
#139 = ORIENTED_EDGE ( 'NONE', *, *, #241, .F. ) ;
#140 = DIRECTION ( 'NONE',  ( 0.000000000000000000, 0.000000000000000000, -1.000000000000000000 ) ) ;
#141 = VERTEX_POINT ( 'NONE', #57 ) ;
#142 = EDGE_CURVE ( 'NONE', #285, #148, #295, .T. ) ;
#143 = ORIENTED_EDGE ( 'NONE', *, *, #270, .F. ) ;
#144 =( NAMED_UNIT ( * ) PLANE_ANGLE_UNIT ( ) SI_UNIT ( $, .RADIAN. ) );
#145 = PRESENTATION_LAYER_ASSIGNMENT (  '', '', ( #203 ) ) ;
#146 = DIRECTION ( 'NONE',  ( -1.223542297630008506E-16, 1.000000000000000000, -0.000000000000000000 ) ) ;
#147 = STYLED_ITEM ( 'NONE', ( #337 ), #151 ) ;
#148 = VERTEX_POINT ( 'NONE', #124 ) ;
#149 = SURFACE_SIDE_STYLE ('',( #179 ) ) ;
#150 = FILL_AREA_STYLE ('',( #176 ) ) ;
#151 = ADVANCED_FACE ( 'NONE', ( #88 ), #248, .T. ) ;
#152 = CIRCLE ( 'NONE', #344, 6.000000000000000000 ) ;
#153 =( LENGTH_UNIT ( ) NAMED_UNIT ( * ) SI_UNIT ( .MILLI., .METRE. ) );
#154 = ADVANCED_BREP_SHAPE_REPRESENTATION ( '59487', ( #135, #7, #25 ), #361 ) ;
#155 = PLANE ( 'NONE',  #49 ) ;
#156 = ORIENTED_EDGE ( 'NONE', *, *, #324, .T. ) ;
#157 = DIRECTION ( 'NONE',  ( -0.000000000000000000, -1.000000000000000000, -0.000000000000000000 ) ) ;
#158 = DIRECTION ( 'NONE',  ( -0.000000000000000000, -1.000000000000000000, -0.000000000000000000 ) ) ;
#159 = DIRECTION ( 'NONE',  ( -1.000000000000000000, 0.000000000000000000, 0.000000000000000000 ) ) ;
#160 = DIRECTION ( 'NONE',  ( 0.000000000000000000, -1.000000000000000000, -0.000000000000000000 ) ) ;
#161 = FILL_AREA_STYLE_COLOUR ( '', #236 ) ;
#162 = CARTESIAN_POINT ( 'NONE',  ( 6.000000000000000000, 24.00000000000000000, 7.347880794884120722E-16 ) ) ;
#163 = PLANE ( 'NONE',  #358 ) ;
#164 = FILL_AREA_STYLE_COLOUR ( '', #286 ) ;
#165 = AXIS2_PLACEMENT_3D ( 'NONE', #206, #65, #37 ) ;
#166 = CARTESIAN_POINT ( 'NONE',  ( 7.347880794884118750E-16, 1.000000000000000000, 6.000000000000000000 ) ) ;
#167 =( NAMED_UNIT ( * ) SI_UNIT ( $, .STERADIAN. ) SOLID_ANGLE_UNIT ( ) );
#168 = ORIENTED_EDGE ( 'NONE', *, *, #340, .T. ) ;
#169 = ADVANCED_FACE ( 'NONE', ( #204 ), #352, .T. ) ;
#170 = UNCERTAINTY_MEASURE_WITH_UNIT (LENGTH_MEASURE( 1.000000000000000082E-05 ), #192, 'distance_accuracy_value', 'NONE');
#171 = CARTESIAN_POINT ( 'NONE',  ( 0.000000000000000000, 0.000000000000000000, 0.000000000000000000 ) ) ;
#172 = COLOUR_RGB ( '',1.000000000000000000, 0.000000000000000000, 0.000000000000000000 ) ;
#173 = SURFACE_STYLE_USAGE ( .BOTH. , #283 ) ;
#174 =( LENGTH_UNIT ( ) NAMED_UNIT ( * ) SI_UNIT ( .MILLI., .METRE. ) );
#175 = FILL_AREA_STYLE ('',( #200 ) ) ;
#176 = FILL_AREA_STYLE_COLOUR ( '', #74 ) ;
#177 = SURFACE_SIDE_STYLE ('',( #30 ) ) ;
#178 = CIRCLE ( 'NONE', #368, 6.000000000000000000 ) ;
#179 = SURFACE_STYLE_FILL_AREA ( #150 ) ;
#180 = ORIENTED_EDGE ( 'NONE', *, *, #127, .F. ) ;
#181 = MECHANICAL_DESIGN_GEOMETRIC_PRESENTATION_REPRESENTATION (  '', ( #14 ), #264 ) ;
#182 = DIRECTION ( 'NONE',  ( -1.223542297630008506E-16, 1.000000000000000000, -0.000000000000000000 ) ) ;
#183 = CARTESIAN_POINT ( 'NONE',  ( 6.000000000000000000, 75.00000000000000000, 0.000000000000000000 ) ) ;
#184 = AXIS2_PLACEMENT_3D ( 'NONE', #247, #364, #256 ) ;
#185 =( LENGTH_UNIT ( ) NAMED_UNIT ( * ) SI_UNIT ( .MILLI., .METRE. ) );
#186 = PLANE ( 'NONE',  #345 ) ;
#187 = ADVANCED_FACE ( 'NONE', ( #279 ), #262, .T. ) ;
#188 = DIRECTION ( 'NONE',  ( -1.223542297630008506E-16, 1.000000000000000000, -0.000000000000000000 ) ) ;
#189 = PRESENTATION_LAYER_ASSIGNMENT (  '', '', ( #325 ) ) ;
#190 = SHAPE_DEFINITION_REPRESENTATION ( #253, #154 ) ;
#191 = EDGE_LOOP ( 'NONE', ( #139, #26, #277, #12 ) ) ;
#192 =( LENGTH_UNIT ( ) NAMED_UNIT ( * ) SI_UNIT ( .MILLI., .METRE. ) );
#193 = ORIENTED_EDGE ( 'NONE', *, *, #127, .T. ) ;
#194 = CIRCLE ( 'NONE', #311, 5.999999999999996447 ) ;
#195 = CARTESIAN_POINT ( 'NONE',  ( 0.000000000000000000, 0.000000000000000000, 0.000000000000000000 ) ) ;
#196 = EDGE_LOOP ( 'NONE', ( #306, #212 ) ) ;
#197 = UNCERTAINTY_MEASURE_WITH_UNIT (LENGTH_MEASURE( 1.000000000000000082E-05 ), #27, 'distance_accuracy_value', 'NONE');
#198 = FILL_AREA_STYLE ('',( #164 ) ) ;
#199 = FILL_AREA_STYLE ('',( #121 ) ) ;
#200 = FILL_AREA_STYLE_COLOUR ( '', #172 ) ;
#201 = AXIS2_PLACEMENT_3D ( 'NONE', #96, #126, #130 ) ;
#202 = PRODUCT ( '59487', '59487', '', ( #326 ) ) ;
#203 = STYLED_ITEM ( 'NONE', ( #77 ), #60 ) ;
#204 = FACE_OUTER_BOUND ( 'NONE', #191, .T. ) ;
#205 = CIRCLE ( 'NONE', #360, 6.000000000000001776 ) ;
#206 = CARTESIAN_POINT ( 'NONE',  ( 0.000000000000000000, 1.000000000000000000, 0.000000000000000000 ) ) ;
#207 = SURFACE_SIDE_STYLE ('',( #95 ) ) ;
#208 = SURFACE_STYLE_USAGE ( .BOTH. , #207 ) ;
#209 = CARTESIAN_POINT ( 'NONE',  ( 4.770489558936219510E-15, 24.00000000000000000, 0.000000000000000000 ) ) ;
#210 = MECHANICAL_DESIGN_GEOMETRIC_PRESENTATION_REPRESENTATION (  '', ( #321 ), #94 ) ;
#211 = EDGE_CURVE ( 'NONE', #303, #240, #36, .T. ) ;
#212 = ORIENTED_EDGE ( 'NONE', *, *, #119, .T. ) ;
#213 = LINE ( 'NONE', #214, #246 ) ;
#214 = CARTESIAN_POINT ( 'NONE',  ( -6.000000000000000000, 75.00000000000000000, 0.000000000000000000 ) ) ;
#215 = FILL_AREA_STYLE ('',( #353 ) ) ;
#216 = ORIENTED_EDGE ( 'NONE', *, *, #15, .F. ) ;
#217 = SURFACE_STYLE_FILL_AREA ( #215 ) ;
#218 = EDGE_LOOP ( 'NONE', ( #133, #357, #294, #288 ) ) ;
#219 =( NAMED_UNIT ( * ) SI_UNIT ( $, .STERADIAN. ) SOLID_ANGLE_UNIT ( ) );
#220 = APPLICATION_PROTOCOL_DEFINITION ( 'draft international standard', 'automotive_design', 1998, #97 ) ;
#221 = UNCERTAINTY_MEASURE_WITH_UNIT (LENGTH_MEASURE( 1.000000000000000082E-05 ), #28, 'distance_accuracy_value', 'NONE');
#222 = CARTESIAN_POINT ( 'NONE',  ( 4.770489558936219510E-15, 24.00000000000000000, 0.000000000000000000 ) ) ;
#223 = ORIENTED_EDGE ( 'NONE', *, *, #39, .T. ) ;
#224 = PRESENTATION_LAYER_ASSIGNMENT (  '', '', ( #14 ) ) ;
#225 = EDGE_CURVE ( 'NONE', #301, #141, #194, .T. ) ;
#226 = CARTESIAN_POINT ( 'NONE',  ( 0.000000000000000000, 24.00000000000000000, 0.000000000000000000 ) ) ;
#227 = SURFACE_STYLE_FILL_AREA ( #175 ) ;
#228 = CIRCLE ( 'NONE', #201, 1.000000000000000000 ) ;
#229 = CARTESIAN_POINT ( 'NONE',  ( 0.000000000000000000, 24.00000000000000000, 0.000000000000000000 ) ) ;
#230 = ORIENTED_EDGE ( 'NONE', *, *, #340, .F. ) ;
#231 = PLANE ( 'NONE',  #9 ) ;
#232 = FILL_AREA_STYLE ('',( #287 ) ) ;
#233 = CARTESIAN_POINT ( 'NONE',  ( 7.347880794884119736E-16, 0.000000000000000000, 6.000000000000000000 ) ) ;
#234 = LINE ( 'NONE', #233, #114 ) ;
#235 = SURFACE_STYLE_USAGE ( .BOTH. , #80 ) ;
#236 = COLOUR_RGB ( '',0.7921568627450980005, 0.8196078431372548767, 0.9333333333333333481 ) ;
#237 = FACE_OUTER_BOUND ( 'NONE', #113, .T. ) ;
#238 = COLOUR_RGB ( '',1.000000000000000000, 0.000000000000000000, 0.000000000000000000 ) ;
#239 = CARTESIAN_POINT ( 'NONE',  ( 0.000000000000000000, 24.00000000000000000, 0.000000000000000000 ) ) ;
#240 = VERTEX_POINT ( 'NONE', #338 ) ;
#241 = EDGE_CURVE ( 'NONE', #103, #268, #228, .T. ) ;
#242 = UNCERTAINTY_MEASURE_WITH_UNIT (LENGTH_MEASURE( 1.000000000000000082E-05 ), #53, 'distance_accuracy_value', 'NONE');
#243 = ORIENTED_EDGE ( 'NONE', *, *, #278, .F. ) ;
#244 = DIRECTION ( 'NONE',  ( -1.223542297630008506E-16, 1.000000000000000000, -0.000000000000000000 ) ) ;
#245 = DIRECTION ( 'NONE',  ( -1.223542297630008506E-16, 1.000000000000000000, -0.000000000000000000 ) ) ;
#246 = VECTOR ( 'NONE', #188, 1000.000000000000000 ) ;
#247 = CARTESIAN_POINT ( 'NONE',  ( 0.000000000000000000, 1.000000000000000000, -5.000000000000000000 ) ) ;
#248 = CYLINDRICAL_SURFACE ( 'NONE', #280, 6.000000000000000000 ) ;
#249 = DIRECTION ( 'NONE',  ( 0.000000000000000000, 1.000000000000000000, 0.000000000000000000 ) ) ;
#250 = ADVANCED_FACE ( 'NONE', ( #40 ), #155, .T. ) ;
#251 = PRESENTATION_LAYER_ASSIGNMENT (  '', '', ( #321 ) ) ;
#252 =( NAMED_UNIT ( * ) SI_UNIT ( $, .STERADIAN. ) SOLID_ANGLE_UNIT ( ) );
#253 = PRODUCT_DEFINITION_SHAPE ( 'NONE', 'NONE',  #3 ) ;
#254 = DIRECTION ( 'NONE',  ( -0.000000000000000000, -1.000000000000000000, -0.000000000000000000 ) ) ;
#255 = MECHANICAL_DESIGN_GEOMETRIC_PRESENTATION_REPRESENTATION (  '', ( #333 ), #51 ) ;
#256 = DIRECTION ( 'NONE',  ( 0.000000000000000000, 0.000000000000000000, 1.000000000000000000 ) ) ;
#257 = COLOUR_RGB ( '',1.000000000000000000, 0.000000000000000000, 0.000000000000000000 ) ;
#258 = DIRECTION ( 'NONE',  ( -1.223542297630008506E-16, 1.000000000000000000, -0.000000000000000000 ) ) ;
#259 = CIRCLE ( 'NONE', #131, 5.000000000000000000 ) ;
#260 = DIRECTION ( 'NONE',  ( -1.000000000000000000, 0.000000000000000000, 0.000000000000000000 ) ) ;
#261 = FACE_OUTER_BOUND ( 'NONE', #115, .T. ) ;
#262 = CYLINDRICAL_SURFACE ( 'NONE', #112, 5.999999999999998224 ) ;
#263 = CARTESIAN_POINT ( 'NONE',  ( 0.000000000000000000, 1.000000000000000000, 0.000000000000000000 ) ) ;
#264 =( GEOMETRIC_REPRESENTATION_CONTEXT ( 3 ) GLOBAL_UNCERTAINTY_ASSIGNED_CONTEXT ( ( #59 ) ) GLOBAL_UNIT_ASSIGNED_CONTEXT ( ( #267, #349, #167 ) ) REPRESENTATION_CONTEXT ( 'NONE', 'WORKASPACE' ) );
#265 = LINE ( 'NONE', #320, #2 ) ;
#266 = CARTESIAN_POINT ( 'NONE',  ( 6.000000000000000000, 75.00000000000000000, 7.347880794884119736E-16 ) ) ;
#267 =( LENGTH_UNIT ( ) NAMED_UNIT ( * ) SI_UNIT ( .MILLI., .METRE. ) );
#268 = VERTEX_POINT ( 'NONE', #75 ) ;
#269 = PRESENTATION_LAYER_ASSIGNMENT (  '', '', ( #104 ) ) ;
#270 = EDGE_CURVE ( 'NONE', #103, #285, #300, .T. ) ;
#271 = CARTESIAN_POINT ( 'NONE',  ( 0.000000000000000000, 0.000000000000000000, 0.000000000000000000 ) ) ;
#272 = DIRECTION ( 'NONE',  ( -1.000000000000000000, 0.000000000000000000, 0.000000000000000000 ) ) ;
#273 = EDGE_LOOP ( 'NONE', ( #193, #168, #108, #17 ) ) ;
#274 = UNCERTAINTY_MEASURE_WITH_UNIT (LENGTH_MEASURE( 1.000000000000000082E-05 ), #174, 'distance_accuracy_value', 'NONE');
#275 = UNCERTAINTY_MEASURE_WITH_UNIT (LENGTH_MEASURE( 1.000000000000000082E-05 ), #58, 'distance_accuracy_value', 'NONE');
#276 = SURFACE_SIDE_STYLE ('',( #85 ) ) ;
#277 = ORIENTED_EDGE ( 'NONE', *, *, #142, .T. ) ;
#278 = EDGE_CURVE ( 'NONE', #339, #19, #205, .T. ) ;
#279 = FACE_OUTER_BOUND ( 'NONE', #218, .T. ) ;
#280 = AXIS2_PLACEMENT_3D ( 'NONE', #1, #63, #331 ) ;
#281 =( NAMED_UNIT ( * ) SI_UNIT ( $, .STERADIAN. ) SOLID_ANGLE_UNIT ( ) );
#282 = SURFACE_STYLE_USAGE ( .BOTH. , #177 ) ;
#283 = SURFACE_SIDE_STYLE ('',( #227 ) ) ;
#284 = CARTESIAN_POINT ( 'NONE',  ( -1.469576158976823750E-15, 75.00000000000000000, 0.000000000000000000 ) ) ;
#285 = VERTEX_POINT ( 'NONE', #347 ) ;
#286 = COLOUR_RGB ( '',1.000000000000000000, 0.000000000000000000, 0.000000000000000000 ) ;
#287 = FILL_AREA_STYLE_COLOUR ( '', #238 ) ;
#288 = ORIENTED_EDGE ( 'NONE', *, *, #291, .F. ) ;
#289 = MECHANICAL_DESIGN_GEOMETRIC_PRESENTATION_REPRESENTATION (  '', ( #147 ), #64 ) ;
#290 = DIRECTION ( 'NONE',  ( 1.223542297630008506E-16, -1.000000000000000000, 0.000000000000000000 ) ) ;
#291 = EDGE_CURVE ( 'NONE', #141, #19, #213, .T. ) ;
#292 = PRESENTATION_LAYER_ASSIGNMENT (  '', '', ( #334 ) ) ;
#293 = DIRECTION ( 'NONE',  ( 0.000000000000000000, 0.000000000000000000, -1.000000000000000000 ) ) ;
#294 = ORIENTED_EDGE ( 'NONE', *, *, #72, .F. ) ;
#295 = CIRCLE ( 'NONE', #184, 1.000000000000000000 ) ;
#296 = ORIENTED_EDGE ( 'NONE', *, *, #225, .F. ) ;
#297 = AXIS2_PLACEMENT_3D ( 'NONE', #271, #47, #140 ) ;
#298 = ORIENTED_EDGE ( 'NONE', *, *, #123, .F. ) ;
#299 = AXIS2_PLACEMENT_3D ( 'NONE', #171, #24, #21 ) ;
#300 = CIRCLE ( 'NONE', #101, 6.000000000000000000 ) ;
#301 = VERTEX_POINT ( 'NONE', #162 ) ;
#302 = ORIENTED_EDGE ( 'NONE', *, *, #90, .F. ) ;
#303 = VERTEX_POINT ( 'NONE', #41 ) ;
#304 = SURFACE_SIDE_STYLE ('',( #89 ) ) ;
#305 = UNCERTAINTY_MEASURE_WITH_UNIT (LENGTH_MEASURE( 1.000000000000000082E-05 ), #153, 'distance_accuracy_value', 'NONE');
#306 = ORIENTED_EDGE ( 'NONE', *, *, #90, .T. ) ;
#307 = CARTESIAN_POINT ( 'NONE',  ( 0.000000000000000000, 1.000000000000000000, 0.000000000000000000 ) ) ;
#308 = MECHANICAL_DESIGN_GEOMETRIC_PRESENTATION_REPRESENTATION (  '', ( #104 ), #42 ) ;
#309 =( NAMED_UNIT ( * ) PLANE_ANGLE_UNIT ( ) SI_UNIT ( $, .RADIAN. ) );
#310 = CARTESIAN_POINT ( 'NONE',  ( 0.000000000000000000, 0.000000000000000000, -6.000000000000000000 ) ) ;
#311 = AXIS2_PLACEMENT_3D ( 'NONE', #34, #182, #341 ) ;
#312 = AXIS2_PLACEMENT_3D ( 'NONE', #317, #71, #159 ) ;
#313 =( NAMED_UNIT ( * ) SI_UNIT ( $, .STERADIAN. ) SOLID_ANGLE_UNIT ( ) );
#314 = ORIENTED_EDGE ( 'NONE', *, *, #142, .F. ) ;
#315 = FACE_OUTER_BOUND ( 'NONE', #138, .T. ) ;
#316 = DIRECTION ( 'NONE',  ( 0.000000000000000000, 0.000000000000000000, -1.000000000000000000 ) ) ;
#317 = CARTESIAN_POINT ( 'NONE',  ( -1.469576158976823750E-15, 75.00000000000000000, 0.000000000000000000 ) ) ;
#318 = CARTESIAN_POINT ( 'NONE',  ( 0.000000000000000000, 0.000000000000000000, 0.000000000000000000 ) ) ;
#319 = CARTESIAN_POINT ( 'NONE',  ( 0.000000000000000000, 0.000000000000000000, 0.000000000000000000 ) ) ;
#320 = CARTESIAN_POINT ( 'NONE',  ( 5.999999999999996447, 75.00000000000000000, 7.347880794884117764E-16 ) ) ;
#321 = STYLED_ITEM ( 'NONE', ( #70 ), #250 ) ;
#322 = SURFACE_STYLE_USAGE ( .BOTH. , #304 ) ;
#323 = ORIENTED_EDGE ( 'NONE', *, *, #72, .T. ) ;
#324 = EDGE_CURVE ( 'NONE', #285, #103, #152, .T. ) ;
#325 = STYLED_ITEM ( 'NONE', ( #61 ), #135 ) ;
#326 = PRODUCT_CONTEXT ( 'NONE', #97, 'mechanical' ) ;
#327 = DIRECTION ( 'NONE',  ( 0.000000000000000000, 0.000000000000000000, -1.000000000000000000 ) ) ;
#328 = FILL_AREA_STYLE_COLOUR ( '', #257 ) ;
#329 = ADVANCED_FACE ( 'NONE', ( #129 ), #231, .F. ) ;
#330 = CLOSED_SHELL ( 'NONE', ( #187, #329, #370, #355 ) ) ;
#331 = DIRECTION ( 'NONE',  ( 0.000000000000000000, 0.000000000000000000, -1.000000000000000000 ) ) ;
#332 =( NAMED_UNIT ( * ) SI_UNIT ( $, .STERADIAN. ) SOLID_ANGLE_UNIT ( ) );
#333 = STYLED_ITEM ( 'NONE', ( #87 ), #82 ) ;
#334 = STYLED_ITEM ( 'NONE', ( #117 ), #29 ) ;
#335 = MECHANICAL_DESIGN_GEOMETRIC_PRESENTATION_REPRESENTATION (  '', ( #203 ), #54 ) ;
#336 = COLOUR_RGB ( '',0.7921568627450980005, 0.8196078431372548767, 0.9333333333333333481 ) ;
#337 = PRESENTATION_STYLE_ASSIGNMENT (( #173 ) ) ;
#338 = CARTESIAN_POINT ( 'NONE',  ( 0.000000000000000000, 24.00000000000000000, -6.000000000000000000 ) ) ;
#339 = VERTEX_POINT ( 'NONE', #266 ) ;
#340 = EDGE_CURVE ( 'NONE', #303, #103, #234, .T. ) ;
#341 = DIRECTION ( 'NONE',  ( -1.000000000000000000, 0.000000000000000000, 0.000000000000000000 ) ) ;
#342 = CYLINDRICAL_SURFACE ( 'NONE', #312, 5.999999999999998224 ) ;
#343 =( NAMED_UNIT ( * ) PLANE_ANGLE_UNIT ( ) SI_UNIT ( $, .RADIAN. ) );
#344 = AXIS2_PLACEMENT_3D ( 'NONE', #263, #158, #293 ) ;
#345 = AXIS2_PLACEMENT_3D ( 'NONE', #183, #290, #38 ) ;
#346 = PRESENTATION_LAYER_ASSIGNMENT (  '', '', ( #333 ) ) ;
#347 = CARTESIAN_POINT ( 'NONE',  ( 0.000000000000000000, 1.000000000000000000, -6.000000000000000000 ) ) ;
#348 = DIRECTION ( 'NONE',  ( -0.000000000000000000, -1.000000000000000000, -0.000000000000000000 ) ) ;
#349 =( NAMED_UNIT ( * ) PLANE_ANGLE_UNIT ( ) SI_UNIT ( $, .RADIAN. ) );
#350 = CIRCLE ( 'NONE', #62, 6.000000000000001776 ) ;
#351 = ORIENTED_EDGE ( 'NONE', *, *, #211, .T. ) ;
#352 = TOROIDAL_SURFACE ( 'NONE', #165, 5.000000000000000000, 0.9999999999999995559 ) ;
#353 = FILL_AREA_STYLE_COLOUR ( '', #336 ) ;
#354 = EDGE_LOOP ( 'NONE', ( #156, #81, #302, #314 ) ) ;
#355 = ADVANCED_FACE ( 'NONE', ( #315 ), #186, .F. ) ;
#356 = SURFACE_SIDE_STYLE ('',( #217 ) ) ;
#357 = ORIENTED_EDGE ( 'NONE', *, *, #15, .T. ) ;
#358 = AXIS2_PLACEMENT_3D ( 'NONE', #226, #249, #91 ) ;
#359 = CARTESIAN_POINT ( 'NONE',  ( -1.469576158976823750E-15, 75.00000000000000000, 0.000000000000000000 ) ) ;
#360 = AXIS2_PLACEMENT_3D ( 'NONE', #98, #10, #6 ) ;
#361 =( GEOMETRIC_REPRESENTATION_CONTEXT ( 3 ) GLOBAL_UNCERTAINTY_ASSIGNED_CONTEXT ( ( #274 ) ) GLOBAL_UNIT_ASSIGNED_CONTEXT ( ( #174, #118, #367 ) ) REPRESENTATION_CONTEXT ( 'NONE', 'WORKASPACE' ) );
#362 = SURFACE_STYLE_USAGE ( .BOTH. , #276 ) ;
#363 = EDGE_LOOP ( 'NONE', ( #298, #296 ) ) ;
#364 = DIRECTION ( 'NONE',  ( -1.000000000000000000, 0.000000000000000000, 0.000000000000000000 ) ) ;
#365 =( NAMED_UNIT ( * ) PLANE_ANGLE_UNIT ( ) SI_UNIT ( $, .RADIAN. ) );
#366 = COLOUR_RGB ( '',1.000000000000000000, 0.000000000000000000, 0.000000000000000000 ) ;
#367 =( NAMED_UNIT ( * ) SI_UNIT ( $, .STERADIAN. ) SOLID_ANGLE_UNIT ( ) );
#368 = AXIS2_PLACEMENT_3D ( 'NONE', #239, #111, #327 ) ;
#369 = SURFACE_STYLE_USAGE ( .BOTH. , #356 ) ;
#370 = ADVANCED_FACE ( 'NONE', ( #261 ), #342, .T. ) ;
ENDSEC;
END-ISO-10303-21;
