ISO-10303-21;
HEADER;
FILE_DESCRIPTION (( 'STEP AP214' ),
    '1' );
FILE_NAME ('59844.STEP',
    '2023-06-22T23:16:25',
    ( '' ),
    ( '' ),
    'SwSTEP 2.0',
    'SolidWorks 2023',
    '' );
FILE_SCHEMA (( 'AUTOMOTIVE_DESIGN' ));
ENDSEC;

DATA;
#1 =( GEOMETRIC_REPRESENTATION_CONTEXT ( 3 ) GLOBAL_UNCERTAINTY_ASSIGNED_CONTEXT ( ( #248 ) ) GLOBAL_UNIT_ASSIGNED_CONTEXT ( ( #30, #216, #98 ) ) REPRESENTATION_CONTEXT ( 'NONE', 'WORKASPACE' ) );
#2 = DIRECTION ( 'NONE',  ( -0.000000000000000000, -1.000000000000000000, -0.000000000000000000 ) ) ;
#3 = DIMENSIONAL_EXPONENTS ( 1.000000000000000000, 0.000000000000000000, 0.000000000000000000, 0.000000000000000000, 0.000000000000000000, 0.000000000000000000, 0.000000000000000000 ) ;
#4 =( NAMED_UNIT ( * ) PLANE_ANGLE_UNIT ( ) SI_UNIT ( $, .RADIAN. ) );
#5 = UNCERTAINTY_MEASURE_WITH_UNIT (LENGTH_MEASURE( 1.000000000000000082E-05 ), #51, 'distance_accuracy_value', 'NONE');
#6 = DIRECTION ( 'NONE',  ( -6.997981709413449187E-17, 1.000000000000000000, -0.000000000000000000 ) ) ;
#7 = PLANE ( 'NONE',  #62 ) ;
#8 = VECTOR ( 'NONE', #6, 39.37007874015748143 ) ;
#9 = DIRECTION ( 'NONE',  ( -1.000000000000000000, 0.000000000000000000, 0.000000000000000000 ) ) ;
#10 = DIRECTION ( 'NONE',  ( 0.000000000000000000, 0.000000000000000000, -1.000000000000000000 ) ) ;
#11 =( GEOMETRIC_REPRESENTATION_CONTEXT ( 3 ) GLOBAL_UNCERTAINTY_ASSIGNED_CONTEXT ( ( #123 ) ) GLOBAL_UNIT_ASSIGNED_CONTEXT ( ( #49, #190, #70 ) ) REPRESENTATION_CONTEXT ( 'NONE', 'WORKASPACE' ) );
#12 = VERTEX_POINT ( 'NONE', #29 ) ;
#13 =( NAMED_UNIT ( * ) PLANE_ANGLE_UNIT ( ) SI_UNIT ( $, .RADIAN. ) );
#14 = ORIENTED_EDGE ( 'NONE', *, *, #285, .T. ) ;
#15 = AXIS2_PLACEMENT_3D ( 'NONE', #150, #111, #135 ) ;
#16 = VECTOR ( 'NONE', #196, 39.37007874015748143 ) ;
#17 = ADVANCED_BREP_SHAPE_REPRESENTATION ( '59844', ( #290, #194, #86 ), #1 ) ;
#18 = EDGE_LOOP ( 'NONE', ( #247, #299 ) ) ;
#19 = ORIENTED_EDGE ( 'NONE', *, *, #76, .T. ) ;
#20 = COLOUR_RGB ( '',0.7921568627450980005, 0.8196078431372548767, 0.9333333333333333481 ) ;
#21 = SURFACE_SIDE_STYLE ('',( #203 ) ) ;
#22 = DIRECTION ( 'NONE',  ( -6.997981709413449187E-17, 1.000000000000000000, -0.000000000000000000 ) ) ;
#23 = DIRECTION ( 'NONE',  ( -0.000000000000000000, -1.000000000000000000, -0.000000000000000000 ) ) ;
#24 = APPLICATION_PROTOCOL_DEFINITION ( 'draft international standard', 'automotive_design', 1998, #164 ) ;
#25 = CYLINDRICAL_SURFACE ( 'NONE', #222, 0.1875000000000000278 ) ;
#26 =( GEOMETRIC_REPRESENTATION_CONTEXT ( 3 ) GLOBAL_UNCERTAINTY_ASSIGNED_CONTEXT ( ( #267 ) ) GLOBAL_UNIT_ASSIGNED_CONTEXT ( ( #208, #74, #114 ) ) REPRESENTATION_CONTEXT ( 'NONE', 'WORKASPACE' ) );
#27 = EDGE_CURVE ( 'NONE', #93, #12, #48, .T. ) ;
#28 = SURFACE_STYLE_USAGE ( .BOTH. , #115 ) ;
#29 = CARTESIAN_POINT ( 'NONE',  ( 0.1875000000000000278, 1.250000000000000000, 2.296212748401288650E-17 ) ) ;
#30 =( CONVERSION_BASED_UNIT ( 'INCH', #306 ) LENGTH_UNIT ( ) NAMED_UNIT ( #172 ) );
#31 = DIRECTION ( 'NONE',  ( 1.000000000000000000, 0.000000000000000000, 0.000000000000000000 ) ) ;
#32 = PRODUCT_DEFINITION_FORMATION_WITH_SPECIFIED_SOURCE ( 'ANY', '', #305, .NOT_KNOWN. ) ;
#33 = CARTESIAN_POINT ( 'NONE',  ( -0.1875000000000000278, 1.250000000000000000, 0.000000000000000000 ) ) ;
#34 = CARTESIAN_POINT ( 'NONE',  ( 0.000000000000000000, 0.000000000000000000, 0.000000000000000000 ) ) ;
#35 = CLOSED_SHELL ( 'NONE', ( #200, #110, #223, #262 ) ) ;
#36 = DIRECTION ( 'NONE',  ( 0.000000000000000000, -1.000000000000000000, -0.000000000000000000 ) ) ;
#37 = PRODUCT_DEFINITION ( 'UNKNOWN', '', #32, #113 ) ;
#38 = AXIS2_PLACEMENT_3D ( 'NONE', #294, #251, #71 ) ;
#39 = ADVANCED_FACE ( 'NONE', ( #120 ), #25, .T. ) ;
#40 = DIRECTION ( 'NONE',  ( -6.997981709413449187E-17, 1.000000000000000000, -0.000000000000000000 ) ) ;
#41 = CARTESIAN_POINT ( 'NONE',  ( 0.000000000000000000, 0.000000000000000000, 0.000000000000000000 ) ) ;
#42 = VERTEX_POINT ( 'NONE', #119 ) ;
#43 = STYLED_ITEM ( 'NONE', ( #96 ), #290 ) ;
#44 = ORIENTED_EDGE ( 'NONE', *, *, #121, .T. ) ;
#45 = DIRECTION ( 'NONE',  ( -6.997981709413449187E-17, 1.000000000000000000, -0.000000000000000000 ) ) ;
#46 = DIRECTION ( 'NONE',  ( 0.000000000000000000, 0.000000000000000000, -1.000000000000000000 ) ) ;
#47 =( LENGTH_UNIT ( ) NAMED_UNIT ( * ) SI_UNIT ( $, .METRE. ) );
#48 = CIRCLE ( 'NONE', #89, 0.1875000000000000278 ) ;
#49 =( CONVERSION_BASED_UNIT ( 'INCH', #259 ) LENGTH_UNIT ( ) NAMED_UNIT ( #308 ) );
#50 = EDGE_CURVE ( 'NONE', #107, #227, #275, .T. ) ;
#51 =( CONVERSION_BASED_UNIT ( 'INCH', #257 ) LENGTH_UNIT ( ) NAMED_UNIT ( #239 ) );
#52 = FILL_AREA_STYLE_COLOUR ( '', #20 ) ;
#53 = AXIS2_PLACEMENT_3D ( 'NONE', #124, #2, #225 ) ;
#54 = ORIENTED_EDGE ( 'NONE', *, *, #181, .F. ) ;
#55 = SURFACE_SIDE_STYLE ('',( #261 ) ) ;
#56 = DIMENSIONAL_EXPONENTS ( 1.000000000000000000, 0.000000000000000000, 0.000000000000000000, 0.000000000000000000, 0.000000000000000000, 0.000000000000000000, 0.000000000000000000 ) ;
#57 = CARTESIAN_POINT ( 'NONE',  ( 0.000000000000000000, 0.000000000000000000, 0.000000000000000000 ) ) ;
#58 = CIRCLE ( 'NONE', #175, 0.1875000000000001388 ) ;
#59 = CARTESIAN_POINT ( 'NONE',  ( -0.1875000000000002220, 3.000000000000000444, 0.000000000000000000 ) ) ;
#60 = DIRECTION ( 'NONE',  ( 0.000000000000000000, 0.000000000000000000, -1.000000000000000000 ) ) ;
#61 = STYLED_ITEM ( 'NONE', ( #163 ), #90 ) ;
#62 = AXIS2_PLACEMENT_3D ( 'NONE', #34, #36, #60 ) ;
#63 = ORIENTED_EDGE ( 'NONE', *, *, #285, .F. ) ;
#64 = LENGTH_MEASURE_WITH_UNIT ( LENGTH_MEASURE( 0.02539999999999999897 ), #100 );
#65 = ORIENTED_EDGE ( 'NONE', *, *, #50, .F. ) ;
#66 = MECHANICAL_DESIGN_GEOMETRIC_PRESENTATION_REPRESENTATION (  '', ( #77 ), #11 ) ;
#67 = DIRECTION ( 'NONE',  ( 6.997981709413449187E-17, -1.000000000000000000, 0.000000000000000000 ) ) ;
#68 = EDGE_LOOP ( 'NONE', ( #282, #88, #204, #250 ) ) ;
#69 = ORIENTED_EDGE ( 'NONE', *, *, #166, .F. ) ;
#70 =( NAMED_UNIT ( * ) SI_UNIT ( $, .STERADIAN. ) SOLID_ANGLE_UNIT ( ) );
#71 = DIRECTION ( 'NONE',  ( -1.000000000000000000, 0.000000000000000000, 0.000000000000000000 ) ) ;
#72 = SURFACE_SIDE_STYLE ('',( #187 ) ) ;
#73 = PRESENTATION_LAYER_ASSIGNMENT (  '', '', ( #126 ) ) ;
#74 =( NAMED_UNIT ( * ) PLANE_ANGLE_UNIT ( ) SI_UNIT ( $, .RADIAN. ) );
#75 = EDGE_LOOP ( 'NONE', ( #207, #105 ) ) ;
#76 = EDGE_CURVE ( 'NONE', #295, #130, #217, .T. ) ;
#77 = STYLED_ITEM ( 'NONE', ( #158 ), #39 ) ;
#78 = FILL_AREA_STYLE ('',( #303 ) ) ;
#79 =( NAMED_UNIT ( * ) SI_UNIT ( $, .STERADIAN. ) SOLID_ANGLE_UNIT ( ) );
#80 = FILL_AREA_STYLE ('',( #242 ) ) ;
#81 = LENGTH_MEASURE_WITH_UNIT ( LENGTH_MEASURE( 0.02539999999999999897 ), #146 );
#82 = CARTESIAN_POINT ( 'NONE',  ( 2.296212748401287726E-17, 1.250000000000000000, 0.1875000000000000278 ) ) ;
#83 = UNCERTAINTY_MEASURE_WITH_UNIT (LENGTH_MEASURE( 1.000000000000000082E-05 ), #238, 'distance_accuracy_value', 'NONE');
#84 = AXIS2_PLACEMENT_3D ( 'NONE', #197, #268, #218 ) ;
#85 = COLOUR_RGB ( '',1.000000000000000000, 0.000000000000000000, 0.000000000000000000 ) ;
#86 = AXIS2_PLACEMENT_3D ( 'NONE', #57, #189, #31 ) ;
#87 = EDGE_LOOP ( 'NONE', ( #202, #245, #65, #63 ) ) ;
#88 = ORIENTED_EDGE ( 'NONE', *, *, #181, .T. ) ;
#89 = AXIS2_PLACEMENT_3D ( 'NONE', #159, #137, #132 ) ;
#90 = ADVANCED_FACE ( 'NONE', ( #167 ), #112, .T. ) ;
#91 = CYLINDRICAL_SURFACE ( 'NONE', #99, 0.1875000000000000278 ) ;
#92 = FILL_AREA_STYLE ('',( #210 ) ) ;
#93 = VERTEX_POINT ( 'NONE', #33 ) ;
#94 = FILL_AREA_STYLE ('',( #52 ) ) ;
#95 = CLOSED_SHELL ( 'NONE', ( #39, #90, #234, #154 ) ) ;
#96 = PRESENTATION_STYLE_ASSIGNMENT (( #28 ) ) ;
#97 =( NAMED_UNIT ( * ) PLANE_ANGLE_UNIT ( ) SI_UNIT ( $, .RADIAN. ) );
#98 =( NAMED_UNIT ( * ) SI_UNIT ( $, .STERADIAN. ) SOLID_ANGLE_UNIT ( ) );
#99 = AXIS2_PLACEMENT_3D ( 'NONE', #184, #180, #10 ) ;
#100 =( LENGTH_UNIT ( ) NAMED_UNIT ( * ) SI_UNIT ( $, .METRE. ) );
#101 = CARTESIAN_POINT ( 'NONE',  ( 0.000000000000000000, 1.250000000000000000, 0.000000000000000000 ) ) ;
#102 = LINE ( 'NONE', #221, #8 ) ;
#103 = CYLINDRICAL_SURFACE ( 'NONE', #243, 0.1875000000000000833 ) ;
#104 = DIRECTION ( 'NONE',  ( -1.000000000000000000, 0.000000000000000000, 0.000000000000000000 ) ) ;
#105 = ORIENTED_EDGE ( 'NONE', *, *, #277, .F. ) ;
#106 =( NAMED_UNIT ( * ) SI_UNIT ( $, .STERADIAN. ) SOLID_ANGLE_UNIT ( ) );
#107 = VERTEX_POINT ( 'NONE', #125 ) ;
#108 = EDGE_LOOP ( 'NONE', ( #69, #302 ) ) ;
#109 = VERTEX_POINT ( 'NONE', #82 ) ;
#110 = ADVANCED_FACE ( 'NONE', ( #220 ), #288, .F. ) ;
#111 = DIRECTION ( 'NONE',  ( -6.997981709413449187E-17, 1.000000000000000000, -0.000000000000000000 ) ) ;
#112 = PLANE ( 'NONE',  #170 ) ;
#113 = PRODUCT_DEFINITION_CONTEXT ( 'detailed design', #128, 'design' ) ;
#114 =( NAMED_UNIT ( * ) SI_UNIT ( $, .STERADIAN. ) SOLID_ANGLE_UNIT ( ) );
#115 = SURFACE_SIDE_STYLE ('',( #283 ) ) ;
#116 =( LENGTH_UNIT ( ) NAMED_UNIT ( * ) SI_UNIT ( $, .METRE. ) );
#117 = COLOUR_RGB ( '',1.000000000000000000, 0.000000000000000000, 0.000000000000000000 ) ;
#118 =( CONVERSION_BASED_UNIT ( 'INCH', #192 ) LENGTH_UNIT ( ) NAMED_UNIT ( #265 ) );
#119 = CARTESIAN_POINT ( 'NONE',  ( 0.000000000000000000, 1.250000000000000000, -0.1875000000000000278 ) ) ;
#120 = FACE_OUTER_BOUND ( 'NONE', #87, .T. ) ;
#121 = EDGE_CURVE ( 'NONE', #93, #130, #174, .T. ) ;
#122 = CIRCLE ( 'NONE', #307, 0.1875000000000000278 ) ;
#123 = UNCERTAINTY_MEASURE_WITH_UNIT (LENGTH_MEASURE( 1.000000000000000082E-05 ), #49, 'distance_accuracy_value', 'NONE');
#124 = CARTESIAN_POINT ( 'NONE',  ( 0.000000000000000000, 1.250000000000000000, 0.000000000000000000 ) ) ;
#125 = CARTESIAN_POINT ( 'NONE',  ( 0.000000000000000000, 0.000000000000000000, -0.1875000000000000278 ) ) ;
#126 = STYLED_ITEM ( 'NONE', ( #237 ), #194 ) ;
#127 = PLANE ( 'NONE',  #296 ) ;
#128 = APPLICATION_CONTEXT ( 'automotive_design' ) ;
#129 = FACE_OUTER_BOUND ( 'NONE', #301, .T. ) ;
#130 = VERTEX_POINT ( 'NONE', #263 ) ;
#131 = PRODUCT_DEFINITION_SHAPE ( 'NONE', 'NONE',  #37 ) ;
#132 = DIRECTION ( 'NONE',  ( -1.000000000000000000, 0.000000000000000000, 0.000000000000000000 ) ) ;
#133 = PRESENTATION_LAYER_ASSIGNMENT (  '', '', ( #266 ) ) ;
#134 = VECTOR ( 'NONE', #165, 39.37007874015748143 ) ;
#135 = DIRECTION ( 'NONE',  ( -1.000000000000000000, 0.000000000000000000, 0.000000000000000000 ) ) ;
#136 = DIRECTION ( 'NONE',  ( -1.000000000000000000, 0.000000000000000000, 0.000000000000000000 ) ) ;
#137 = DIRECTION ( 'NONE',  ( -6.997981709413449187E-17, 1.000000000000000000, -0.000000000000000000 ) ) ;
#138 =( LENGTH_UNIT ( ) NAMED_UNIT ( * ) SI_UNIT ( $, .METRE. ) );
#139 = SURFACE_STYLE_USAGE ( .BOTH. , #55 ) ;
#140 = DIRECTION ( 'NONE',  ( -0.000000000000000000, -1.000000000000000000, -0.000000000000000000 ) ) ;
#141 = AXIS2_PLACEMENT_3D ( 'NONE', #304, #22, #136 ) ;
#142 = FACE_OUTER_BOUND ( 'NONE', #18, .T. ) ;
#143 = DIMENSIONAL_EXPONENTS ( 1.000000000000000000, 0.000000000000000000, 0.000000000000000000, 0.000000000000000000, 0.000000000000000000, 0.000000000000000000, 0.000000000000000000 ) ;
#144 =( NAMED_UNIT ( * ) SI_UNIT ( $, .STERADIAN. ) SOLID_ANGLE_UNIT ( ) );
#145 = SURFACE_STYLE_FILL_AREA ( #286 ) ;
#146 =( LENGTH_UNIT ( ) NAMED_UNIT ( * ) SI_UNIT ( $, .METRE. ) );
#147 = MECHANICAL_DESIGN_GEOMETRIC_PRESENTATION_REPRESENTATION (  '', ( #61 ), #287 ) ;
#148 = FACE_OUTER_BOUND ( 'NONE', #182, .T. ) ;
#149 = EDGE_LOOP ( 'NONE', ( #54, #205, #44, #153 ) ) ;
#150 = CARTESIAN_POINT ( 'NONE',  ( -1.224646799147353700E-16, 3.000000000000000444, 0.000000000000000000 ) ) ;
#151 = ORIENTED_EDGE ( 'NONE', *, *, #300, .F. ) ;
#152 = UNCERTAINTY_MEASURE_WITH_UNIT (LENGTH_MEASURE( 1.000000000000000082E-05 ), #118, 'distance_accuracy_value', 'NONE');
#153 = ORIENTED_EDGE ( 'NONE', *, *, #76, .F. ) ;
#154 = ADVANCED_FACE ( 'NONE', ( #142 ), #7, .T. ) ;
#155 = COLOUR_RGB ( '',0.7921568627450980005, 0.8196078431372548767, 0.9333333333333333481 ) ;
#156 = ORIENTED_EDGE ( 'NONE', *, *, #193, .T. ) ;
#157 = DIRECTION ( 'NONE',  ( 1.000000000000000000, 6.997981709413449187E-17, 0.000000000000000000 ) ) ;
#158 = PRESENTATION_STYLE_ASSIGNMENT (( #215 ) ) ;
#159 = CARTESIAN_POINT ( 'NONE',  ( 0.000000000000000000, 1.250000000000000000, 0.000000000000000000 ) ) ;
#160 = MECHANICAL_DESIGN_GEOMETRIC_PRESENTATION_REPRESENTATION (  '', ( #266 ), #213 ) ;
#161 = PRESENTATION_LAYER_ASSIGNMENT (  '', '', ( #77 ) ) ;
#162 = SHAPE_DEFINITION_REPRESENTATION ( #131, #17 ) ;
#163 = PRESENTATION_STYLE_ASSIGNMENT (( #280 ) ) ;
#164 = APPLICATION_CONTEXT ( 'automotive_design' ) ;
#165 = DIRECTION ( 'NONE',  ( -0.000000000000000000, -1.000000000000000000, -0.000000000000000000 ) ) ;
#166 = EDGE_CURVE ( 'NONE', #42, #109, #292, .T. ) ;
#167 = FACE_OUTER_BOUND ( 'NONE', #108, .T. ) ;
#168 =( GEOMETRIC_REPRESENTATION_CONTEXT ( 3 ) GLOBAL_UNCERTAINTY_ASSIGNED_CONTEXT ( ( #191 ) ) GLOBAL_UNIT_ASSIGNED_CONTEXT ( ( #297, #13, #106 ) ) REPRESENTATION_CONTEXT ( 'NONE', 'WORKASPACE' ) );
#169 =( LENGTH_UNIT ( ) NAMED_UNIT ( * ) SI_UNIT ( $, .METRE. ) );
#170 = AXIS2_PLACEMENT_3D ( 'NONE', #240, #293, #289 ) ;
#171 = FILL_AREA_STYLE_COLOUR ( '', #85 ) ;
#172 = DIMENSIONAL_EXPONENTS ( 1.000000000000000000, 0.000000000000000000, 0.000000000000000000, 0.000000000000000000, 0.000000000000000000, 0.000000000000000000, 0.000000000000000000 ) ;
#173 = PRESENTATION_LAYER_ASSIGNMENT (  '', '', ( #61 ) ) ;
#174 = LINE ( 'NONE', #59, #16 ) ;
#175 = AXIS2_PLACEMENT_3D ( 'NONE', #244, #45, #104 ) ;
#176 = CYLINDRICAL_SURFACE ( 'NONE', #15, 0.1875000000000000833 ) ;
#177 = SURFACE_SIDE_STYLE ('',( #145 ) ) ;
#178 = AXIS2_PLACEMENT_3D ( 'NONE', #252, #23, #46 ) ;
#179 = DIRECTION ( 'NONE',  ( 0.000000000000000000, 0.000000000000000000, -1.000000000000000000 ) ) ;
#180 = DIRECTION ( 'NONE',  ( -0.000000000000000000, -1.000000000000000000, -0.000000000000000000 ) ) ;
#181 = EDGE_CURVE ( 'NONE', #12, #295, #102, .T. ) ;
#182 = EDGE_LOOP ( 'NONE', ( #298, #19 ) ) ;
#183 = AXIS2_PLACEMENT_3D ( 'NONE', #41, #232, #179 ) ;
#184 = CARTESIAN_POINT ( 'NONE',  ( 0.000000000000000000, 0.000000000000000000, 0.000000000000000000 ) ) ;
#185 = DIRECTION ( 'NONE',  ( -0.000000000000000000, -1.000000000000000000, -0.000000000000000000 ) ) ;
#186 = PRESENTATION_STYLE_ASSIGNMENT (( #278 ) ) ;
#187 = SURFACE_STYLE_FILL_AREA ( #92 ) ;
#188 = STYLED_ITEM ( 'NONE', ( #186 ), #234 ) ;
#189 = DIRECTION ( 'NONE',  ( 0.000000000000000000, 0.000000000000000000, 1.000000000000000000 ) ) ;
#190 =( NAMED_UNIT ( * ) PLANE_ANGLE_UNIT ( ) SI_UNIT ( $, .RADIAN. ) );
#191 = UNCERTAINTY_MEASURE_WITH_UNIT (LENGTH_MEASURE( 1.000000000000000082E-05 ), #297, 'distance_accuracy_value', 'NONE');
#192 = LENGTH_MEASURE_WITH_UNIT ( LENGTH_MEASURE( 0.02539999999999999897 ), #138 );
#193 = EDGE_CURVE ( 'NONE', #109, #42, #122, .T. ) ;
#194 = MANIFOLD_SOLID_BREP ( 'Revolve - Tool Body (Straight Shanked)', #35 ) ;
#195 = COLOUR_RGB ( '',1.000000000000000000, 0.000000000000000000, 0.000000000000000000 ) ;
#196 = DIRECTION ( 'NONE',  ( -6.997981709413449187E-17, 1.000000000000000000, -0.000000000000000000 ) ) ;
#197 = CARTESIAN_POINT ( 'NONE',  ( 4.591101375495486296E-34, 1.250000000000000000, 0.000000000000000000 ) ) ;
#198 = SURFACE_STYLE_USAGE ( .BOTH. , #177 ) ;
#199 = DIRECTION ( 'NONE',  ( 0.000000000000000000, 0.000000000000000000, -1.000000000000000000 ) ) ;
#200 = ADVANCED_FACE ( 'NONE', ( #274 ), #176, .T. ) ;
#201 = CARTESIAN_POINT ( 'NONE',  ( -1.224646799147353700E-16, 3.000000000000000444, 0.000000000000000000 ) ) ;
#202 = ORIENTED_EDGE ( 'NONE', *, *, #166, .T. ) ;
#203 = SURFACE_STYLE_FILL_AREA ( #230 ) ;
#204 = ORIENTED_EDGE ( 'NONE', *, *, #273, .F. ) ;
#205 = ORIENTED_EDGE ( 'NONE', *, *, #277, .T. ) ;
#206 = VECTOR ( 'NONE', #140, 39.37007874015748143 ) ;
#207 = ORIENTED_EDGE ( 'NONE', *, *, #27, .F. ) ;
#208 =( CONVERSION_BASED_UNIT ( 'INCH', #64 ) LENGTH_UNIT ( ) NAMED_UNIT ( #3 ) );
#209 = EDGE_CURVE ( 'NONE', #227, #107, #235, .T. ) ;
#210 = FILL_AREA_STYLE_COLOUR ( '', #195 ) ;
#211 = FILL_AREA_STYLE_COLOUR ( '', #117 ) ;
#212 = LINE ( 'NONE', #284, #134 ) ;
#213 =( GEOMETRIC_REPRESENTATION_CONTEXT ( 3 ) GLOBAL_UNCERTAINTY_ASSIGNED_CONTEXT ( ( #83 ) ) GLOBAL_UNIT_ASSIGNED_CONTEXT ( ( #238, #4, #144 ) ) REPRESENTATION_CONTEXT ( 'NONE', 'WORKASPACE' ) );
#214 = SURFACE_SIDE_STYLE ('',( #276 ) ) ;
#215 = SURFACE_STYLE_USAGE ( .BOTH. , #214 ) ;
#216 =( NAMED_UNIT ( * ) PLANE_ANGLE_UNIT ( ) SI_UNIT ( $, .RADIAN. ) );
#217 = CIRCLE ( 'NONE', #141, 0.1875000000000001388 ) ;
#218 = DIRECTION ( 'NONE',  ( -1.000000000000000000, -6.997981709413449187E-17, 0.000000000000000000 ) ) ;
#219 = APPLICATION_PROTOCOL_DEFINITION ( 'draft international standard', 'automotive_design', 1998, #128 ) ;
#220 = FACE_OUTER_BOUND ( 'NONE', #75, .T. ) ;
#221 = CARTESIAN_POINT ( 'NONE',  ( 0.1874999999999999445, 3.000000000000000444, 2.296212748401288342E-17 ) ) ;
#222 = AXIS2_PLACEMENT_3D ( 'NONE', #254, #185, #231 ) ;
#223 = ADVANCED_FACE ( 'NONE', ( #246 ), #103, .T. ) ;
#224 = PRESENTATION_LAYER_ASSIGNMENT (  '', '', ( #188 ) ) ;
#225 = DIRECTION ( 'NONE',  ( 0.000000000000000000, 0.000000000000000000, -1.000000000000000000 ) ) ;
#226 =( LENGTH_UNIT ( ) NAMED_UNIT ( * ) SI_UNIT ( $, .METRE. ) );
#227 = VERTEX_POINT ( 'NONE', #271 ) ;
#228 = PRESENTATION_LAYER_ASSIGNMENT (  '', '', ( #43 ) ) ;
#229 = PRODUCT_RELATED_PRODUCT_CATEGORY ( 'part', '', ( #305 ) ) ;
#230 = FILL_AREA_STYLE ('',( #211 ) ) ;
#231 = DIRECTION ( 'NONE',  ( 0.000000000000000000, 0.000000000000000000, -1.000000000000000000 ) ) ;
#232 = DIRECTION ( 'NONE',  ( -0.000000000000000000, -1.000000000000000000, -0.000000000000000000 ) ) ;
#233 =( NAMED_UNIT ( * ) SI_UNIT ( $, .STERADIAN. ) SOLID_ANGLE_UNIT ( ) );
#234 = ADVANCED_FACE ( 'NONE', ( #129 ), #91, .T. ) ;
#235 = CIRCLE ( 'NONE', #183, 0.1875000000000000278 ) ;
#236 =( NAMED_UNIT ( * ) PLANE_ANGLE_UNIT ( ) SI_UNIT ( $, .RADIAN. ) );
#237 = PRESENTATION_STYLE_ASSIGNMENT (( #139 ) ) ;
#238 =( CONVERSION_BASED_UNIT ( 'INCH', #81 ) LENGTH_UNIT ( ) NAMED_UNIT ( #56 ) );
#239 = DIMENSIONAL_EXPONENTS ( 1.000000000000000000, 0.000000000000000000, 0.000000000000000000, 0.000000000000000000, 0.000000000000000000, 0.000000000000000000, 0.000000000000000000 ) ;
#240 = CARTESIAN_POINT ( 'NONE',  ( 0.000000000000000000, 1.250000000000000000, 0.000000000000000000 ) ) ;
#241 = PRESENTATION_STYLE_ASSIGNMENT (( #198 ) ) ;
#242 = FILL_AREA_STYLE_COLOUR ( '', #155 ) ;
#243 = AXIS2_PLACEMENT_3D ( 'NONE', #201, #40, #9 ) ;
#244 = CARTESIAN_POINT ( 'NONE',  ( -1.224646799147353700E-16, 3.000000000000000444, 0.000000000000000000 ) ) ;
#245 = ORIENTED_EDGE ( 'NONE', *, *, #300, .T. ) ;
#246 = FACE_OUTER_BOUND ( 'NONE', #149, .T. ) ;
#247 = ORIENTED_EDGE ( 'NONE', *, *, #50, .T. ) ;
#248 = UNCERTAINTY_MEASURE_WITH_UNIT (LENGTH_MEASURE( 1.000000000000000082E-05 ), #30, 'distance_accuracy_value', 'NONE');
#249 = MECHANICAL_DESIGN_GEOMETRIC_PRESENTATION_REPRESENTATION (  '', ( #188 ), #168 ) ;
#250 = ORIENTED_EDGE ( 'NONE', *, *, #121, .F. ) ;
#251 = DIRECTION ( 'NONE',  ( -6.997981709413449187E-17, 1.000000000000000000, -0.000000000000000000 ) ) ;
#252 = CARTESIAN_POINT ( 'NONE',  ( 0.000000000000000000, 0.000000000000000000, 0.000000000000000000 ) ) ;
#253 = MECHANICAL_DESIGN_GEOMETRIC_PRESENTATION_REPRESENTATION (  '', ( #43 ), #270 ) ;
#254 = CARTESIAN_POINT ( 'NONE',  ( 0.000000000000000000, 0.000000000000000000, 0.000000000000000000 ) ) ;
#255 = LENGTH_MEASURE_WITH_UNIT ( LENGTH_MEASURE( 0.02539999999999999897 ), #226 );
#256 = COLOUR_RGB ( '',1.000000000000000000, 0.000000000000000000, 0.000000000000000000 ) ;
#257 = LENGTH_MEASURE_WITH_UNIT ( LENGTH_MEASURE( 0.02539999999999999897 ), #116 );
#258 = LINE ( 'NONE', #264, #206 ) ;
#259 = LENGTH_MEASURE_WITH_UNIT ( LENGTH_MEASURE( 0.02539999999999999897 ), #47 );
#260 = CIRCLE ( 'NONE', #38, 0.1875000000000000278 ) ;
#261 = SURFACE_STYLE_FILL_AREA ( #80 ) ;
#262 = ADVANCED_FACE ( 'NONE', ( #148 ), #127, .F. ) ;
#263 = CARTESIAN_POINT ( 'NONE',  ( -0.1875000000000002776, 3.000000000000000444, 0.000000000000000000 ) ) ;
#264 = CARTESIAN_POINT ( 'NONE',  ( 0.000000000000000000, 0.000000000000000000, -0.1875000000000000278 ) ) ;
#265 = DIMENSIONAL_EXPONENTS ( 1.000000000000000000, 0.000000000000000000, 0.000000000000000000, 0.000000000000000000, 0.000000000000000000, 0.000000000000000000, 0.000000000000000000 ) ;
#266 = STYLED_ITEM ( 'NONE', ( #241 ), #154 ) ;
#267 = UNCERTAINTY_MEASURE_WITH_UNIT (LENGTH_MEASURE( 1.000000000000000082E-05 ), #208, 'distance_accuracy_value', 'NONE');
#268 = DIRECTION ( 'NONE',  ( -6.997981709413449187E-17, 1.000000000000000000, 0.000000000000000000 ) ) ;
#269 = ORIENTED_EDGE ( 'NONE', *, *, #209, .F. ) ;
#270 =( GEOMETRIC_REPRESENTATION_CONTEXT ( 3 ) GLOBAL_UNCERTAINTY_ASSIGNED_CONTEXT ( ( #152 ) ) GLOBAL_UNIT_ASSIGNED_CONTEXT ( ( #118, #236, #233 ) ) REPRESENTATION_CONTEXT ( 'NONE', 'WORKASPACE' ) );
#271 = CARTESIAN_POINT ( 'NONE',  ( 2.296212748401287726E-17, 0.000000000000000000, 0.1875000000000000278 ) ) ;
#272 = CARTESIAN_POINT ( 'NONE',  ( 0.1875000000000000278, 3.000000000000000444, 0.000000000000000000 ) ) ;
#273 = EDGE_CURVE ( 'NONE', #130, #295, #58, .T. ) ;
#274 = FACE_OUTER_BOUND ( 'NONE', #68, .T. ) ;
#275 = CIRCLE ( 'NONE', #178, 0.1875000000000000278 ) ;
#276 = SURFACE_STYLE_FILL_AREA ( #78 ) ;
#277 = EDGE_CURVE ( 'NONE', #12, #93, #260, .T. ) ;
#278 = SURFACE_STYLE_USAGE ( .BOTH. , #21 ) ;
#279 = MECHANICAL_DESIGN_GEOMETRIC_PRESENTATION_REPRESENTATION (  '', ( #126 ), #26 ) ;
#280 = SURFACE_STYLE_USAGE ( .BOTH. , #72 ) ;
#281 = PRODUCT_CONTEXT ( 'NONE', #164, 'mechanical' ) ;
#282 = ORIENTED_EDGE ( 'NONE', *, *, #27, .T. ) ;
#283 = SURFACE_STYLE_FILL_AREA ( #94 ) ;
#284 = CARTESIAN_POINT ( 'NONE',  ( 2.296212748401287726E-17, 0.000000000000000000, 0.1875000000000000278 ) ) ;
#285 = EDGE_CURVE ( 'NONE', #42, #107, #258, .T. ) ;
#286 = FILL_AREA_STYLE ('',( #171 ) ) ;
#287 =( GEOMETRIC_REPRESENTATION_CONTEXT ( 3 ) GLOBAL_UNCERTAINTY_ASSIGNED_CONTEXT ( ( #5 ) ) GLOBAL_UNIT_ASSIGNED_CONTEXT ( ( #51, #97, #79 ) ) REPRESENTATION_CONTEXT ( 'NONE', 'WORKASPACE' ) );
#288 = PLANE ( 'NONE',  #84 ) ;
#289 = DIRECTION ( 'NONE',  ( 0.000000000000000000, -0.000000000000000000, 1.000000000000000000 ) ) ;
#290 = MANIFOLD_SOLID_BREP ( 'Revolve - Cutting Edge', #95 ) ;
#291 = DIRECTION ( 'NONE',  ( -0.000000000000000000, -1.000000000000000000, -0.000000000000000000 ) ) ;
#292 = CIRCLE ( 'NONE', #53, 0.1875000000000000278 ) ;
#293 = DIRECTION ( 'NONE',  ( 0.000000000000000000, 1.000000000000000000, 0.000000000000000000 ) ) ;
#294 = CARTESIAN_POINT ( 'NONE',  ( 0.000000000000000000, 1.250000000000000000, 0.000000000000000000 ) ) ;
#295 = VERTEX_POINT ( 'NONE', #309 ) ;
#296 = AXIS2_PLACEMENT_3D ( 'NONE', #272, #67, #157 ) ;
#297 =( CONVERSION_BASED_UNIT ( 'INCH', #255 ) LENGTH_UNIT ( ) NAMED_UNIT ( #143 ) );
#298 = ORIENTED_EDGE ( 'NONE', *, *, #273, .T. ) ;
#299 = ORIENTED_EDGE ( 'NONE', *, *, #209, .T. ) ;
#300 = EDGE_CURVE ( 'NONE', #109, #227, #212, .T. ) ;
#301 = EDGE_LOOP ( 'NONE', ( #151, #156, #14, #269 ) ) ;
#302 = ORIENTED_EDGE ( 'NONE', *, *, #193, .F. ) ;
#303 = FILL_AREA_STYLE_COLOUR ( '', #256 ) ;
#304 = CARTESIAN_POINT ( 'NONE',  ( -1.224646799147353700E-16, 3.000000000000000444, 0.000000000000000000 ) ) ;
#305 = PRODUCT ( '59844', '59844', '', ( #281 ) ) ;
#306 = LENGTH_MEASURE_WITH_UNIT ( LENGTH_MEASURE( 0.02539999999999999897 ), #169 );
#307 = AXIS2_PLACEMENT_3D ( 'NONE', #101, #291, #199 ) ;
#308 = DIMENSIONAL_EXPONENTS ( 1.000000000000000000, 0.000000000000000000, 0.000000000000000000, 0.000000000000000000, 0.000000000000000000, 0.000000000000000000, 0.000000000000000000 ) ;
#309 = CARTESIAN_POINT ( 'NONE',  ( 0.1875000000000000278, 3.000000000000000444, 2.296212748401288650E-17 ) ) ;
ENDSEC;
END-ISO-10303-21;
