ISO-10303-21;
HEADER;
FILE_DESCRIPTION (( 'STEP AP214' ),
    '1' );
FILE_NAME ('81831.STEP',
    '2023-06-23T03:23:32',
    ( '' ),
    ( '' ),
    'SwSTEP 2.0',
    'SolidWorks 2023',
    '' );
FILE_SCHEMA (( 'AUTOMOTIVE_DESIGN' ));
ENDSEC;

DATA;
#1 = PRODUCT_DEFINITION_CONTEXT ( 'detailed design', #251, 'design' ) ;
#2 = SURFACE_STYLE_FILL_AREA ( #285 ) ;
#3 = EDGE_CURVE ( 'NONE', #116, #142, #61, .T. ) ;
#4 = ORIENTED_EDGE ( 'NONE', *, *, #149, .T. ) ;
#5 = VECTOR ( 'NONE', #178, 39.37007874015748143 ) ;
#6 =( NAMED_UNIT ( * ) PLANE_ANGLE_UNIT ( ) SI_UNIT ( $, .RADIAN. ) );
#7 = DIRECTION ( 'NONE',  ( -7.347880794884118997E-17, 1.000000000000000000, -0.000000000000000000 ) ) ;
#8 = UNCERTAINTY_MEASURE_WITH_UNIT (LENGTH_MEASURE( 1.000000000000000082E-05 ), #148, 'distance_accuracy_value', 'NONE');
#9 = LENGTH_MEASURE_WITH_UNIT ( LENGTH_MEASURE( 0.02539999999999999897 ), #236 );
#10 = ADVANCED_FACE ( 'NONE', ( #128 ), #125, .T. ) ;
#11 =( NAMED_UNIT ( * ) SI_UNIT ( $, .STERADIAN. ) SOLID_ANGLE_UNIT ( ) );
#12 = VECTOR ( 'NONE', #270, 39.37007874015748143 ) ;
#13 = DIRECTION ( 'NONE',  ( 7.347880794884118997E-17, -1.000000000000000000, 0.000000000000000000 ) ) ;
#14 = CARTESIAN_POINT ( 'NONE',  ( -0.2500000000000000555, 2.500000000000000000, 0.000000000000000000 ) ) ;
#15 = MECHANICAL_DESIGN_GEOMETRIC_PRESENTATION_REPRESENTATION (  '', ( #140 ), #177 ) ;
#16 = PRESENTATION_STYLE_ASSIGNMENT (( #47 ) ) ;
#17 = ORIENTED_EDGE ( 'NONE', *, *, #3, .F. ) ;
#18 = FILL_AREA_STYLE_COLOUR ( '', #39 ) ;
#19 = LENGTH_MEASURE_WITH_UNIT ( LENGTH_MEASURE( 0.02539999999999999897 ), #253 );
#20 = EDGE_LOOP ( 'NONE', ( #67, #72 ) ) ;
#21 =( NAMED_UNIT ( * ) SI_UNIT ( $, .STERADIAN. ) SOLID_ANGLE_UNIT ( ) );
#22 = SURFACE_STYLE_USAGE ( .BOTH. , #73 ) ;
#23 = FILL_AREA_STYLE ('',( #234 ) ) ;
#24 = ORIENTED_EDGE ( 'NONE', *, *, #52, .T. ) ;
#25 =( NAMED_UNIT ( * ) PLANE_ANGLE_UNIT ( ) SI_UNIT ( $, .RADIAN. ) );
#26 = EDGE_LOOP ( 'NONE', ( #277, #275, #280, #50 ) ) ;
#27 = SHAPE_DEFINITION_REPRESENTATION ( #192, #71 ) ;
#28 = CARTESIAN_POINT ( 'NONE',  ( -1.836970198721029688E-16, 5.000000000000000000, 0.000000000000000000 ) ) ;
#29 = CARTESIAN_POINT ( 'NONE',  ( 0.2499999999999999722, 5.000000000000000000, 3.061616997868384251E-17 ) ) ;
#30 = DIMENSIONAL_EXPONENTS ( 1.000000000000000000, 0.000000000000000000, 0.000000000000000000, 0.000000000000000000, 0.000000000000000000, 0.000000000000000000, 0.000000000000000000 ) ;
#31 = DIRECTION ( 'NONE',  ( -7.347880794884118997E-17, 1.000000000000000000, -0.000000000000000000 ) ) ;
#32 = CARTESIAN_POINT ( 'NONE',  ( 3.061616997868383018E-17, 0.000000000000000000, 0.2500000000000000000 ) ) ;
#33 = PLANE ( 'NONE',  #158 ) ;
#34 = DIMENSIONAL_EXPONENTS ( 1.000000000000000000, 0.000000000000000000, 0.000000000000000000, 0.000000000000000000, 0.000000000000000000, 0.000000000000000000, 0.000000000000000000 ) ;
#35 = CLOSED_SHELL ( 'NONE', ( #201, #10, #246, #224 ) ) ;
#36 = CYLINDRICAL_SURFACE ( 'NONE', #223, 0.2500000000000000000 ) ;
#37 = AXIS2_PLACEMENT_3D ( 'NONE', #203, #58, #57 ) ;
#38 = PRODUCT_DEFINITION ( 'UNKNOWN', '', #136, #1 ) ;
#39 = COLOUR_RGB ( '',1.000000000000000000, 0.000000000000000000, 0.000000000000000000 ) ;
#40 = PRESENTATION_LAYER_ASSIGNMENT (  '', '', ( #140 ) ) ;
#41 = LENGTH_MEASURE_WITH_UNIT ( LENGTH_MEASURE( 0.02539999999999999897 ), #262 );
#42 = SURFACE_STYLE_FILL_AREA ( #44 ) ;
#43 = ORIENTED_EDGE ( 'NONE', *, *, #301, .F. ) ;
#44 = FILL_AREA_STYLE ('',( #96 ) ) ;
#45 = EDGE_LOOP ( 'NONE', ( #233, #114, #188, #17 ) ) ;
#46 = AXIS2_PLACEMENT_3D ( 'NONE', #63, #175, #221 ) ;
#47 = SURFACE_STYLE_USAGE ( .BOTH. , #138 ) ;
#48 = DIRECTION ( 'NONE',  ( 0.000000000000000000, -1.000000000000000000, -0.000000000000000000 ) ) ;
#49 =( NAMED_UNIT ( * ) PLANE_ANGLE_UNIT ( ) SI_UNIT ( $, .RADIAN. ) );
#50 = ORIENTED_EDGE ( 'NONE', *, *, #113, .F. ) ;
#51 = CARTESIAN_POINT ( 'NONE',  ( 0.000000000000000000, 2.500000000000000000, 0.000000000000000000 ) ) ;
#52 = EDGE_CURVE ( 'NONE', #278, #163, #219, .T. ) ;
#53 = AXIS2_PLACEMENT_3D ( 'NONE', #216, #80, #283 ) ;
#54 = PRESENTATION_LAYER_ASSIGNMENT (  '', '', ( #161 ) ) ;
#55 = LENGTH_MEASURE_WITH_UNIT ( LENGTH_MEASURE( 0.02539999999999999897 ), #259 );
#56 = SURFACE_STYLE_FILL_AREA ( #23 ) ;
#57 = DIRECTION ( 'NONE',  ( -1.000000000000000000, 0.000000000000000000, 0.000000000000000000 ) ) ;
#58 = DIRECTION ( 'NONE',  ( -7.347880794884118997E-17, 1.000000000000000000, -0.000000000000000000 ) ) ;
#59 = CARTESIAN_POINT ( 'NONE',  ( 0.000000000000000000, 2.500000000000000000, 0.000000000000000000 ) ) ;
#60 = EDGE_CURVE ( 'NONE', #254, #278, #291, .T. ) ;
#61 = CIRCLE ( 'NONE', #271, 0.2500000000000002220 ) ;
#62 = CIRCLE ( 'NONE', #157, 0.2500000000000000555 ) ;
#63 = CARTESIAN_POINT ( 'NONE',  ( -1.836970198721029688E-16, 5.000000000000000000, 0.000000000000000000 ) ) ;
#64 = COLOUR_RGB ( '',1.000000000000000000, 0.000000000000000000, 0.000000000000000000 ) ;
#65 =( GEOMETRIC_REPRESENTATION_CONTEXT ( 3 ) GLOBAL_UNCERTAINTY_ASSIGNED_CONTEXT ( ( #117 ) ) GLOBAL_UNIT_ASSIGNED_CONTEXT ( ( #184, #49, #120 ) ) REPRESENTATION_CONTEXT ( 'NONE', 'WORKASPACE' ) );
#66 = DIRECTION ( 'NONE',  ( -0.000000000000000000, -1.000000000000000000, -0.000000000000000000 ) ) ;
#67 = ORIENTED_EDGE ( 'NONE', *, *, #260, .F. ) ;
#68 = DIRECTION ( 'NONE',  ( 0.000000000000000000, 0.000000000000000000, -1.000000000000000000 ) ) ;
#69 = EDGE_LOOP ( 'NONE', ( #164, #118 ) ) ;
#70 = AXIS2_PLACEMENT_3D ( 'NONE', #182, #66, #68 ) ;
#71 = ADVANCED_BREP_SHAPE_REPRESENTATION ( '81831', ( #298, #102, #197 ), #65 ) ;
#72 = ORIENTED_EDGE ( 'NONE', *, *, #60, .F. ) ;
#73 = SURFACE_SIDE_STYLE ('',( #101 ) ) ;
#74 = CARTESIAN_POINT ( 'NONE',  ( 0.000000000000000000, 2.500000000000000000, 0.000000000000000000 ) ) ;
#75 =( NAMED_UNIT ( * ) SI_UNIT ( $, .STERADIAN. ) SOLID_ANGLE_UNIT ( ) );
#76 = VECTOR ( 'NONE', #144, 39.37007874015748143 ) ;
#77 = MECHANICAL_DESIGN_GEOMETRIC_PRESENTATION_REPRESENTATION (  '', ( #161 ), #228 ) ;
#78 = PRODUCT ( '81831', '81831', '', ( #170 ) ) ;
#79 = SURFACE_STYLE_USAGE ( .BOTH. , #279 ) ;
#80 = DIRECTION ( 'NONE',  ( -0.000000000000000000, -1.000000000000000000, -0.000000000000000000 ) ) ;
#81 = EDGE_CURVE ( 'NONE', #218, #243, #62, .T. ) ;
#82 = DIMENSIONAL_EXPONENTS ( 1.000000000000000000, 0.000000000000000000, 0.000000000000000000, 0.000000000000000000, 0.000000000000000000, 0.000000000000000000, 0.000000000000000000 ) ;
#83 = CARTESIAN_POINT ( 'NONE',  ( 3.061616997868383634E-17, 2.500000000000000000, 0.2500000000000000555 ) ) ;
#84 = CARTESIAN_POINT ( 'NONE',  ( 0.000000000000000000, 0.000000000000000000, -0.2500000000000000000 ) ) ;
#85 = DIRECTION ( 'NONE',  ( 1.000000000000000000, 0.000000000000000000, 0.000000000000000000 ) ) ;
#86 = SURFACE_SIDE_STYLE ('',( #230 ) ) ;
#87 = UNCERTAINTY_MEASURE_WITH_UNIT (LENGTH_MEASURE( 1.000000000000000082E-05 ), #225, 'distance_accuracy_value', 'NONE');
#88 = CARTESIAN_POINT ( 'NONE',  ( 0.000000000000000000, 2.500000000000000000, 0.000000000000000000 ) ) ;
#89 = CARTESIAN_POINT ( 'NONE',  ( 0.000000000000000000, 0.000000000000000000, 0.000000000000000000 ) ) ;
#90 = PRESENTATION_LAYER_ASSIGNMENT (  '', '', ( #180 ) ) ;
#91 = SURFACE_STYLE_USAGE ( .BOTH. , #86 ) ;
#92 =( LENGTH_UNIT ( ) NAMED_UNIT ( * ) SI_UNIT ( $, .METRE. ) );
#93 = FILL_AREA_STYLE_COLOUR ( '', #267 ) ;
#94 =( CONVERSION_BASED_UNIT ( 'INCH', #141 ) LENGTH_UNIT ( ) NAMED_UNIT ( #82 ) );
#95 = ORIENTED_EDGE ( 'NONE', *, *, #301, .T. ) ;
#96 = FILL_AREA_STYLE_COLOUR ( '', #274 ) ;
#97 = ORIENTED_EDGE ( 'NONE', *, *, #124, .T. ) ;
#98 = FACE_OUTER_BOUND ( 'NONE', #212, .T. ) ;
#99 = ORIENTED_EDGE ( 'NONE', *, *, #149, .F. ) ;
#100 = DIRECTION ( 'NONE',  ( -1.000000000000000000, -7.347880794884118997E-17, 0.000000000000000000 ) ) ;
#101 = SURFACE_STYLE_FILL_AREA ( #238 ) ;
#102 = MANIFOLD_SOLID_BREP ( 'Revolve - Tool Body (Straight Shanked)', #208 ) ;
#103 = SURFACE_STYLE_USAGE ( .BOTH. , #193 ) ;
#104 = CIRCLE ( 'NONE', #173, 0.2500000000000000000 ) ;
#105 = PRESENTATION_LAYER_ASSIGNMENT (  '', '', ( #215 ) ) ;
#106 = LINE ( 'NONE', #205, #5 ) ;
#107 = AXIS2_PLACEMENT_3D ( 'NONE', #269, #31, #174 ) ;
#108 = LENGTH_MEASURE_WITH_UNIT ( LENGTH_MEASURE( 0.02539999999999999897 ), #226 );
#109 = DIRECTION ( 'NONE',  ( 1.000000000000000000, 7.347880794884118997E-17, 0.000000000000000000 ) ) ;
#110 = UNCERTAINTY_MEASURE_WITH_UNIT (LENGTH_MEASURE( 1.000000000000000082E-05 ), #94, 'distance_accuracy_value', 'NONE');
#111 = FACE_OUTER_BOUND ( 'NONE', #207, .T. ) ;
#112 = MECHANICAL_DESIGN_GEOMETRIC_PRESENTATION_REPRESENTATION (  '', ( #272 ), #147 ) ;
#113 = EDGE_CURVE ( 'NONE', #218, #142, #106, .T. ) ;
#114 = ORIENTED_EDGE ( 'NONE', *, *, #183, .T. ) ;
#115 = AXIS2_PLACEMENT_3D ( 'NONE', #88, #153, #244 ) ;
#116 = VERTEX_POINT ( 'NONE', #146 ) ;
#117 = UNCERTAINTY_MEASURE_WITH_UNIT (LENGTH_MEASURE( 1.000000000000000082E-05 ), #184, 'distance_accuracy_value', 'NONE');
#118 = ORIENTED_EDGE ( 'NONE', *, *, #3, .T. ) ;
#119 = DIRECTION ( 'NONE',  ( -7.347880794884118997E-17, 1.000000000000000000, 0.000000000000000000 ) ) ;
#120 =( NAMED_UNIT ( * ) SI_UNIT ( $, .STERADIAN. ) SOLID_ANGLE_UNIT ( ) );
#121 = ORIENTED_EDGE ( 'NONE', *, *, #183, .F. ) ;
#122 = FACE_OUTER_BOUND ( 'NONE', #306, .T. ) ;
#123 = PRESENTATION_STYLE_ASSIGNMENT (( #22 ) ) ;
#124 = EDGE_CURVE ( 'NONE', #163, #309, #104, .T. ) ;
#125 = PLANE ( 'NONE',  #240 ) ;
#126 = DIMENSIONAL_EXPONENTS ( 1.000000000000000000, 0.000000000000000000, 0.000000000000000000, 0.000000000000000000, 0.000000000000000000, 0.000000000000000000, 0.000000000000000000 ) ;
#127 = VECTOR ( 'NONE', #7, 39.37007874015748143 ) ;
#128 = FACE_OUTER_BOUND ( 'NONE', #20, .T. ) ;
#129 = SURFACE_SIDE_STYLE ('',( #154 ) ) ;
#130 = FILL_AREA_STYLE ('',( #132 ) ) ;
#131 = STYLED_ITEM ( 'NONE', ( #281 ), #10 ) ;
#132 = FILL_AREA_STYLE_COLOUR ( '', #64 ) ;
#133 =( CONVERSION_BASED_UNIT ( 'INCH', #108 ) LENGTH_UNIT ( ) NAMED_UNIT ( #30 ) );
#134 = DIMENSIONAL_EXPONENTS ( 1.000000000000000000, 0.000000000000000000, 0.000000000000000000, 0.000000000000000000, 0.000000000000000000, 0.000000000000000000, 0.000000000000000000 ) ;
#135 = AXIS2_PLACEMENT_3D ( 'NONE', #231, #119, #100 ) ;
#136 = PRODUCT_DEFINITION_FORMATION_WITH_SPECIFIED_SOURCE ( 'ANY', '', #78, .NOT_KNOWN. ) ;
#137 =( CONVERSION_BASED_UNIT ( 'INCH', #41 ) LENGTH_UNIT ( ) NAMED_UNIT ( #204 ) );
#138 = SURFACE_SIDE_STYLE ('',( #42 ) ) ;
#139 = PRESENTATION_LAYER_ASSIGNMENT (  '', '', ( #131 ) ) ;
#140 = STYLED_ITEM ( 'NONE', ( #273 ), #201 ) ;
#141 = LENGTH_MEASURE_WITH_UNIT ( LENGTH_MEASURE( 0.02539999999999999897 ), #92 );
#142 = VERTEX_POINT ( 'NONE', #200 ) ;
#143 = PLANE ( 'NONE',  #135 ) ;
#144 = DIRECTION ( 'NONE',  ( -0.000000000000000000, -1.000000000000000000, -0.000000000000000000 ) ) ;
#145 = DIRECTION ( 'NONE',  ( 0.000000000000000000, 0.000000000000000000, -1.000000000000000000 ) ) ;
#146 = CARTESIAN_POINT ( 'NONE',  ( 0.2500000000000000555, 5.000000000000000000, 3.061616997868385483E-17 ) ) ;
#147 =( GEOMETRIC_REPRESENTATION_CONTEXT ( 3 ) GLOBAL_UNCERTAINTY_ASSIGNED_CONTEXT ( ( #8 ) ) GLOBAL_UNIT_ASSIGNED_CONTEXT ( ( #148, #25, #11 ) ) REPRESENTATION_CONTEXT ( 'NONE', 'WORKASPACE' ) );
#148 =( CONVERSION_BASED_UNIT ( 'INCH', #194 ) LENGTH_UNIT ( ) NAMED_UNIT ( #34 ) );
#149 = EDGE_CURVE ( 'NONE', #254, #309, #292, .T. ) ;
#150 = CARTESIAN_POINT ( 'NONE',  ( 0.000000000000000000, 0.000000000000000000, 0.000000000000000000 ) ) ;
#151 = CARTESIAN_POINT ( 'NONE',  ( 0.000000000000000000, 0.000000000000000000, 0.000000000000000000 ) ) ;
#152 = CARTESIAN_POINT ( 'NONE',  ( 0.000000000000000000, 0.000000000000000000, 0.000000000000000000 ) ) ;
#153 = DIRECTION ( 'NONE',  ( -0.000000000000000000, -1.000000000000000000, -0.000000000000000000 ) ) ;
#154 = SURFACE_STYLE_FILL_AREA ( #130 ) ;
#155 = FACE_OUTER_BOUND ( 'NONE', #69, .T. ) ;
#156 = DIRECTION ( 'NONE',  ( -0.000000000000000000, -1.000000000000000000, -0.000000000000000000 ) ) ;
#157 = AXIS2_PLACEMENT_3D ( 'NONE', #51, #171, #265 ) ;
#158 = AXIS2_PLACEMENT_3D ( 'NONE', #247, #13, #109 ) ;
#159 = DIRECTION ( 'NONE',  ( -1.000000000000000000, 0.000000000000000000, 0.000000000000000000 ) ) ;
#160 = APPLICATION_CONTEXT ( 'automotive_design' ) ;
#161 = STYLED_ITEM ( 'NONE', ( #168 ), #224 ) ;
#162 = CARTESIAN_POINT ( 'NONE',  ( 3.061616997868383018E-17, 0.000000000000000000, 0.2500000000000000000 ) ) ;
#163 = VERTEX_POINT ( 'NONE', #84 ) ;
#164 = ORIENTED_EDGE ( 'NONE', *, *, #255, .T. ) ;
#165 = ADVANCED_FACE ( 'NONE', ( #250 ), #295, .T. ) ;
#166 = EDGE_LOOP ( 'NONE', ( #302, #4, #210, #213 ) ) ;
#167 = CIRCLE ( 'NONE', #305, 0.2500000000000000555 ) ;
#168 = PRESENTATION_STYLE_ASSIGNMENT (( #79 ) ) ;
#169 =( NAMED_UNIT ( * ) SI_UNIT ( $, .STERADIAN. ) SOLID_ANGLE_UNIT ( ) );
#170 = PRODUCT_CONTEXT ( 'NONE', #160, 'mechanical' ) ;
#171 = DIRECTION ( 'NONE',  ( -7.347880794884118997E-17, 1.000000000000000000, -0.000000000000000000 ) ) ;
#172 = FACE_OUTER_BOUND ( 'NONE', #166, .T. ) ;
#173 = AXIS2_PLACEMENT_3D ( 'NONE', #152, #156, #245 ) ;
#174 = DIRECTION ( 'NONE',  ( -1.000000000000000000, 0.000000000000000000, 0.000000000000000000 ) ) ;
#175 = DIRECTION ( 'NONE',  ( -7.347880794884118997E-17, 1.000000000000000000, -0.000000000000000000 ) ) ;
#176 = DIRECTION ( 'NONE',  ( -0.000000000000000000, -1.000000000000000000, -0.000000000000000000 ) ) ;
#177 =( GEOMETRIC_REPRESENTATION_CONTEXT ( 3 ) GLOBAL_UNCERTAINTY_ASSIGNED_CONTEXT ( ( #294 ) ) GLOBAL_UNIT_ASSIGNED_CONTEXT ( ( #133, #296, #222 ) ) REPRESENTATION_CONTEXT ( 'NONE', 'WORKASPACE' ) );
#178 = DIRECTION ( 'NONE',  ( -7.347880794884118997E-17, 1.000000000000000000, -0.000000000000000000 ) ) ;
#179 = EDGE_CURVE ( 'NONE', #243, #116, #241, .T. ) ;
#180 = STYLED_ITEM ( 'NONE', ( #16 ), #298 ) ;
#181 = ORIENTED_EDGE ( 'NONE', *, *, #60, .T. ) ;
#182 = CARTESIAN_POINT ( 'NONE',  ( 0.000000000000000000, 0.000000000000000000, 0.000000000000000000 ) ) ;
#183 = EDGE_CURVE ( 'NONE', #243, #218, #167, .T. ) ;
#184 =( CONVERSION_BASED_UNIT ( 'INCH', #19 ) LENGTH_UNIT ( ) NAMED_UNIT ( #199 ) );
#185 = UNCERTAINTY_MEASURE_WITH_UNIT (LENGTH_MEASURE( 1.000000000000000082E-05 ), #258, 'distance_accuracy_value', 'NONE');
#186 = CYLINDRICAL_SURFACE ( 'NONE', #252, 0.2500000000000000000 ) ;
#187 = PRESENTATION_LAYER_ASSIGNMENT (  '', '', ( #272 ) ) ;
#188 = ORIENTED_EDGE ( 'NONE', *, *, #113, .T. ) ;
#189 = FILL_AREA_STYLE_COLOUR ( '', #308 ) ;
#190 = DIRECTION ( 'NONE',  ( 0.000000000000000000, -0.000000000000000000, 1.000000000000000000 ) ) ;
#191 = ADVANCED_FACE ( 'NONE', ( #248 ), #266, .T. ) ;
#192 = PRODUCT_DEFINITION_SHAPE ( 'NONE', 'NONE',  #38 ) ;
#193 = SURFACE_SIDE_STYLE ('',( #56 ) ) ;
#194 = LENGTH_MEASURE_WITH_UNIT ( LENGTH_MEASURE( 0.02539999999999999897 ), #217 );
#195 = COLOUR_RGB ( '',0.7921568627450980005, 0.8196078431372548767, 0.9333333333333333481 ) ;
#196 = MECHANICAL_DESIGN_GEOMETRIC_PRESENTATION_REPRESENTATION (  '', ( #180 ), #206 ) ;
#197 = AXIS2_PLACEMENT_3D ( 'NONE', #151, #237, #85 ) ;
#198 = CARTESIAN_POINT ( 'NONE',  ( 0.000000000000000000, 0.000000000000000000, -0.2500000000000000000 ) ) ;
#199 = DIMENSIONAL_EXPONENTS ( 1.000000000000000000, 0.000000000000000000, 0.000000000000000000, 0.000000000000000000, 0.000000000000000000, 0.000000000000000000, 0.000000000000000000 ) ;
#200 = CARTESIAN_POINT ( 'NONE',  ( -0.2500000000000003886, 5.000000000000000000, 0.000000000000000000 ) ) ;
#201 = ADVANCED_FACE ( 'NONE', ( #172 ), #36, .T. ) ;
#202 =( NAMED_UNIT ( * ) SI_UNIT ( $, .STERADIAN. ) SOLID_ANGLE_UNIT ( ) );
#203 = CARTESIAN_POINT ( 'NONE',  ( -1.836970198721029688E-16, 5.000000000000000000, 0.000000000000000000 ) ) ;
#204 = DIMENSIONAL_EXPONENTS ( 1.000000000000000000, 0.000000000000000000, 0.000000000000000000, 0.000000000000000000, 0.000000000000000000, 0.000000000000000000, 0.000000000000000000 ) ;
#205 = CARTESIAN_POINT ( 'NONE',  ( -0.2500000000000002776, 5.000000000000000000, 0.000000000000000000 ) ) ;
#206 =( GEOMETRIC_REPRESENTATION_CONTEXT ( 3 ) GLOBAL_UNCERTAINTY_ASSIGNED_CONTEXT ( ( #110 ) ) GLOBAL_UNIT_ASSIGNED_CONTEXT ( ( #94, #276, #21 ) ) REPRESENTATION_CONTEXT ( 'NONE', 'WORKASPACE' ) );
#207 = EDGE_LOOP ( 'NONE', ( #97, #95 ) ) ;
#208 = CLOSED_SHELL ( 'NONE', ( #191, #229, #165, #264 ) ) ;
#209 =( GEOMETRIC_REPRESENTATION_CONTEXT ( 3 ) GLOBAL_UNCERTAINTY_ASSIGNED_CONTEXT ( ( #87 ) ) GLOBAL_UNIT_ASSIGNED_CONTEXT ( ( #225, #6, #202 ) ) REPRESENTATION_CONTEXT ( 'NONE', 'WORKASPACE' ) );
#210 = ORIENTED_EDGE ( 'NONE', *, *, #124, .F. ) ;
#211 = PLANE ( 'NONE',  #293 ) ;
#212 = EDGE_LOOP ( 'NONE', ( #99, #181, #24, #43 ) ) ;
#213 = ORIENTED_EDGE ( 'NONE', *, *, #52, .F. ) ;
#214 =( NAMED_UNIT ( * ) PLANE_ANGLE_UNIT ( ) SI_UNIT ( $, .RADIAN. ) );
#215 = STYLED_ITEM ( 'NONE', ( #123 ), #246 ) ;
#216 = CARTESIAN_POINT ( 'NONE',  ( 0.000000000000000000, 2.500000000000000000, 0.000000000000000000 ) ) ;
#217 =( LENGTH_UNIT ( ) NAMED_UNIT ( * ) SI_UNIT ( $, .METRE. ) );
#218 = VERTEX_POINT ( 'NONE', #14 ) ;
#219 = LINE ( 'NONE', #198, #76 ) ;
#220 = CIRCLE ( 'NONE', #115, 0.2500000000000000555 ) ;
#221 = DIRECTION ( 'NONE',  ( -1.000000000000000000, 0.000000000000000000, 0.000000000000000000 ) ) ;
#222 =( NAMED_UNIT ( * ) SI_UNIT ( $, .STERADIAN. ) SOLID_ANGLE_UNIT ( ) );
#223 = AXIS2_PLACEMENT_3D ( 'NONE', #89, #176, #227 ) ;
#224 = ADVANCED_FACE ( 'NONE', ( #111 ), #211, .T. ) ;
#225 =( CONVERSION_BASED_UNIT ( 'INCH', #9 ) LENGTH_UNIT ( ) NAMED_UNIT ( #126 ) );
#226 =( LENGTH_UNIT ( ) NAMED_UNIT ( * ) SI_UNIT ( $, .METRE. ) );
#227 = DIRECTION ( 'NONE',  ( 0.000000000000000000, 0.000000000000000000, -1.000000000000000000 ) ) ;
#228 =( GEOMETRIC_REPRESENTATION_CONTEXT ( 3 ) GLOBAL_UNCERTAINTY_ASSIGNED_CONTEXT ( ( #185 ) ) GLOBAL_UNIT_ASSIGNED_CONTEXT ( ( #258, #214, #75 ) ) REPRESENTATION_CONTEXT ( 'NONE', 'WORKASPACE' ) );
#229 = ADVANCED_FACE ( 'NONE', ( #122 ), #143, .F. ) ;
#230 = SURFACE_STYLE_FILL_AREA ( #287 ) ;
#231 = CARTESIAN_POINT ( 'NONE',  ( 6.748919021978359748E-34, 2.500000000000000000, 0.000000000000000000 ) ) ;
#232 = PRESENTATION_STYLE_ASSIGNMENT (( #103 ) ) ;
#233 = ORIENTED_EDGE ( 'NONE', *, *, #179, .F. ) ;
#234 = FILL_AREA_STYLE_COLOUR ( '', #195 ) ;
#235 = PRODUCT_RELATED_PRODUCT_CATEGORY ( 'part', '', ( #78 ) ) ;
#236 =( LENGTH_UNIT ( ) NAMED_UNIT ( * ) SI_UNIT ( $, .METRE. ) );
#237 = DIRECTION ( 'NONE',  ( 0.000000000000000000, 0.000000000000000000, 1.000000000000000000 ) ) ;
#238 = FILL_AREA_STYLE ('',( #189 ) ) ;
#239 = APPLICATION_PROTOCOL_DEFINITION ( 'draft international standard', 'automotive_design', 1998, #251 ) ;
#240 = AXIS2_PLACEMENT_3D ( 'NONE', #74, #263, #190 ) ;
#241 = LINE ( 'NONE', #29, #127 ) ;
#242 = UNCERTAINTY_MEASURE_WITH_UNIT (LENGTH_MEASURE( 1.000000000000000082E-05 ), #137, 'distance_accuracy_value', 'NONE');
#243 = VERTEX_POINT ( 'NONE', #307 ) ;
#244 = DIRECTION ( 'NONE',  ( 0.000000000000000000, 0.000000000000000000, -1.000000000000000000 ) ) ;
#245 = DIRECTION ( 'NONE',  ( 0.000000000000000000, 0.000000000000000000, -1.000000000000000000 ) ) ;
#246 = ADVANCED_FACE ( 'NONE', ( #98 ), #186, .T. ) ;
#247 = CARTESIAN_POINT ( 'NONE',  ( 0.2500000000000000555, 5.000000000000000000, 0.000000000000000000 ) ) ;
#248 = FACE_OUTER_BOUND ( 'NONE', #26, .T. ) ;
#249 = CIRCLE ( 'NONE', #107, 0.2500000000000002220 ) ;
#250 = FACE_OUTER_BOUND ( 'NONE', #45, .T. ) ;
#251 = APPLICATION_CONTEXT ( 'automotive_design' ) ;
#252 = AXIS2_PLACEMENT_3D ( 'NONE', #290, #289, #288 ) ;
#253 =( LENGTH_UNIT ( ) NAMED_UNIT ( * ) SI_UNIT ( $, .METRE. ) );
#254 = VERTEX_POINT ( 'NONE', #83 ) ;
#255 = EDGE_CURVE ( 'NONE', #142, #116, #249, .T. ) ;
#256 = DIRECTION ( 'NONE',  ( -1.000000000000000000, 0.000000000000000000, 0.000000000000000000 ) ) ;
#257 = CIRCLE ( 'NONE', #70, 0.2500000000000000000 ) ;
#258 =( CONVERSION_BASED_UNIT ( 'INCH', #55 ) LENGTH_UNIT ( ) NAMED_UNIT ( #134 ) );
#259 =( LENGTH_UNIT ( ) NAMED_UNIT ( * ) SI_UNIT ( $, .METRE. ) );
#260 = EDGE_CURVE ( 'NONE', #278, #254, #220, .T. ) ;
#261 = APPLICATION_PROTOCOL_DEFINITION ( 'draft international standard', 'automotive_design', 1998, #160 ) ;
#262 =( LENGTH_UNIT ( ) NAMED_UNIT ( * ) SI_UNIT ( $, .METRE. ) );
#263 = DIRECTION ( 'NONE',  ( 0.000000000000000000, 1.000000000000000000, 0.000000000000000000 ) ) ;
#264 = ADVANCED_FACE ( 'NONE', ( #155 ), #33, .F. ) ;
#265 = DIRECTION ( 'NONE',  ( -1.000000000000000000, 0.000000000000000000, 0.000000000000000000 ) ) ;
#266 = CYLINDRICAL_SURFACE ( 'NONE', #37, 0.2500000000000001110 ) ;
#267 = COLOUR_RGB ( '',1.000000000000000000, 0.000000000000000000, 0.000000000000000000 ) ;
#268 = DIRECTION ( 'NONE',  ( -7.347880794884118997E-17, 1.000000000000000000, -0.000000000000000000 ) ) ;
#269 = CARTESIAN_POINT ( 'NONE',  ( -1.836970198721029688E-16, 5.000000000000000000, 0.000000000000000000 ) ) ;
#270 = DIRECTION ( 'NONE',  ( -0.000000000000000000, -1.000000000000000000, -0.000000000000000000 ) ) ;
#271 = AXIS2_PLACEMENT_3D ( 'NONE', #28, #299, #256 ) ;
#272 = STYLED_ITEM ( 'NONE', ( #232 ), #102 ) ;
#273 = PRESENTATION_STYLE_ASSIGNMENT (( #297 ) ) ;
#274 = COLOUR_RGB ( '',0.7921568627450980005, 0.8196078431372548767, 0.9333333333333333481 ) ;
#275 = ORIENTED_EDGE ( 'NONE', *, *, #179, .T. ) ;
#276 =( NAMED_UNIT ( * ) PLANE_ANGLE_UNIT ( ) SI_UNIT ( $, .RADIAN. ) );
#277 = ORIENTED_EDGE ( 'NONE', *, *, #81, .T. ) ;
#278 = VERTEX_POINT ( 'NONE', #300 ) ;
#279 = SURFACE_SIDE_STYLE ('',( #2 ) ) ;
#280 = ORIENTED_EDGE ( 'NONE', *, *, #255, .F. ) ;
#281 = PRESENTATION_STYLE_ASSIGNMENT (( #91 ) ) ;
#282 = ORIENTED_EDGE ( 'NONE', *, *, #81, .F. ) ;
#283 = DIRECTION ( 'NONE',  ( 0.000000000000000000, 0.000000000000000000, -1.000000000000000000 ) ) ;
#284 = MECHANICAL_DESIGN_GEOMETRIC_PRESENTATION_REPRESENTATION (  '', ( #131 ), #304 ) ;
#285 = FILL_AREA_STYLE ('',( #93 ) ) ;
#286 = MECHANICAL_DESIGN_GEOMETRIC_PRESENTATION_REPRESENTATION (  '', ( #215 ), #209 ) ;
#287 = FILL_AREA_STYLE ('',( #18 ) ) ;
#288 = DIRECTION ( 'NONE',  ( 0.000000000000000000, 0.000000000000000000, -1.000000000000000000 ) ) ;
#289 = DIRECTION ( 'NONE',  ( -0.000000000000000000, -1.000000000000000000, -0.000000000000000000 ) ) ;
#290 = CARTESIAN_POINT ( 'NONE',  ( 0.000000000000000000, 0.000000000000000000, 0.000000000000000000 ) ) ;
#291 = CIRCLE ( 'NONE', #53, 0.2500000000000000555 ) ;
#292 = LINE ( 'NONE', #32, #12 ) ;
#293 = AXIS2_PLACEMENT_3D ( 'NONE', #150, #48, #145 ) ;
#294 = UNCERTAINTY_MEASURE_WITH_UNIT (LENGTH_MEASURE( 1.000000000000000082E-05 ), #133, 'distance_accuracy_value', 'NONE');
#295 = CYLINDRICAL_SURFACE ( 'NONE', #46, 0.2500000000000001110 ) ;
#296 =( NAMED_UNIT ( * ) PLANE_ANGLE_UNIT ( ) SI_UNIT ( $, .RADIAN. ) );
#297 = SURFACE_STYLE_USAGE ( .BOTH. , #129 ) ;
#298 = MANIFOLD_SOLID_BREP ( 'Revolve - Cutting Edge', #35 ) ;
#299 = DIRECTION ( 'NONE',  ( -7.347880794884118997E-17, 1.000000000000000000, -0.000000000000000000 ) ) ;
#300 = CARTESIAN_POINT ( 'NONE',  ( 0.000000000000000000, 2.500000000000000000, -0.2500000000000000555 ) ) ;
#301 = EDGE_CURVE ( 'NONE', #309, #163, #257, .T. ) ;
#302 = ORIENTED_EDGE ( 'NONE', *, *, #260, .T. ) ;
#303 =( NAMED_UNIT ( * ) PLANE_ANGLE_UNIT ( ) SI_UNIT ( $, .RADIAN. ) );
#304 =( GEOMETRIC_REPRESENTATION_CONTEXT ( 3 ) GLOBAL_UNCERTAINTY_ASSIGNED_CONTEXT ( ( #242 ) ) GLOBAL_UNIT_ASSIGNED_CONTEXT ( ( #137, #303, #169 ) ) REPRESENTATION_CONTEXT ( 'NONE', 'WORKASPACE' ) );
#305 = AXIS2_PLACEMENT_3D ( 'NONE', #59, #268, #159 ) ;
#306 = EDGE_LOOP ( 'NONE', ( #282, #121 ) ) ;
#307 = CARTESIAN_POINT ( 'NONE',  ( 0.2500000000000000555, 2.500000000000000000, 3.061616997868385483E-17 ) ) ;
#308 = COLOUR_RGB ( '',1.000000000000000000, 0.000000000000000000, 0.000000000000000000 ) ;
#309 = VERTEX_POINT ( 'NONE', #162 ) ;
ENDSEC;
END-ISO-10303-21;
