ISO-10303-21;
HEADER;
FILE_DESCRIPTION (( 'STEP AP214' ),
    '1' );
FILE_NAME ('Micro_AEMM-035-3X.STEP',
    '2022-03-15T14:24:44',
    ( '' ),
    ( '' ),
    'SwSTEP 2.0',
    'SolidWorks 2022',
    '' );
FILE_SCHEMA (( 'AUTOMOTIVE_DESIGN' ));
ENDSEC;

DATA;
#1 = ORIENTED_EDGE ( 'NONE', *, *, #79, .F. ) ;
#2 = SURFACE_STYLE_FILL_AREA ( #186 ) ;
#3 = EDGE_CURVE ( 'NONE', #263, #91, #187, .T. ) ;
#4 = LENGTH_MEASURE_WITH_UNIT ( LENGTH_MEASURE( 0.02539999999999999897 ), #138 );
#5 = AXIS2_PLACEMENT_3D ( 'NONE', #244, #8, #75 ) ;
#6 = VECTOR ( 'NONE', #177, 39.37007874015748143 ) ;
#7 = DIRECTION ( 'NONE',  ( 0.000000000000000000, 0.000000000000000000, 1.000000000000000000 ) ) ;
#8 = DIRECTION ( 'NONE',  ( -1.224646799147353207E-16, -0.000000000000000000, -1.000000000000000000 ) ) ;
#9 = DIRECTION ( 'NONE',  ( 1.000000000000000000, 0.000000000000000000, 0.000000000000000000 ) ) ;
#10 = ADVANCED_BREP_SHAPE_REPRESENTATION ( 'Micro_AEMM-035-3X', ( #151, #248 ), #251 ) ;
#11 = DIRECTION ( 'NONE',  ( 1.000000000000000000, 0.000000000000000000, 0.000000000000000000 ) ) ;
#12 = ORIENTED_EDGE ( 'NONE', *, *, #15, .T. ) ;
#13 = CIRCLE ( 'NONE', #85, 0.1031100000000002570 ) ;
#14 = CARTESIAN_POINT ( 'NONE',  ( 0.000000000000000000, 0.000000000000000000, 2.244094000000000033 ) ) ;
#15 = EDGE_CURVE ( 'NONE', #134, #113, #247, .T. ) ;
#16 = CIRCLE ( 'NONE', #261, 0.1181100000000000066 ) ;
#17 = EDGE_CURVE ( 'NONE', #263, #51, #215, .T. ) ;
#18 = LINE ( 'NONE', #202, #201 ) ;
#19 =( LENGTH_UNIT ( ) NAMED_UNIT ( * ) SI_UNIT ( $, .METRE. ) );
#20 = SURFACE_SIDE_STYLE ('',( #42 ) ) ;
#21 =( GEOMETRIC_REPRESENTATION_CONTEXT ( 3 ) GLOBAL_UNCERTAINTY_ASSIGNED_CONTEXT ( ( #100 ) ) GLOBAL_UNIT_ASSIGNED_CONTEXT ( ( #225, #46, #181 ) ) REPRESENTATION_CONTEXT ( 'NONE', 'WORKASPACE' ) );
#22 = APPLICATION_PROTOCOL_DEFINITION ( 'draft international standard', 'automotive_design', 1998, #62 ) ;
#23 = CARTESIAN_POINT ( 'NONE',  ( 1.032263699263193969E-33, 0.000000000000000000, 8.429072774141052587E-18 ) ) ;
#24 = ORIENTED_EDGE ( 'NONE', *, *, #128, .F. ) ;
#25 = CARTESIAN_POINT ( 'NONE',  ( 4.821446694711121291E-17, 0.000000000000000000, 0.3937009999999999676 ) ) ;
#26 = CARTESIAN_POINT ( 'NONE',  ( 1.032263699263193969E-33, 0.000000000000000000, 8.429072774141052587E-18 ) ) ;
#27 = ORIENTED_EDGE ( 'NONE', *, *, #17, .F. ) ;
#28 = ORIENTED_EDGE ( 'NONE', *, *, #140, .T. ) ;
#29 = EDGE_CURVE ( 'NONE', #113, #134, #131, .T. ) ;
#30 = EDGE_CURVE ( 'NONE', #88, #51, #197, .T. ) ;
#31 = VERTEX_POINT ( 'NONE', #126 ) ;
#32 = AXIS2_PLACEMENT_3D ( 'NONE', #94, #119, #260 ) ;
#33 = DIRECTION ( 'NONE',  ( -1.224646799147353207E-16, -0.000000000000000000, -1.000000000000000000 ) ) ;
#34 = CARTESIAN_POINT ( 'NONE',  ( 0.1181100000000000066, 1.446430334472939084E-17, 2.229093999999999465 ) ) ;
#35 = DIRECTION ( 'NONE',  ( -0.7071067811865358044, 0.000000000000000000, -0.7071067811865590080 ) ) ;
#36 = FACE_OUTER_BOUND ( 'NONE', #163, .T. ) ;
#37 = FILL_AREA_STYLE_COLOUR ( '', #277 ) ;
#38 = ORIENTED_EDGE ( 'NONE', *, *, #30, .F. ) ;
#39 = AXIS2_PLACEMENT_3D ( 'NONE', #221, #293, #219 ) ;
#40 = CONICAL_SURFACE ( 'NONE', #93, 0.06882860250000000235, 0.1745329251994338360 ) ;
#41 = CARTESIAN_POINT ( 'NONE',  ( 0.000000000000000000, 0.000000000000000000, 2.244094000000000033 ) ) ;
#42 = SURFACE_STYLE_FILL_AREA ( #255 ) ;
#43 = CARTESIAN_POINT ( 'NONE',  ( 0.000000000000000000, 0.000000000000000000, 0.000000000000000000 ) ) ;
#44 = DIMENSIONAL_EXPONENTS ( 1.000000000000000000, 0.000000000000000000, 0.000000000000000000, 0.000000000000000000, 0.000000000000000000, 0.000000000000000000, 0.000000000000000000 ) ;
#45 = AXIS2_PLACEMENT_3D ( 'NONE', #121, #168, #11 ) ;
#46 =( NAMED_UNIT ( * ) PLANE_ANGLE_UNIT ( ) SI_UNIT ( $, .RADIAN. ) );
#47 = EDGE_LOOP ( 'NONE', ( #232, #190 ) ) ;
#48 = ORIENTED_EDGE ( 'NONE', *, *, #17, .T. ) ;
#49 = ADVANCED_FACE ( 'NONE', ( #103 ), #216, .F. ) ;
#50 = VECTOR ( 'NONE', #236, 39.37007874015748143 ) ;
#51 = VERTEX_POINT ( 'NONE', #290 ) ;
#52 = DIRECTION ( 'NONE',  ( -1.000000000000000000, 0.000000000000000000, 1.224646799147353454E-16 ) ) ;
#53 = CARTESIAN_POINT ( 'NONE',  ( 0.06882860250000005786, 0.000000000000000000, 0.3937009999999999676 ) ) ;
#54 = AXIS2_PLACEMENT_3D ( 'NONE', #95, #97, #124 ) ;
#55 = VECTOR ( 'NONE', #57, 39.37007874015748143 ) ;
#56 = CARTESIAN_POINT ( 'NONE',  ( 0.06882860250000000235, 8.429072774141052587E-18, 0.000000000000000000 ) ) ;
#57 = DIRECTION ( 'NONE',  ( -1.224646799147353207E-16, -0.000000000000000000, -1.000000000000000000 ) ) ;
#58 = ADVANCED_FACE ( 'NONE', ( #172 ), #145, .T. ) ;
#59 = STYLED_ITEM ( 'NONE', ( #178 ), #10 ) ;
#60 = CYLINDRICAL_SURFACE ( 'NONE', #39, 0.06882860250000000235 ) ;
#61 = FACE_OUTER_BOUND ( 'NONE', #228, .T. ) ;
#62 = APPLICATION_CONTEXT ( 'automotive_design' ) ;
#63 = ORIENTED_EDGE ( 'NONE', *, *, #294, .F. ) ;
#64 = AXIS2_PLACEMENT_3D ( 'NONE', #167, #191, #238 ) ;
#65 = CIRCLE ( 'NONE', #207, 0.06882860250000000235 ) ;
#66 = ORIENTED_EDGE ( 'NONE', *, *, #99, .T. ) ;
#67 = ADVANCED_FACE ( 'NONE', ( #142 ), #237, .T. ) ;
#68 = LINE ( 'NONE', #184, #50 ) ;
#69 = ORIENTED_EDGE ( 'NONE', *, *, #109, .F. ) ;
#70 = ORIENTED_EDGE ( 'NONE', *, *, #231, .T. ) ;
#71 = SURFACE_SIDE_STYLE ('',( #2 ) ) ;
#72 = CLOSED_SHELL ( 'NONE', ( #226, #217, #254, #164, #245, #67, #58, #123, #209, #49 ) ) ;
#73 = CIRCLE ( 'NONE', #32, 0.1181100000000000066 ) ;
#74 = DIRECTION ( 'NONE',  ( -1.224646799147353207E-16, -0.000000000000000000, -1.000000000000000000 ) ) ;
#75 = DIRECTION ( 'NONE',  ( -1.000000000000000000, 0.000000000000000000, 0.000000000000000000 ) ) ;
#76 = CARTESIAN_POINT ( 'NONE',  ( 0.06882860250000005786, 0.000000000000000000, 0.3937009999999999676 ) ) ;
#77 = ORIENTED_EDGE ( 'NONE', *, *, #176, .T. ) ;
#78 = CARTESIAN_POINT ( 'NONE',  ( -0.06882860249999996072, 1.144668805943522018E-17, 0.3937009999999999676 ) ) ;
#79 = EDGE_CURVE ( 'NONE', #259, #31, #16, .T. ) ;
#80 = DIRECTION ( 'NONE',  ( -1.000000000000000000, 0.000000000000000000, 0.000000000000000000 ) ) ;
#81 = AXIS2_PLACEMENT_3D ( 'NONE', #14, #287, #166 ) ;
#82 = DIRECTION ( 'NONE',  ( 0.000000000000000000, 0.000000000000000000, 1.000000000000000000 ) ) ;
#83 = ORIENTED_EDGE ( 'NONE', *, *, #15, .F. ) ;
#84 = VERTEX_POINT ( 'NONE', #56 ) ;
#85 = AXIS2_PLACEMENT_3D ( 'NONE', #144, #249, #242 ) ;
#86 = CARTESIAN_POINT ( 'NONE',  ( 0.000000000000000000, 0.000000000000000000, 2.229093999999999465 ) ) ;
#87 = PRODUCT ( 'Micro_AEMM-035-3X', 'Micro_AEMM-035-3X', '', ( #107 ) ) ;
#88 = VERTEX_POINT ( 'NONE', #34 ) ;
#89 = ORIENTED_EDGE ( 'NONE', *, *, #176, .F. ) ;
#90 =( NAMED_UNIT ( * ) SI_UNIT ( $, .STERADIAN. ) SOLID_ANGLE_UNIT ( ) );
#91 = VERTEX_POINT ( 'NONE', #148 ) ;
#92 =( NAMED_UNIT ( * ) PLANE_ANGLE_UNIT ( ) SI_UNIT ( $, .RADIAN. ) );
#93 = AXIS2_PLACEMENT_3D ( 'NONE', #25, #286, #196 ) ;
#94 = CARTESIAN_POINT ( 'NONE',  ( 8.244196035928968872E-17, 0.000000000000000000, 0.6731896936871021309 ) ) ;
#95 = CARTESIAN_POINT ( 'NONE',  ( 4.821446694711121291E-17, 0.000000000000000000, 0.3937009999999999676 ) ) ;
#96 = LINE ( 'NONE', #53, #125 ) ;
#97 = DIRECTION ( 'NONE',  ( -1.224646799147353207E-16, -0.000000000000000000, -1.000000000000000000 ) ) ;
#98 = LINE ( 'NONE', #192, #122 ) ;
#99 = EDGE_CURVE ( 'NONE', #113, #259, #96, .T. ) ;
#100 = UNCERTAINTY_MEASURE_WITH_UNIT (LENGTH_MEASURE( 1.000000000000000082E-05 ), #225, 'distance_accuracy_value', 'NONE');
#101 = MECHANICAL_DESIGN_GEOMETRIC_PRESENTATION_REPRESENTATION (  '', ( #214 ), #256 ) ;
#102 = ORIENTED_EDGE ( 'NONE', *, *, #3, .T. ) ;
#103 = FACE_OUTER_BOUND ( 'NONE', #47, .T. ) ;
#104 = UNCERTAINTY_MEASURE_WITH_UNIT (LENGTH_MEASURE( 1.000000000000000082E-05 ), #116, 'distance_accuracy_value', 'NONE');
#105 = AXIS2_PLACEMENT_3D ( 'NONE', #159, #250, #222 ) ;
#106 = LINE ( 'NONE', #252, #133 ) ;
#107 = PRODUCT_CONTEXT ( 'NONE', #243, 'mechanical' ) ;
#108 = DIRECTION ( 'NONE',  ( -1.000000000000000000, 0.000000000000000000, 1.224646799147353454E-16 ) ) ;
#109 = EDGE_CURVE ( 'NONE', #91, #263, #13, .T. ) ;
#110 = AXIS2_PLACEMENT_3D ( 'NONE', #43, #296, #108 ) ;
#111 = DIMENSIONAL_EXPONENTS ( 1.000000000000000000, 0.000000000000000000, 0.000000000000000000, 0.000000000000000000, 0.000000000000000000, 0.000000000000000000, 0.000000000000000000 ) ;
#112 = CARTESIAN_POINT ( 'NONE',  ( 0.1181100000000000899, 1.446430334472940009E-17, 0.6731896936871021309 ) ) ;
#113 = VERTEX_POINT ( 'NONE', #76 ) ;
#114 = DIRECTION ( 'NONE',  ( -1.000000000000000000, 0.000000000000000000, 1.224646799147353454E-16 ) ) ;
#115 = ORIENTED_EDGE ( 'NONE', *, *, #29, .T. ) ;
#116 =( CONVERSION_BASED_UNIT ( 'INCH', #4 ) LENGTH_UNIT ( ) NAMED_UNIT ( #111 ) );
#117 = ORIENTED_EDGE ( 'NONE', *, *, #109, .T. ) ;
#118 = FILL_AREA_STYLE_COLOUR ( '', #288 ) ;
#119 = DIRECTION ( 'NONE',  ( -1.224646799147353207E-16, -0.000000000000000000, -1.000000000000000000 ) ) ;
#120 = EDGE_LOOP ( 'NONE', ( #63, #211, #183, #1 ) ) ;
#121 = CARTESIAN_POINT ( 'NONE',  ( 4.821446694711121291E-17, 0.000000000000000000, 0.3937009999999999676 ) ) ;
#122 = VECTOR ( 'NONE', #289, 39.37007874015748143 ) ;
#123 = ADVANCED_FACE ( 'NONE', ( #36 ), #137, .T. ) ;
#124 = DIRECTION ( 'NONE',  ( -1.000000000000000000, 0.000000000000000000, 0.000000000000000000 ) ) ;
#125 = VECTOR ( 'NONE', #272, 39.37007874015748143 ) ;
#126 = CARTESIAN_POINT ( 'NONE',  ( -0.1181099999999999234, 0.000000000000000000, 0.6731896936871021309 ) ) ;
#127 = AXIS2_PLACEMENT_3D ( 'NONE', #147, #241, #271 ) ;
#128 = EDGE_CURVE ( 'NONE', #51, #31, #98, .T. ) ;
#129 = LENGTH_MEASURE_WITH_UNIT ( LENGTH_MEASURE( 0.02539999999999999897 ), #19 );
#130 = CYLINDRICAL_SURFACE ( 'NONE', #105, 0.1181100000000000066 ) ;
#131 = CIRCLE ( 'NONE', #5, 0.06882860250000000235 ) ;
#132 = ORIENTED_EDGE ( 'NONE', *, *, #231, .F. ) ;
#133 = VECTOR ( 'NONE', #174, 39.37007874015747433 ) ;
#134 = VERTEX_POINT ( 'NONE', #78 ) ;
#135 = ORIENTED_EDGE ( 'NONE', *, *, #140, .F. ) ;
#136 = ORIENTED_EDGE ( 'NONE', *, *, #3, .F. ) ;
#137 = CONICAL_SURFACE ( 'NONE', #45, 0.06882860250000000235, 0.1745329251994338360 ) ;
#138 =( LENGTH_UNIT ( ) NAMED_UNIT ( * ) SI_UNIT ( $, .METRE. ) );
#139 = EDGE_LOOP ( 'NONE', ( #102, #117 ) ) ;
#140 = EDGE_CURVE ( 'NONE', #134, #283, #171, .T. ) ;
#141 = DIRECTION ( 'NONE',  ( 0.000000000000000000, 0.000000000000000000, -1.000000000000000000 ) ) ;
#142 = FACE_OUTER_BOUND ( 'NONE', #139, .T. ) ;
#143 = CARTESIAN_POINT ( 'NONE',  ( 8.244196035928968872E-17, 0.000000000000000000, 0.6731896936871021309 ) ) ;
#144 = CARTESIAN_POINT ( 'NONE',  ( 0.000000000000000000, 0.000000000000000000, 2.244094000000000033 ) ) ;
#145 = CONICAL_SURFACE ( 'NONE', #81, 0.1031100000000002570, 0.7853981633974318477 ) ;
#146 = CIRCLE ( 'NONE', #193, 0.1181100000000000066 ) ;
#147 = CARTESIAN_POINT ( 'NONE',  ( 0.000000000000000000, 0.000000000000000000, 2.244094000000000033 ) ) ;
#148 = CARTESIAN_POINT ( 'NONE',  ( 0.1031100000000002570, 1.354581824536888722E-17, 2.244094000000000033 ) ) ;
#149 = DIMENSIONAL_EXPONENTS ( 1.000000000000000000, 0.000000000000000000, 0.000000000000000000, 0.000000000000000000, 0.000000000000000000, 0.000000000000000000, 0.000000000000000000 ) ;
#150 = DIRECTION ( 'NONE',  ( -0.000000000000000000, -0.000000000000000000, -1.000000000000000000 ) ) ;
#151 = MANIFOLD_SOLID_BREP ( 'Cut-Revolve1', #72 ) ;
#152 =( NAMED_UNIT ( * ) PLANE_ANGLE_UNIT ( ) SI_UNIT ( $, .RADIAN. ) );
#153 = PRODUCT_RELATED_PRODUCT_CATEGORY ( 'part', '', ( #87 ) ) ;
#154 = PRODUCT_DEFINITION_CONTEXT ( 'detailed design', #62, 'design' ) ;
#155 = LINE ( 'NONE', #281, #6 ) ;
#156 = SURFACE_STYLE_USAGE ( .BOTH. , #20 ) ;
#157 = SURFACE_STYLE_USAGE ( .BOTH. , #71 ) ;
#158 = ORIENTED_EDGE ( 'NONE', *, *, #204, .T. ) ;
#159 = CARTESIAN_POINT ( 'NONE',  ( 0.000000000000000000, 0.000000000000000000, 2.244094000000000033 ) ) ;
#160 = ORIENTED_EDGE ( 'NONE', *, *, #264, .T. ) ;
#161 = ORIENTED_EDGE ( 'NONE', *, *, #204, .F. ) ;
#162 = CARTESIAN_POINT ( 'NONE',  ( -0.06882860250000000235, 0.000000000000000000, 1.685814554828210517E-17 ) ) ;
#163 = EDGE_LOOP ( 'NONE', ( #132, #208, #66, #182 ) ) ;
#164 = ADVANCED_FACE ( 'NONE', ( #61 ), #130, .T. ) ;
#165 = AXIS2_PLACEMENT_3D ( 'NONE', #23, #258, #52 ) ;
#166 = DIRECTION ( 'NONE',  ( -1.000000000000000000, 0.000000000000000000, 0.000000000000000000 ) ) ;
#167 = CARTESIAN_POINT ( 'NONE',  ( 0.000000000000000000, 0.000000000000000000, 2.229093999999999465 ) ) ;
#168 = DIRECTION ( 'NONE',  ( 1.224646799147353207E-16, 0.000000000000000000, 1.000000000000000000 ) ) ;
#169 = PRESENTATION_LAYER_ASSIGNMENT (  '', '', ( #214 ) ) ;
#170 = CARTESIAN_POINT ( 'NONE',  ( 0.000000000000000000, 0.000000000000000000, 2.244094000000000033 ) ) ;
#171 = LINE ( 'NONE', #270, #55 ) ;
#172 = FACE_OUTER_BOUND ( 'NONE', #234, .T. ) ;
#173 = FACE_OUTER_BOUND ( 'NONE', #189, .T. ) ;
#174 = DIRECTION ( 'NONE',  ( -0.1736481776669311639, 2.126576849575782392E-17, 0.9848077530122080203 ) ) ;
#175 = FACE_OUTER_BOUND ( 'NONE', #298, .T. ) ;
#176 = EDGE_CURVE ( 'NONE', #113, #84, #155, .T. ) ;
#177 = DIRECTION ( 'NONE',  ( -1.224646799147353207E-16, -0.000000000000000000, -1.000000000000000000 ) ) ;
#178 = PRESENTATION_STYLE_ASSIGNMENT (( #157 ) ) ;
#179 =( CONVERSION_BASED_UNIT ( 'INCH', #229 ) LENGTH_UNIT ( ) NAMED_UNIT ( #44 ) );
#180 = ORIENTED_EDGE ( 'NONE', *, *, #294, .T. ) ;
#181 =( NAMED_UNIT ( * ) SI_UNIT ( $, .STERADIAN. ) SOLID_ANGLE_UNIT ( ) );
#182 = ORIENTED_EDGE ( 'NONE', *, *, #79, .T. ) ;
#183 = ORIENTED_EDGE ( 'NONE', *, *, #128, .T. ) ;
#184 = CARTESIAN_POINT ( 'NONE',  ( 0.1181100000000000066, 1.446430334472939084E-17, 2.244094000000000033 ) ) ;
#185 = ORIENTED_EDGE ( 'NONE', *, *, #99, .F. ) ;
#186 = FILL_AREA_STYLE ('',( #118 ) ) ;
#187 = CIRCLE ( 'NONE', #127, 0.1031100000000002570 ) ;
#188 = PRODUCT_DEFINITION_FORMATION_WITH_SPECIFIED_SOURCE ( 'ANY', '', #87, .NOT_KNOWN. ) ;
#189 = EDGE_LOOP ( 'NONE', ( #12, #77, #212, #135 ) ) ;
#190 = ORIENTED_EDGE ( 'NONE', *, *, #268, .T. ) ;
#191 = DIRECTION ( 'NONE',  ( 0.000000000000000000, 0.000000000000000000, -1.000000000000000000 ) ) ;
#192 = CARTESIAN_POINT ( 'NONE',  ( -0.1181100000000000066, 0.000000000000000000, 2.244094000000000033 ) ) ;
#193 = AXIS2_PLACEMENT_3D ( 'NONE', #86, #141, #284 ) ;
#194 = DIRECTION ( 'NONE',  ( 0.000000000000000000, 0.000000000000000000, 1.000000000000000000 ) ) ;
#195 = DIRECTION ( 'NONE',  ( 1.000000000000000000, 0.000000000000000000, -0.000000000000000000 ) ) ;
#196 = DIRECTION ( 'NONE',  ( 1.000000000000000000, 0.000000000000000000, 0.000000000000000000 ) ) ;
#197 = CIRCLE ( 'NONE', #64, 0.1181100000000000066 ) ;
#198 = AXIS2_PLACEMENT_3D ( 'NONE', #292, #150, #80 ) ;
#199 = CYLINDRICAL_SURFACE ( 'NONE', #198, 0.1181100000000000066 ) ;
#200 = FACE_OUTER_BOUND ( 'NONE', #206, .T. ) ;
#201 = VECTOR ( 'NONE', #276, 39.37007874015748854 ) ;
#202 = CARTESIAN_POINT ( 'NONE',  ( 0.1031100000000002570, 1.262733314600838667E-17, 2.244094000000000033 ) ) ;
#203 = SHAPE_DEFINITION_REPRESENTATION ( #267, #10 ) ;
#204 = EDGE_CURVE ( 'NONE', #91, #88, #18, .T. ) ;
#205 = EDGE_LOOP ( 'NONE', ( #89, #115, #28, #235 ) ) ;
#206 = EDGE_LOOP ( 'NONE', ( #83, #70, #160, #185 ) ) ;
#207 = AXIS2_PLACEMENT_3D ( 'NONE', #26, #74, #114 ) ;
#208 = ORIENTED_EDGE ( 'NONE', *, *, #29, .F. ) ;
#209 = ADVANCED_FACE ( 'NONE', ( #224 ), #253, .T. ) ;
#210 = PRODUCT_DEFINITION ( 'UNKNOWN', '', #188, #154 ) ;
#211 = ORIENTED_EDGE ( 'NONE', *, *, #30, .T. ) ;
#212 = ORIENTED_EDGE ( 'NONE', *, *, #269, .F. ) ;
#213 = CARTESIAN_POINT ( 'NONE',  ( 0.000000000000000000, 0.000000000000000000, 0.000000000000000000 ) ) ;
#214 = STYLED_ITEM ( 'NONE', ( #280 ), #151 ) ;
#215 = LINE ( 'NONE', #218, #273 ) ;
#216 = PLANE ( 'NONE',  #239 ) ;
#217 = ADVANCED_FACE ( 'NONE', ( #200 ), #40, .T. ) ;
#218 = CARTESIAN_POINT ( 'NONE',  ( -0.1031100000000002570, 0.000000000000000000, 2.244094000000000033 ) ) ;
#219 = DIRECTION ( 'NONE',  ( -1.000000000000000000, 0.000000000000000000, 1.224646799147353454E-16 ) ) ;
#220 = AXIS2_PLACEMENT_3D ( 'NONE', #41, #265, #230 ) ;
#221 = CARTESIAN_POINT ( 'NONE',  ( 0.000000000000000000, 0.000000000000000000, 0.000000000000000000 ) ) ;
#222 = DIRECTION ( 'NONE',  ( -1.000000000000000000, 0.000000000000000000, 0.000000000000000000 ) ) ;
#223 = CARTESIAN_POINT ( 'NONE',  ( 0.000000000000000000, 0.000000000000000000, 0.000000000000000000 ) ) ;
#224 = FACE_OUTER_BOUND ( 'NONE', #205, .T. ) ;
#225 =( CONVERSION_BASED_UNIT ( 'INCH', #129 ) LENGTH_UNIT ( ) NAMED_UNIT ( #149 ) );
#226 = ADVANCED_FACE ( 'NONE', ( #173 ), #60, .T. ) ;
#227 = DIRECTION ( 'NONE',  ( 1.000000000000000000, 0.000000000000000000, 0.000000000000000000 ) ) ;
#228 = EDGE_LOOP ( 'NONE', ( #246, #180, #297, #24 ) ) ;
#229 = LENGTH_MEASURE_WITH_UNIT ( LENGTH_MEASURE( 0.02539999999999999897 ), #275 );
#230 = DIRECTION ( 'NONE',  ( -1.000000000000000000, 0.000000000000000000, 0.000000000000000000 ) ) ;
#231 = EDGE_CURVE ( 'NONE', #134, #31, #106, .T. ) ;
#232 = ORIENTED_EDGE ( 'NONE', *, *, #269, .T. ) ;
#233 = PRESENTATION_LAYER_ASSIGNMENT (  '', '', ( #59 ) ) ;
#234 = EDGE_LOOP ( 'NONE', ( #161, #136, #48, #38 ) ) ;
#235 = ORIENTED_EDGE ( 'NONE', *, *, #268, .F. ) ;
#236 = DIRECTION ( 'NONE',  ( -0.000000000000000000, -0.000000000000000000, -1.000000000000000000 ) ) ;
#237 = PLANE ( 'NONE',  #282 ) ;
#238 = DIRECTION ( 'NONE',  ( 1.000000000000000000, 0.000000000000000000, 0.000000000000000000 ) ) ;
#239 = AXIS2_PLACEMENT_3D ( 'NONE', #213, #194, #195 ) ;
#240 = UNCERTAINTY_MEASURE_WITH_UNIT (LENGTH_MEASURE( 1.000000000000000082E-05 ), #179, 'distance_accuracy_value', 'NONE');
#241 = DIRECTION ( 'NONE',  ( 0.000000000000000000, 0.000000000000000000, 1.000000000000000000 ) ) ;
#242 = DIRECTION ( 'NONE',  ( 1.000000000000000000, 0.000000000000000000, 0.000000000000000000 ) ) ;
#243 = APPLICATION_CONTEXT ( 'automotive_design' ) ;
#244 = CARTESIAN_POINT ( 'NONE',  ( 4.821446694711121291E-17, 0.000000000000000000, 0.3937009999999999676 ) ) ;
#245 = ADVANCED_FACE ( 'NONE', ( #274 ), #199, .T. ) ;
#246 = ORIENTED_EDGE ( 'NONE', *, *, #285, .T. ) ;
#247 = CIRCLE ( 'NONE', #54, 0.06882860250000000235 ) ;
#248 = AXIS2_PLACEMENT_3D ( 'NONE', #223, #82, #227 ) ;
#249 = DIRECTION ( 'NONE',  ( 0.000000000000000000, 0.000000000000000000, 1.000000000000000000 ) ) ;
#250 = DIRECTION ( 'NONE',  ( -0.000000000000000000, -0.000000000000000000, -1.000000000000000000 ) ) ;
#251 =( GEOMETRIC_REPRESENTATION_CONTEXT ( 3 ) GLOBAL_UNCERTAINTY_ASSIGNED_CONTEXT ( ( #104 ) ) GLOBAL_UNIT_ASSIGNED_CONTEXT ( ( #116, #92, #90 ) ) REPRESENTATION_CONTEXT ( 'NONE', 'WORKASPACE' ) );
#252 = CARTESIAN_POINT ( 'NONE',  ( -0.06882860249999996072, 8.429072774141052587E-18, 0.3937009999999999676 ) ) ;
#253 = CYLINDRICAL_SURFACE ( 'NONE', #110, 0.06882860250000000235 ) ;
#254 = ADVANCED_FACE ( 'NONE', ( #175 ), #295, .T. ) ;
#255 = FILL_AREA_STYLE ('',( #37 ) ) ;
#256 =( GEOMETRIC_REPRESENTATION_CONTEXT ( 3 ) GLOBAL_UNCERTAINTY_ASSIGNED_CONTEXT ( ( #240 ) ) GLOBAL_UNIT_ASSIGNED_CONTEXT ( ( #179, #152, #278 ) ) REPRESENTATION_CONTEXT ( 'NONE', 'WORKASPACE' ) );
#257 = ORIENTED_EDGE ( 'NONE', *, *, #285, .F. ) ;
#258 = DIRECTION ( 'NONE',  ( -1.224646799147353207E-16, -0.000000000000000000, -1.000000000000000000 ) ) ;
#259 = VERTEX_POINT ( 'NONE', #112 ) ;
#260 = DIRECTION ( 'NONE',  ( 1.000000000000000000, 0.000000000000000000, 0.000000000000000000 ) ) ;
#261 = AXIS2_PLACEMENT_3D ( 'NONE', #143, #33, #9 ) ;
#262 = CARTESIAN_POINT ( 'NONE',  ( -0.1031100000000002570, 0.000000000000000000, 2.244094000000000033 ) ) ;
#263 = VERTEX_POINT ( 'NONE', #262 ) ;
#264 = EDGE_CURVE ( 'NONE', #31, #259, #73, .T. ) ;
#265 = DIRECTION ( 'NONE',  ( 0.000000000000000000, 0.000000000000000000, -1.000000000000000000 ) ) ;
#266 = DIRECTION ( 'NONE',  ( 1.000000000000000000, 0.000000000000000000, -0.000000000000000000 ) ) ;
#267 = PRODUCT_DEFINITION_SHAPE ( 'NONE', 'NONE',  #210 ) ;
#268 = EDGE_CURVE ( 'NONE', #84, #283, #65, .T. ) ;
#269 = EDGE_CURVE ( 'NONE', #283, #84, #299, .T. ) ;
#270 = CARTESIAN_POINT ( 'NONE',  ( -0.06882860250000000235, 0.000000000000000000, 8.429072774141052587E-18 ) ) ;
#271 = DIRECTION ( 'NONE',  ( 1.000000000000000000, 0.000000000000000000, 0.000000000000000000 ) ) ;
#272 = DIRECTION ( 'NONE',  ( 0.1736481776669313304, 0.000000000000000000, 0.9848077530122077983 ) ) ;
#273 = VECTOR ( 'NONE', #35, 39.37007874015748854 ) ;
#274 = FACE_OUTER_BOUND ( 'NONE', #120, .T. ) ;
#275 =( LENGTH_UNIT ( ) NAMED_UNIT ( * ) SI_UNIT ( $, .METRE. ) );
#276 = DIRECTION ( 'NONE',  ( 0.7071067811865358044, 8.659560562354788645E-17, -0.7071067811865590080 ) ) ;
#277 = COLOUR_RGB ( '',0.7921568627450980005, 0.8196078431372548767, 0.9333333333333333481 ) ;
#278 =( NAMED_UNIT ( * ) SI_UNIT ( $, .STERADIAN. ) SOLID_ANGLE_UNIT ( ) );
#279 = APPLICATION_PROTOCOL_DEFINITION ( 'draft international standard', 'automotive_design', 1998, #243 ) ;
#280 = PRESENTATION_STYLE_ASSIGNMENT (( #156 ) ) ;
#281 = CARTESIAN_POINT ( 'NONE',  ( 0.06882860250000000235, 8.429072774141052587E-18, -8.429072774141052587E-18 ) ) ;
#282 = AXIS2_PLACEMENT_3D ( 'NONE', #170, #7, #266 ) ;
#283 = VERTEX_POINT ( 'NONE', #162 ) ;
#284 = DIRECTION ( 'NONE',  ( 1.000000000000000000, 0.000000000000000000, 0.000000000000000000 ) ) ;
#285 = EDGE_CURVE ( 'NONE', #51, #88, #146, .T. ) ;
#286 = DIRECTION ( 'NONE',  ( 1.224646799147353207E-16, 0.000000000000000000, 1.000000000000000000 ) ) ;
#287 = DIRECTION ( 'NONE',  ( 0.000000000000000000, 0.000000000000000000, -1.000000000000000000 ) ) ;
#288 = COLOUR_RGB ( '',0.7921568627450980005, 0.8196078431372548767, 0.9333333333333333481 ) ;
#289 = DIRECTION ( 'NONE',  ( -0.000000000000000000, -0.000000000000000000, -1.000000000000000000 ) ) ;
#290 = CARTESIAN_POINT ( 'NONE',  ( -0.1181100000000000066, 0.000000000000000000, 2.229093999999999465 ) ) ;
#291 = MECHANICAL_DESIGN_GEOMETRIC_PRESENTATION_REPRESENTATION (  '', ( #59 ), #21 ) ;
#292 = CARTESIAN_POINT ( 'NONE',  ( 0.000000000000000000, 0.000000000000000000, 2.244094000000000033 ) ) ;
#293 = DIRECTION ( 'NONE',  ( -1.224646799147353207E-16, -0.000000000000000000, -1.000000000000000000 ) ) ;
#294 = EDGE_CURVE ( 'NONE', #88, #259, #68, .T. ) ;
#295 = CONICAL_SURFACE ( 'NONE', #220, 0.1031100000000002570, 0.7853981633974318477 ) ;
#296 = DIRECTION ( 'NONE',  ( -1.224646799147353207E-16, -0.000000000000000000, -1.000000000000000000 ) ) ;
#297 = ORIENTED_EDGE ( 'NONE', *, *, #264, .F. ) ;
#298 = EDGE_LOOP ( 'NONE', ( #69, #158, #257, #27 ) ) ;
#299 = CIRCLE ( 'NONE', #165, 0.06882860250000000235 ) ;
ENDSEC;
END-ISO-10303-21;
