ISO-10303-21;
HEADER;
FILE_DESCRIPTION (( 'STEP AP214' ),
    '1' );
FILE_NAME ('59445.STEP',
    '2023-06-30T22:18:04',
    ( '' ),
    ( '' ),
    'SwSTEP 2.0',
    'SolidWorks 2023',
    '' );
FILE_SCHEMA (( 'AUTOMOTIVE_DESIGN' ));
ENDSEC;

DATA;
#1 =( NAMED_UNIT ( * ) SI_UNIT ( $, .STERADIAN. ) SOLID_ANGLE_UNIT ( ) );
#2 = APPLICATION_CONTEXT ( 'automotive_design' ) ;
#3 = SURFACE_STYLE_FILL_AREA ( #142 ) ;
#4 = SURFACE_STYLE_USAGE ( .BOTH. , #258 ) ;
#5 = AXIS2_PLACEMENT_3D ( 'NONE', #148, #93, #174 ) ;
#6 =( GEOMETRIC_REPRESENTATION_CONTEXT ( 3 ) GLOBAL_UNCERTAINTY_ASSIGNED_CONTEXT ( ( #305 ) ) GLOBAL_UNIT_ASSIGNED_CONTEXT ( ( #297, #96, #26 ) ) REPRESENTATION_CONTEXT ( 'NONE', 'WORKASPACE' ) );
#7 = ORIENTED_EDGE ( 'NONE', *, *, #348, .F. ) ;
#8 = CARTESIAN_POINT ( 'NONE',  ( 0.1874999999999998335, 3.500000000000000000, 2.296212748401285877E-17 ) ) ;
#9 = ORIENTED_EDGE ( 'NONE', *, *, #345, .T. ) ;
#10 = DIRECTION ( 'NONE',  ( -0.000000000000000000, -1.000000000000000000, -0.000000000000000000 ) ) ;
#11 = EDGE_LOOP ( 'NONE', ( #41, #329 ) ) ;
#12 = ADVANCED_FACE ( 'NONE', ( #157 ), #254, .T. ) ;
#13 = SURFACE_STYLE_FILL_AREA ( #98 ) ;
#14 = AXIS2_PLACEMENT_3D ( 'NONE', #335, #139, #243 ) ;
#15 = ORIENTED_EDGE ( 'NONE', *, *, #364, .F. ) ;
#16 = CARTESIAN_POINT ( 'NONE',  ( 1.836970198721030181E-16, 1.500000000000000222, 0.000000000000000000 ) ) ;
#17 = DIRECTION ( 'NONE',  ( -1.000000000000000000, 0.000000000000000000, 0.000000000000000000 ) ) ;
#18 = COLOUR_RGB ( '',0.7921568627450980005, 0.8196078431372548767, 0.9333333333333333481 ) ;
#19 = CARTESIAN_POINT ( 'NONE',  ( -6.123233995736759873E-17, 3.500000000000000000, 0.000000000000000000 ) ) ;
#20 = FILL_AREA_STYLE ('',( #191 ) ) ;
#21 = CLOSED_SHELL ( 'NONE', ( #185, #201, #295, #12, #117 ) ) ;
#22 =( GEOMETRIC_REPRESENTATION_CONTEXT ( 3 ) GLOBAL_UNCERTAINTY_ASSIGNED_CONTEXT ( ( #33 ) ) GLOBAL_UNIT_ASSIGNED_CONTEXT ( ( #352, #64, #35 ) ) REPRESENTATION_CONTEXT ( 'NONE', 'WORKASPACE' ) );
#23 = PRODUCT_CONTEXT ( 'NONE', #2, 'mechanical' ) ;
#24 = PRESENTATION_LAYER_ASSIGNMENT (  '', '', ( #354 ) ) ;
#25 =( GEOMETRIC_REPRESENTATION_CONTEXT ( 3 ) GLOBAL_UNCERTAINTY_ASSIGNED_CONTEXT ( ( #134 ) ) GLOBAL_UNIT_ASSIGNED_CONTEXT ( ( #256, #289, #1 ) ) REPRESENTATION_CONTEXT ( 'NONE', 'WORKASPACE' ) );
#26 =( NAMED_UNIT ( * ) SI_UNIT ( $, .STERADIAN. ) SOLID_ANGLE_UNIT ( ) );
#27 = COLOUR_RGB ( '',1.000000000000000000, 0.000000000000000000, 0.000000000000000000 ) ;
#28 = CARTESIAN_POINT ( 'NONE',  ( 0.000000000000000000, 0.1875000000000000555, -0.1874999999999999722 ) ) ;
#29 = DIRECTION ( 'NONE',  ( -1.000000000000000000, 0.000000000000000000, 0.000000000000000000 ) ) ;
#30 =( NAMED_UNIT ( * ) SI_UNIT ( $, .STERADIAN. ) SOLID_ANGLE_UNIT ( ) );
#31 = CARTESIAN_POINT ( 'NONE',  ( 0.000000000000000000, 0.000000000000000000, -0.1874999999999999167 ) ) ;
#32 = FACE_OUTER_BOUND ( 'NONE', #175, .T. ) ;
#33 = UNCERTAINTY_MEASURE_WITH_UNIT (LENGTH_MEASURE( 1.000000000000000082E-05 ), #352, 'distance_accuracy_value', 'NONE');
#34 = AXIS2_PLACEMENT_3D ( 'NONE', #167, #339, #224 ) ;
#35 =( NAMED_UNIT ( * ) SI_UNIT ( $, .STERADIAN. ) SOLID_ANGLE_UNIT ( ) );
#36 = EDGE_LOOP ( 'NONE', ( #298, #69, #67, #7 ) ) ;
#37 = ORIENTED_EDGE ( 'NONE', *, *, #318, .T. ) ;
#38 = VERTEX_POINT ( 'NONE', #75 ) ;
#39 = CYLINDRICAL_SURFACE ( 'NONE', #182, 0.1874999999999997780 ) ;
#40 = CIRCLE ( 'NONE', #260, 0.1874999999999996669 ) ;
#41 = ORIENTED_EDGE ( 'NONE', *, *, #303, .F. ) ;
#42 = MECHANICAL_DESIGN_GEOMETRIC_PRESENTATION_REPRESENTATION (  '', ( #210 ), #333 ) ;
#43 = DIRECTION ( 'NONE',  ( -1.224646799147353207E-16, 1.000000000000000000, -0.000000000000000000 ) ) ;
#44 = VERTEX_POINT ( 'NONE', #81 ) ;
#45 = VECTOR ( 'NONE', #137, 39.37007874015748143 ) ;
#46 =( CONVERSION_BASED_UNIT ( 'INCH', #77 ) LENGTH_UNIT ( ) NAMED_UNIT ( #226 ) );
#47 = LENGTH_MEASURE_WITH_UNIT ( LENGTH_MEASURE( 0.02539999999999999897 ), #276 );
#48 = CARTESIAN_POINT ( 'NONE',  ( 1.836970198721030181E-16, 1.500000000000000222, 0.000000000000000000 ) ) ;
#49 = COLOUR_RGB ( '',1.000000000000000000, 0.000000000000000000, 0.000000000000000000 ) ;
#50 = MECHANICAL_DESIGN_GEOMETRIC_PRESENTATION_REPRESENTATION (  '', ( #123 ), #332 ) ;
#51 = EDGE_CURVE ( 'NONE', #38, #119, #91, .T. ) ;
#52 = CARTESIAN_POINT ( 'NONE',  ( -6.123233995736759873E-17, 3.500000000000000000, 0.000000000000000000 ) ) ;
#53 = LINE ( 'NONE', #362, #181 ) ;
#54 = EDGE_CURVE ( 'NONE', #294, #146, #300, .T. ) ;
#55 = DIRECTION ( 'NONE',  ( 0.000000000000000000, 0.000000000000000000, 1.000000000000000000 ) ) ;
#56 = EDGE_CURVE ( 'NONE', #324, #234, #140, .T. ) ;
#57 = CIRCLE ( 'NONE', #5, 0.1874999999999999722 ) ;
#58 = FILL_AREA_STYLE ('',( #233 ) ) ;
#59 = ORIENTED_EDGE ( 'NONE', *, *, #141, .T. ) ;
#60 = UNCERTAINTY_MEASURE_WITH_UNIT (LENGTH_MEASURE( 1.000000000000000082E-05 ), #222, 'distance_accuracy_value', 'NONE');
#61 = LENGTH_MEASURE_WITH_UNIT ( LENGTH_MEASURE( 0.02539999999999999897 ), #90 );
#62 = CIRCLE ( 'NONE', #296, 0.1874999999999999722 ) ;
#63 = ORIENTED_EDGE ( 'NONE', *, *, #348, .T. ) ;
#64 =( NAMED_UNIT ( * ) PLANE_ANGLE_UNIT ( ) SI_UNIT ( $, .RADIAN. ) );
#65 = EDGE_CURVE ( 'NONE', #95, #38, #363, .T. ) ;
#66 = CIRCLE ( 'NONE', #249, 0.1874999999999998335 ) ;
#67 = ORIENTED_EDGE ( 'NONE', *, *, #99, .T. ) ;
#68 = CARTESIAN_POINT ( 'NONE',  ( 0.1874999999999999722, 0.1875000000000000555, 0.000000000000000000 ) ) ;
#69 = ORIENTED_EDGE ( 'NONE', *, *, #82, .T. ) ;
#70 = DIRECTION ( 'NONE',  ( 0.000000000000000000, 0.000000000000000000, -1.000000000000000000 ) ) ;
#71 = CYLINDRICAL_SURFACE ( 'NONE', #196, 0.1874999999999997780 ) ;
#72 = SURFACE_STYLE_USAGE ( .BOTH. , #169 ) ;
#73 = AXIS2_PLACEMENT_3D ( 'NONE', #189, #130, #29 ) ;
#74 = CARTESIAN_POINT ( 'NONE',  ( 0.000000000000000000, 1.500000000000000222, -0.1874999999999998335 ) ) ;
#75 = CARTESIAN_POINT ( 'NONE',  ( -0.1875000000000000278, 0.1875000000000000555, 2.296212748401287109E-17 ) ) ;
#76 = FACE_OUTER_BOUND ( 'NONE', #36, .T. ) ;
#77 = LENGTH_MEASURE_WITH_UNIT ( LENGTH_MEASURE( 0.02539999999999999897 ), #80 );
#78 = AXIS2_PLACEMENT_3D ( 'NONE', #275, #368, #133 ) ;
#79 = DIRECTION ( 'NONE',  ( -1.000000000000000000, 0.000000000000000000, 0.000000000000000000 ) ) ;
#80 =( LENGTH_UNIT ( ) NAMED_UNIT ( * ) SI_UNIT ( $, .METRE. ) );
#81 = CARTESIAN_POINT ( 'NONE',  ( -1.148106374200643863E-17, 0.000000000000000000, 0.000000000000000000 ) ) ;
#82 = EDGE_CURVE ( 'NONE', #294, #262, #40, .T. ) ;
#83 = DIRECTION ( 'NONE',  ( -0.000000000000000000, -1.000000000000000000, -0.000000000000000000 ) ) ;
#84 = DIRECTION ( 'NONE',  ( -0.000000000000000000, -1.000000000000000000, -0.000000000000000000 ) ) ;
#85 = CARTESIAN_POINT ( 'NONE',  ( 2.296212748401285877E-17, 1.500000000000000222, 0.1874999999999998335 ) ) ;
#86 = PLANE ( 'NONE',  #358 ) ;
#87 = LENGTH_MEASURE_WITH_UNIT ( LENGTH_MEASURE( 0.02539999999999999897 ), #287 );
#88 = ADVANCED_FACE ( 'NONE', ( #373 ), #86, .F. ) ;
#89 = DIMENSIONAL_EXPONENTS ( 1.000000000000000000, 0.000000000000000000, 0.000000000000000000, 0.000000000000000000, 0.000000000000000000, 0.000000000000000000, 0.000000000000000000 ) ;
#90 =( LENGTH_UNIT ( ) NAMED_UNIT ( * ) SI_UNIT ( $, .METRE. ) );
#91 = CIRCLE ( 'NONE', #267, 0.1874999999999999722 ) ;
#92 = DIRECTION ( 'NONE',  ( 1.000000000000000000, 0.000000000000000000, 0.000000000000000000 ) ) ;
#93 = DIRECTION ( 'NONE',  ( -0.000000000000000000, -1.000000000000000000, -0.000000000000000000 ) ) ;
#94 = ORIENTED_EDGE ( 'NONE', *, *, #51, .F. ) ;
#95 = VERTEX_POINT ( 'NONE', #186 ) ;
#96 =( NAMED_UNIT ( * ) PLANE_ANGLE_UNIT ( ) SI_UNIT ( $, .RADIAN. ) );
#97 =( GEOMETRIC_REPRESENTATION_CONTEXT ( 3 ) GLOBAL_UNCERTAINTY_ASSIGNED_CONTEXT ( ( #350 ) ) GLOBAL_UNIT_ASSIGNED_CONTEXT ( ( #183, #225, #30 ) ) REPRESENTATION_CONTEXT ( 'NONE', 'WORKASPACE' ) );
#98 = FILL_AREA_STYLE ('',( #265 ) ) ;
#99 = EDGE_CURVE ( 'NONE', #262, #100, #53, .T. ) ;
#100 = VERTEX_POINT ( 'NONE', #313 ) ;
#101 = PRESENTATION_STYLE_ASSIGNMENT (( #72 ) ) ;
#102 = CARTESIAN_POINT ( 'NONE',  ( 0.000000000000000000, 0.000000000000000000, 0.000000000000000000 ) ) ;
#103 = STYLED_ITEM ( 'NONE', ( #113 ), #185 ) ;
#104 = AXIS2_PLACEMENT_3D ( 'NONE', #246, #371, #79 ) ;
#105 =( LENGTH_UNIT ( ) NAMED_UNIT ( * ) SI_UNIT ( $, .METRE. ) );
#106 = FILL_AREA_STYLE ('',( #341 ) ) ;
#107 = AXIS2_PLACEMENT_3D ( 'NONE', #309, #252, #198 ) ;
#108 = DIRECTION ( 'NONE',  ( 1.000000000000000000, 0.000000000000000000, 0.000000000000000000 ) ) ;
#109 = CARTESIAN_POINT ( 'NONE',  ( 0.000000000000000000, 0.1875000000000000555, 0.000000000000000000 ) ) ;
#110 =( LENGTH_UNIT ( ) NAMED_UNIT ( * ) SI_UNIT ( $, .METRE. ) );
#111 = UNCERTAINTY_MEASURE_WITH_UNIT (LENGTH_MEASURE( 1.000000000000000082E-05 ), #159, 'distance_accuracy_value', 'NONE');
#112 = COLOUR_RGB ( '',1.000000000000000000, 0.000000000000000000, 0.000000000000000000 ) ;
#113 = PRESENTATION_STYLE_ASSIGNMENT (( #283 ) ) ;
#114 = VECTOR ( 'NONE', #172, 39.37007874015748143 ) ;
#115 = PRESENTATION_STYLE_ASSIGNMENT (( #4 ) ) ;
#116 = EDGE_LOOP ( 'NONE', ( #357, #353 ) ) ;
#117 = ADVANCED_FACE ( 'NONE', ( #32 ), #320, .T. ) ;
#118 = SPHERICAL_SURFACE ( 'NONE', #203, 0.1875000000000000278 ) ;
#119 = VERTEX_POINT ( 'NONE', #28 ) ;
#120 = PLANE ( 'NONE',  #34 ) ;
#121 = ORIENTED_EDGE ( 'NONE', *, *, #145, .F. ) ;
#122 = MECHANICAL_DESIGN_GEOMETRIC_PRESENTATION_REPRESENTATION (  '', ( #356 ), #25 ) ;
#123 = STYLED_ITEM ( 'NONE', ( #228 ), #323 ) ;
#124 = EDGE_LOOP ( 'NONE', ( #237, #288, #266, #214 ) ) ;
#125 = DIRECTION ( 'NONE',  ( 1.224646799147353207E-16, -1.000000000000000000, 0.000000000000000000 ) ) ;
#126 = DIRECTION ( 'NONE',  ( -0.000000000000000000, -1.000000000000000000, -0.000000000000000000 ) ) ;
#127 = SURFACE_STYLE_FILL_AREA ( #20 ) ;
#128 = CIRCLE ( 'NONE', #346, 0.1875000000000000278 ) ;
#129 = CARTESIAN_POINT ( 'NONE',  ( 0.000000000000000000, 0.000000000000000000, 0.000000000000000000 ) ) ;
#130 = DIRECTION ( 'NONE',  ( -1.224646799147353207E-16, 1.000000000000000000, -0.000000000000000000 ) ) ;
#131 = SURFACE_STYLE_USAGE ( .BOTH. , #311 ) ;
#132 = COLOUR_RGB ( '',1.000000000000000000, 0.000000000000000000, 0.000000000000000000 ) ;
#133 = DIRECTION ( 'NONE',  ( 1.000000000000000000, 0.000000000000000000, -1.224646799147353207E-16 ) ) ;
#134 = UNCERTAINTY_MEASURE_WITH_UNIT (LENGTH_MEASURE( 1.000000000000000082E-05 ), #256, 'distance_accuracy_value', 'NONE');
#135 = FILL_AREA_STYLE ('',( #215 ) ) ;
#136 = DIMENSIONAL_EXPONENTS ( 1.000000000000000000, 0.000000000000000000, 0.000000000000000000, 0.000000000000000000, 0.000000000000000000, 0.000000000000000000, 0.000000000000000000 ) ;
#137 = DIRECTION ( 'NONE',  ( -1.224646799147353207E-16, 1.000000000000000000, -0.000000000000000000 ) ) ;
#138 = DIRECTION ( 'NONE',  ( -1.000000000000000000, 0.000000000000000000, 0.000000000000000000 ) ) ;
#139 = DIRECTION ( 'NONE',  ( -0.000000000000000000, -1.000000000000000000, -0.000000000000000000 ) ) ;
#140 = CIRCLE ( 'NONE', #14, 0.1874999999999998335 ) ;
#141 = EDGE_CURVE ( 'NONE', #324, #95, #347, .T. ) ;
#142 = FILL_AREA_STYLE ('',( #317 ) ) ;
#143 = UNCERTAINTY_MEASURE_WITH_UNIT (LENGTH_MEASURE( 1.000000000000000082E-05 ), #327, 'distance_accuracy_value', 'NONE');
#144 = CYLINDRICAL_SURFACE ( 'NONE', #166, 0.1874999999999999167 ) ;
#145 = EDGE_CURVE ( 'NONE', #119, #291, #57, .T. ) ;
#146 = VERTEX_POINT ( 'NONE', #8 ) ;
#147 = PRESENTATION_LAYER_ASSIGNMENT (  '', '', ( #103 ) ) ;
#148 = CARTESIAN_POINT ( 'NONE',  ( 0.000000000000000000, 0.1875000000000000555, 0.000000000000000000 ) ) ;
#149 = EDGE_LOOP ( 'NONE', ( #268, #59, #173, #121, #15 ) ) ;
#150 = FACE_OUTER_BOUND ( 'NONE', #212, .T. ) ;
#151 = PRODUCT_DEFINITION_FORMATION_WITH_SPECIFIED_SOURCE ( 'ANY', '', #319, .NOT_KNOWN. ) ;
#152 = CARTESIAN_POINT ( 'NONE',  ( 0.1874999999999998335, 1.500000000000000222, 2.296212748401285877E-17 ) ) ;
#153 = DIRECTION ( 'NONE',  ( -1.000000000000000000, 0.000000000000000000, 0.000000000000000000 ) ) ;
#154 = COLOUR_RGB ( '',1.000000000000000000, 0.000000000000000000, 0.000000000000000000 ) ;
#155 = EDGE_LOOP ( 'NONE', ( #37, #63 ) ) ;
#156 = LENGTH_MEASURE_WITH_UNIT ( LENGTH_MEASURE( 0.02539999999999999897 ), #236 );
#157 = FACE_OUTER_BOUND ( 'NONE', #360, .T. ) ;
#158 = SURFACE_SIDE_STYLE ('',( #13 ) ) ;
#159 =( CONVERSION_BASED_UNIT ( 'INCH', #164 ) LENGTH_UNIT ( ) NAMED_UNIT ( #315 ) );
#160 =( NAMED_UNIT ( * ) SI_UNIT ( $, .STERADIAN. ) SOLID_ANGLE_UNIT ( ) );
#161 = DIRECTION ( 'NONE',  ( -0.000000000000000000, -1.000000000000000000, -0.000000000000000000 ) ) ;
#162 = DIMENSIONAL_EXPONENTS ( 1.000000000000000000, 0.000000000000000000, 0.000000000000000000, 0.000000000000000000, 0.000000000000000000, 0.000000000000000000, 0.000000000000000000 ) ;
#163 = APPLICATION_PROTOCOL_DEFINITION ( 'draft international standard', 'automotive_design', 1998, #200 ) ;
#164 = LENGTH_MEASURE_WITH_UNIT ( LENGTH_MEASURE( 0.02539999999999999897 ), #308 );
#165 = CARTESIAN_POINT ( 'NONE',  ( 0.1874999999999998335, 3.500000000000000000, 0.000000000000000000 ) ) ;
#166 = AXIS2_PLACEMENT_3D ( 'NONE', #102, #126, #179 ) ;
#167 = CARTESIAN_POINT ( 'NONE',  ( 0.000000000000000000, 1.500000000000000222, 0.000000000000000000 ) ) ;
#168 = DIRECTION ( 'NONE',  ( -1.224646799147353207E-16, 1.000000000000000000, -0.000000000000000000 ) ) ;
#169 = SURFACE_SIDE_STYLE ('',( #127 ) ) ;
#170 = PRESENTATION_LAYER_ASSIGNMENT (  '', '', ( #123 ) ) ;
#171 = CARTESIAN_POINT ( 'NONE',  ( 2.296212748401286185E-17, 0.000000000000000000, 0.1874999999999999167 ) ) ;
#172 = DIRECTION ( 'NONE',  ( -0.000000000000000000, -1.000000000000000000, -0.000000000000000000 ) ) ;
#173 = ORIENTED_EDGE ( 'NONE', *, *, #345, .F. ) ;
#174 = DIRECTION ( 'NONE',  ( 0.000000000000000000, 0.000000000000000000, -1.000000000000000000 ) ) ;
#175 = EDGE_LOOP ( 'NONE', ( #178, #290, #351, #242 ) ) ;
#176 = AXIS2_PLACEMENT_3D ( 'NONE', #16, #217, #220 ) ;
#177 = DIRECTION ( 'NONE',  ( 1.000000000000000000, 0.000000000000000000, 0.000000000000000000 ) ) ;
#178 = ORIENTED_EDGE ( 'NONE', *, *, #307, .F. ) ;
#179 = DIRECTION ( 'NONE',  ( 0.000000000000000000, 0.000000000000000000, -1.000000000000000000 ) ) ;
#180 = FACE_OUTER_BOUND ( 'NONE', #116, .T. ) ;
#181 = VECTOR ( 'NONE', #219, 39.37007874015748143 ) ;
#182 = AXIS2_PLACEMENT_3D ( 'NONE', #19, #361, #187 ) ;
#183 =( CONVERSION_BASED_UNIT ( 'INCH', #271 ) LENGTH_UNIT ( ) NAMED_UNIT ( #89 ) );
#184 = CARTESIAN_POINT ( 'NONE',  ( -0.1874999999999995004, 1.500000000000000222, 0.000000000000000000 ) ) ;
#185 = ADVANCED_FACE ( 'NONE', ( #150 ), #118, .T. ) ;
#186 = CARTESIAN_POINT ( 'NONE',  ( 2.296212748401287109E-17, 0.1875000000000000555, 0.1874999999999999722 ) ) ;
#187 = DIRECTION ( 'NONE',  ( -1.000000000000000000, 0.000000000000000000, 0.000000000000000000 ) ) ;
#188 = FILL_AREA_STYLE_COLOUR ( '', #18 ) ;
#189 = CARTESIAN_POINT ( 'NONE',  ( -6.123233995736759873E-17, 3.500000000000000000, 0.000000000000000000 ) ) ;
#190 = FILL_AREA_STYLE ('',( #188 ) ) ;
#191 = FILL_AREA_STYLE_COLOUR ( '', #154 ) ;
#192 = DIMENSIONAL_EXPONENTS ( 1.000000000000000000, 0.000000000000000000, 0.000000000000000000, 0.000000000000000000, 0.000000000000000000, 0.000000000000000000, 0.000000000000000000 ) ;
#193 = SHAPE_DEFINITION_REPRESENTATION ( #257, #213 ) ;
#194 = SURFACE_STYLE_USAGE ( .BOTH. , #304 ) ;
#195 = DIRECTION ( 'NONE',  ( 0.000000000000000000, 0.000000000000000000, -1.000000000000000000 ) ) ;
#196 = AXIS2_PLACEMENT_3D ( 'NONE', #355, #43, #153 ) ;
#197 = SURFACE_STYLE_FILL_AREA ( #190 ) ;
#198 = DIRECTION ( 'NONE',  ( 0.000000000000000000, 0.000000000000000000, -1.000000000000000000 ) ) ;
#199 = CARTESIAN_POINT ( 'NONE',  ( -2.296212748401287726E-17, 0.1875000000000000278, 0.000000000000000000 ) ) ;
#200 = APPLICATION_CONTEXT ( 'automotive_design' ) ;
#201 = ADVANCED_FACE ( 'NONE', ( #231 ), #144, .T. ) ;
#202 = PRODUCT_RELATED_PRODUCT_CATEGORY ( 'part', '', ( #319 ) ) ;
#203 = AXIS2_PLACEMENT_3D ( 'NONE', #199, #286, #92 ) ;
#204 = SURFACE_SIDE_STYLE ('',( #207 ) ) ;
#205 = ORIENTED_EDGE ( 'NONE', *, *, #141, .F. ) ;
#206 = CARTESIAN_POINT ( 'NONE',  ( -2.296212748401287726E-17, 0.1875000000000000278, 0.000000000000000000 ) ) ;
#207 = SURFACE_STYLE_FILL_AREA ( #58 ) ;
#208 = ORIENTED_EDGE ( 'NONE', *, *, #307, .T. ) ;
#209 = AXIS2_PLACEMENT_3D ( 'NONE', #244, #84, #195 ) ;
#210 = STYLED_ITEM ( 'NONE', ( #115 ), #201 ) ;
#211 = ADVANCED_FACE ( 'NONE', ( #301 ), #263, .F. ) ;
#212 = EDGE_LOOP ( 'NONE', ( #264, #208, #240, #9 ) ) ;
#213 = ADVANCED_BREP_SHAPE_REPRESENTATION ( '59445', ( #323, #337, #316 ), #221 ) ;
#214 = ORIENTED_EDGE ( 'NONE', *, *, #99, .F. ) ;
#215 = FILL_AREA_STYLE_COLOUR ( '', #132 ) ;
#216 = ADVANCED_FACE ( 'NONE', ( #293 ), #39, .T. ) ;
#217 = DIRECTION ( 'NONE',  ( -1.224646799147353207E-16, 1.000000000000000000, 0.000000000000000000 ) ) ;
#218 = CIRCLE ( 'NONE', #73, 0.1874999999999999167 ) ;
#219 = DIRECTION ( 'NONE',  ( -1.224646799147353207E-16, 1.000000000000000000, -0.000000000000000000 ) ) ;
#220 = DIRECTION ( 'NONE',  ( -1.000000000000000000, -1.224646799147353207E-16, 0.000000000000000000 ) ) ;
#221 =( GEOMETRIC_REPRESENTATION_CONTEXT ( 3 ) GLOBAL_UNCERTAINTY_ASSIGNED_CONTEXT ( ( #60 ) ) GLOBAL_UNIT_ASSIGNED_CONTEXT ( ( #222, #250, #369 ) ) REPRESENTATION_CONTEXT ( 'NONE', 'WORKASPACE' ) );
#222 =( CONVERSION_BASED_UNIT ( 'INCH', #47 ) LENGTH_UNIT ( ) NAMED_UNIT ( #232 ) );
#223 = PRESENTATION_LAYER_ASSIGNMENT (  '', '', ( #326 ) ) ;
#224 = DIRECTION ( 'NONE',  ( 0.000000000000000000, -0.000000000000000000, 1.000000000000000000 ) ) ;
#225 =( NAMED_UNIT ( * ) PLANE_ANGLE_UNIT ( ) SI_UNIT ( $, .RADIAN. ) );
#226 = DIMENSIONAL_EXPONENTS ( 1.000000000000000000, 0.000000000000000000, 0.000000000000000000, 0.000000000000000000, 0.000000000000000000, 0.000000000000000000, 0.000000000000000000 ) ;
#227 = PRESENTATION_STYLE_ASSIGNMENT (( #372 ) ) ;
#228 = PRESENTATION_STYLE_ASSIGNMENT (( #194 ) ) ;
#229 = DIRECTION ( 'NONE',  ( -0.000000000000000000, -1.000000000000000000, -0.000000000000000000 ) ) ;
#230 = CLOSED_SHELL ( 'NONE', ( #216, #211, #292, #88 ) ) ;
#231 = FACE_OUTER_BOUND ( 'NONE', #149, .T. ) ;
#232 = DIMENSIONAL_EXPONENTS ( 1.000000000000000000, 0.000000000000000000, 0.000000000000000000, 0.000000000000000000, 0.000000000000000000, 0.000000000000000000, 0.000000000000000000 ) ;
#233 = FILL_AREA_STYLE_COLOUR ( '', #49 ) ;
#234 = VERTEX_POINT ( 'NONE', #74 ) ;
#235 = ORIENTED_EDGE ( 'NONE', *, *, #65, .F. ) ;
#236 =( LENGTH_UNIT ( ) NAMED_UNIT ( * ) SI_UNIT ( $, .METRE. ) );
#237 = ORIENTED_EDGE ( 'NONE', *, *, #303, .T. ) ;
#238 = CIRCLE ( 'NONE', #104, 0.1874999999999996669 ) ;
#239 = LENGTH_MEASURE_WITH_UNIT ( LENGTH_MEASURE( 0.02539999999999999897 ), #105 );
#240 = ORIENTED_EDGE ( 'NONE', *, *, #255, .F. ) ;
#241 = DIRECTION ( 'NONE',  ( 0.000000000000000000, 0.000000000000000000, -1.000000000000000000 ) ) ;
#242 = ORIENTED_EDGE ( 'NONE', *, *, #255, .T. ) ;
#243 = DIRECTION ( 'NONE',  ( 0.000000000000000000, 0.000000000000000000, -1.000000000000000000 ) ) ;
#244 = CARTESIAN_POINT ( 'NONE',  ( 0.000000000000000000, 0.000000000000000000, 0.000000000000000000 ) ) ;
#245 = DIRECTION ( 'NONE',  ( 0.000000000000000000, 0.000000000000000000, 1.000000000000000000 ) ) ;
#246 = CARTESIAN_POINT ( 'NONE',  ( 1.836970198721030181E-16, 1.500000000000000222, 0.000000000000000000 ) ) ;
#247 =( NAMED_UNIT ( * ) PLANE_ANGLE_UNIT ( ) SI_UNIT ( $, .RADIAN. ) );
#248 = MECHANICAL_DESIGN_GEOMETRIC_PRESENTATION_REPRESENTATION (  '', ( #325 ), #97 ) ;
#249 = AXIS2_PLACEMENT_3D ( 'NONE', #359, #10, #70 ) ;
#250 =( NAMED_UNIT ( * ) PLANE_ANGLE_UNIT ( ) SI_UNIT ( $, .RADIAN. ) );
#251 = SURFACE_STYLE_FILL_AREA ( #135 ) ;
#252 = DIRECTION ( 'NONE',  ( -0.000000000000000000, -1.000000000000000000, -0.000000000000000000 ) ) ;
#253 = DIRECTION ( 'NONE',  ( 0.000000000000000000, 0.000000000000000000, -1.000000000000000000 ) ) ;
#254 = CYLINDRICAL_SURFACE ( 'NONE', #209, 0.1874999999999999167 ) ;
#255 = EDGE_CURVE ( 'NONE', #291, #44, #128, .T. ) ;
#256 =( CONVERSION_BASED_UNIT ( 'INCH', #61 ) LENGTH_UNIT ( ) NAMED_UNIT ( #192 ) );
#257 = PRODUCT_DEFINITION_SHAPE ( 'NONE', 'NONE',  #340 ) ;
#258 = SURFACE_SIDE_STYLE ('',( #3 ) ) ;
#259 = ORIENTED_EDGE ( 'NONE', *, *, #56, .T. ) ;
#260 = AXIS2_PLACEMENT_3D ( 'NONE', #48, #343, #17 ) ;
#261 = MECHANICAL_DESIGN_GEOMETRIC_PRESENTATION_REPRESENTATION (  '', ( #326 ), #6 ) ;
#262 = VERTEX_POINT ( 'NONE', #184 ) ;
#263 = PLANE ( 'NONE',  #176 ) ;
#264 = ORIENTED_EDGE ( 'NONE', *, *, #65, .T. ) ;
#265 = FILL_AREA_STYLE_COLOUR ( '', #27 ) ;
#266 = ORIENTED_EDGE ( 'NONE', *, *, #318, .F. ) ;
#267 = AXIS2_PLACEMENT_3D ( 'NONE', #282, #229, #366 ) ;
#268 = ORIENTED_EDGE ( 'NONE', *, *, #274, .T. ) ;
#269 = CARTESIAN_POINT ( 'NONE',  ( 0.1874999999999996947, 3.500000000000000000, 2.296212748401284644E-17 ) ) ;
#270 = CIRCLE ( 'NONE', #322, 0.1874999999999999167 ) ;
#271 = LENGTH_MEASURE_WITH_UNIT ( LENGTH_MEASURE( 0.02539999999999999897 ), #110 );
#272 =( NAMED_UNIT ( * ) PLANE_ANGLE_UNIT ( ) SI_UNIT ( $, .RADIAN. ) );
#273 = PRESENTATION_LAYER_ASSIGNMENT (  '', '', ( #325 ) ) ;
#274 = EDGE_CURVE ( 'NONE', #234, #324, #66, .T. ) ;
#275 = CARTESIAN_POINT ( 'NONE',  ( -2.296212748401287726E-17, 0.1875000000000000278, 0.000000000000000000 ) ) ;
#276 =( LENGTH_UNIT ( ) NAMED_UNIT ( * ) SI_UNIT ( $, .METRE. ) );
#277 = MECHANICAL_DESIGN_GEOMETRIC_PRESENTATION_REPRESENTATION (  '', ( #354 ), #310 ) ;
#278 = DIRECTION ( 'NONE',  ( 1.000000000000000000, 1.224646799147353207E-16, 0.000000000000000000 ) ) ;
#279 = PRESENTATION_STYLE_ASSIGNMENT (( #131 ) ) ;
#280 = LINE ( 'NONE', #31, #338 ) ;
#281 = PRODUCT_DEFINITION_CONTEXT ( 'detailed design', #200, 'design' ) ;
#282 = CARTESIAN_POINT ( 'NONE',  ( 0.000000000000000000, 0.1875000000000000555, 0.000000000000000000 ) ) ;
#283 = SURFACE_STYLE_USAGE ( .BOTH. , #204 ) ;
#284 = PRESENTATION_LAYER_ASSIGNMENT (  '', '', ( #356 ) ) ;
#285 = COLOUR_RGB ( '',0.7921568627450980005, 0.8196078431372548767, 0.9333333333333333481 ) ;
#286 = DIRECTION ( 'NONE',  ( 0.000000000000000000, 0.000000000000000000, 1.000000000000000000 ) ) ;
#287 =( LENGTH_UNIT ( ) NAMED_UNIT ( * ) SI_UNIT ( $, .METRE. ) );
#288 = ORIENTED_EDGE ( 'NONE', *, *, #54, .T. ) ;
#289 =( NAMED_UNIT ( * ) PLANE_ANGLE_UNIT ( ) SI_UNIT ( $, .RADIAN. ) );
#290 = ORIENTED_EDGE ( 'NONE', *, *, #51, .T. ) ;
#291 = VERTEX_POINT ( 'NONE', #68 ) ;
#292 = ADVANCED_FACE ( 'NONE', ( #76 ), #71, .T. ) ;
#293 = FACE_OUTER_BOUND ( 'NONE', #124, .T. ) ;
#294 = VERTEX_POINT ( 'NONE', #152 ) ;
#295 = ADVANCED_FACE ( 'NONE', ( #180 ), #120, .T. ) ;
#296 = AXIS2_PLACEMENT_3D ( 'NONE', #109, #83, #253 ) ;
#297 =( CONVERSION_BASED_UNIT ( 'INCH', #156 ) LENGTH_UNIT ( ) NAMED_UNIT ( #349 ) );
#298 = ORIENTED_EDGE ( 'NONE', *, *, #54, .F. ) ;
#299 = PRESENTATION_STYLE_ASSIGNMENT (( #302 ) ) ;
#300 = LINE ( 'NONE', #269, #45 ) ;
#301 = FACE_OUTER_BOUND ( 'NONE', #11, .T. ) ;
#302 = SURFACE_STYLE_USAGE ( .BOTH. , #158 ) ;
#303 = EDGE_CURVE ( 'NONE', #262, #294, #238, .T. ) ;
#304 = SURFACE_SIDE_STYLE ('',( #344 ) ) ;
#305 = UNCERTAINTY_MEASURE_WITH_UNIT (LENGTH_MEASURE( 1.000000000000000082E-05 ), #297, 'distance_accuracy_value', 'NONE');
#306 = APPLICATION_PROTOCOL_DEFINITION ( 'draft international standard', 'automotive_design', 1998, #2 ) ;
#307 = EDGE_CURVE ( 'NONE', #38, #44, #314, .T. ) ;
#308 =( LENGTH_UNIT ( ) NAMED_UNIT ( * ) SI_UNIT ( $, .METRE. ) );
#309 = CARTESIAN_POINT ( 'NONE',  ( 0.000000000000000000, 0.1875000000000000555, 0.000000000000000000 ) ) ;
#310 =( GEOMETRIC_REPRESENTATION_CONTEXT ( 3 ) GLOBAL_UNCERTAINTY_ASSIGNED_CONTEXT ( ( #111 ) ) GLOBAL_UNIT_ASSIGNED_CONTEXT ( ( #159, #272, #367 ) ) REPRESENTATION_CONTEXT ( 'NONE', 'WORKASPACE' ) );
#311 = SURFACE_SIDE_STYLE ('',( #197 ) ) ;
#312 = AXIS2_PLACEMENT_3D ( 'NONE', #206, #55, #177 ) ;
#313 = CARTESIAN_POINT ( 'NONE',  ( -0.1874999999999999722, 3.500000000000000000, 0.000000000000000000 ) ) ;
#314 = CIRCLE ( 'NONE', #78, 0.1875000000000000278 ) ;
#315 = DIMENSIONAL_EXPONENTS ( 1.000000000000000000, 0.000000000000000000, 0.000000000000000000, 0.000000000000000000, 0.000000000000000000, 0.000000000000000000, 0.000000000000000000 ) ;
#316 = AXIS2_PLACEMENT_3D ( 'NONE', #129, #245, #108 ) ;
#317 = FILL_AREA_STYLE_COLOUR ( '', #112 ) ;
#318 = EDGE_CURVE ( 'NONE', #100, #146, #218, .T. ) ;
#319 = PRODUCT ( '59445', '59445', '', ( #23 ) ) ;
#320 = SPHERICAL_SURFACE ( 'NONE', #312, 0.1875000000000000278 ) ;
#321 = ORIENTED_EDGE ( 'NONE', *, *, #364, .T. ) ;
#322 = AXIS2_PLACEMENT_3D ( 'NONE', #52, #168, #138 ) ;
#323 = MANIFOLD_SOLID_BREP ( 'Revolve - Cutting Edge', #21 ) ;
#324 = VERTEX_POINT ( 'NONE', #85 ) ;
#325 = STYLED_ITEM ( 'NONE', ( #101 ), #12 ) ;
#326 = STYLED_ITEM ( 'NONE', ( #299 ), #295 ) ;
#327 =( CONVERSION_BASED_UNIT ( 'INCH', #239 ) LENGTH_UNIT ( ) NAMED_UNIT ( #162 ) );
#328 =( NAMED_UNIT ( * ) PLANE_ANGLE_UNIT ( ) SI_UNIT ( $, .RADIAN. ) );
#329 = ORIENTED_EDGE ( 'NONE', *, *, #82, .F. ) ;
#330 = DIRECTION ( 'NONE',  ( -1.000000000000000000, 0.000000000000000000, 0.000000000000000000 ) ) ;
#331 = SURFACE_SIDE_STYLE ('',( #251 ) ) ;
#332 =( GEOMETRIC_REPRESENTATION_CONTEXT ( 3 ) GLOBAL_UNCERTAINTY_ASSIGNED_CONTEXT ( ( #342 ) ) GLOBAL_UNIT_ASSIGNED_CONTEXT ( ( #46, #247, #160 ) ) REPRESENTATION_CONTEXT ( 'NONE', 'WORKASPACE' ) );
#333 =( GEOMETRIC_REPRESENTATION_CONTEXT ( 3 ) GLOBAL_UNCERTAINTY_ASSIGNED_CONTEXT ( ( #143 ) ) GLOBAL_UNIT_ASSIGNED_CONTEXT ( ( #327, #328, #334 ) ) REPRESENTATION_CONTEXT ( 'NONE', 'WORKASPACE' ) );
#334 =( NAMED_UNIT ( * ) SI_UNIT ( $, .STERADIAN. ) SOLID_ANGLE_UNIT ( ) );
#335 = CARTESIAN_POINT ( 'NONE',  ( 0.000000000000000000, 1.500000000000000222, 0.000000000000000000 ) ) ;
#336 = CARTESIAN_POINT ( 'NONE',  ( -2.296212748401287726E-17, 0.1875000000000000278, 0.000000000000000000 ) ) ;
#337 = MANIFOLD_SOLID_BREP ( 'Revolve - Tool Body (Straight Shanked)', #230 ) ;
#338 = VECTOR ( 'NONE', #161, 39.37007874015748143 ) ;
#339 = DIRECTION ( 'NONE',  ( 0.000000000000000000, 1.000000000000000000, 0.000000000000000000 ) ) ;
#340 = PRODUCT_DEFINITION ( 'UNKNOWN', '', #151, #281 ) ;
#341 = FILL_AREA_STYLE_COLOUR ( '', #285 ) ;
#342 = UNCERTAINTY_MEASURE_WITH_UNIT (LENGTH_MEASURE( 1.000000000000000082E-05 ), #46, 'distance_accuracy_value', 'NONE');
#343 = DIRECTION ( 'NONE',  ( -1.224646799147353207E-16, 1.000000000000000000, -0.000000000000000000 ) ) ;
#344 = SURFACE_STYLE_FILL_AREA ( #106 ) ;
#345 = EDGE_CURVE ( 'NONE', #291, #95, #62, .T. ) ;
#346 = AXIS2_PLACEMENT_3D ( 'NONE', #336, #241, #330 ) ;
#347 = LINE ( 'NONE', #171, #114 ) ;
#348 = EDGE_CURVE ( 'NONE', #146, #100, #270, .T. ) ;
#349 = DIMENSIONAL_EXPONENTS ( 1.000000000000000000, 0.000000000000000000, 0.000000000000000000, 0.000000000000000000, 0.000000000000000000, 0.000000000000000000, 0.000000000000000000 ) ;
#350 = UNCERTAINTY_MEASURE_WITH_UNIT (LENGTH_MEASURE( 1.000000000000000082E-05 ), #183, 'distance_accuracy_value', 'NONE');
#351 = ORIENTED_EDGE ( 'NONE', *, *, #145, .T. ) ;
#352 =( CONVERSION_BASED_UNIT ( 'INCH', #87 ) LENGTH_UNIT ( ) NAMED_UNIT ( #136 ) );
#353 = ORIENTED_EDGE ( 'NONE', *, *, #56, .F. ) ;
#354 = STYLED_ITEM ( 'NONE', ( #279 ), #337 ) ;
#355 = CARTESIAN_POINT ( 'NONE',  ( -6.123233995736759873E-17, 3.500000000000000000, 0.000000000000000000 ) ) ;
#356 = STYLED_ITEM ( 'NONE', ( #227 ), #117 ) ;
#357 = ORIENTED_EDGE ( 'NONE', *, *, #274, .F. ) ;
#358 = AXIS2_PLACEMENT_3D ( 'NONE', #165, #125, #278 ) ;
#359 = CARTESIAN_POINT ( 'NONE',  ( 0.000000000000000000, 1.500000000000000222, 0.000000000000000000 ) ) ;
#360 = EDGE_LOOP ( 'NONE', ( #205, #259, #321, #94, #235 ) ) ;
#361 = DIRECTION ( 'NONE',  ( -1.224646799147353207E-16, 1.000000000000000000, -0.000000000000000000 ) ) ;
#362 = CARTESIAN_POINT ( 'NONE',  ( -0.1874999999999998335, 3.500000000000000000, 0.000000000000000000 ) ) ;
#363 = CIRCLE ( 'NONE', #107, 0.1874999999999999722 ) ;
#364 = EDGE_CURVE ( 'NONE', #234, #119, #280, .T. ) ;
#365 = PRESENTATION_LAYER_ASSIGNMENT (  '', '', ( #210 ) ) ;
#366 = DIRECTION ( 'NONE',  ( 0.000000000000000000, 0.000000000000000000, -1.000000000000000000 ) ) ;
#367 =( NAMED_UNIT ( * ) SI_UNIT ( $, .STERADIAN. ) SOLID_ANGLE_UNIT ( ) );
#368 = DIRECTION ( 'NONE',  ( 1.224646799147353207E-16, -0.000000000000000000, 1.000000000000000000 ) ) ;
#369 =( NAMED_UNIT ( * ) SI_UNIT ( $, .STERADIAN. ) SOLID_ANGLE_UNIT ( ) );
#370 = MECHANICAL_DESIGN_GEOMETRIC_PRESENTATION_REPRESENTATION (  '', ( #103 ), #22 ) ;
#371 = DIRECTION ( 'NONE',  ( -1.224646799147353207E-16, 1.000000000000000000, -0.000000000000000000 ) ) ;
#372 = SURFACE_STYLE_USAGE ( .BOTH. , #331 ) ;
#373 = FACE_OUTER_BOUND ( 'NONE', #155, .T. ) ;
ENDSEC;
END-ISO-10303-21;
