ISO-10303-21;
HEADER;
FILE_DESCRIPTION (( 'STEP AP214' ),
    '1' );
FILE_NAME ('84407.STEP',
    '2023-06-30T23:25:15',
    ( '' ),
    ( '' ),
    'SwSTEP 2.0',
    'SolidWorks 2023',
    '' );
FILE_SCHEMA (( 'AUTOMOTIVE_DESIGN' ));
ENDSEC;

DATA;
#1 = AXIS2_PLACEMENT_3D ( 'NONE', #245, #102, #160 ) ;
#2 = ORIENTED_EDGE ( 'NONE', *, *, #254, .F. ) ;
#3 = ADVANCED_FACE ( 'NONE', ( #305 ), #47, .T. ) ;
#4 = EDGE_LOOP ( 'NONE', ( #371, #31 ) ) ;
#5 =( NAMED_UNIT ( * ) SI_UNIT ( $, .STERADIAN. ) SOLID_ANGLE_UNIT ( ) );
#6 = ORIENTED_EDGE ( 'NONE', *, *, #120, .T. ) ;
#7 =( NAMED_UNIT ( * ) SI_UNIT ( $, .STERADIAN. ) SOLID_ANGLE_UNIT ( ) );
#8 = PRESENTATION_STYLE_ASSIGNMENT (( #91 ) ) ;
#9 = PRESENTATION_LAYER_ASSIGNMENT (  '', '', ( #310 ) ) ;
#10 = SPHERICAL_SURFACE ( 'NONE', #281, 0.06250000000000001388 ) ;
#11 =( GEOMETRIC_REPRESENTATION_CONTEXT ( 3 ) GLOBAL_UNCERTAINTY_ASSIGNED_CONTEXT ( ( #51 ) ) GLOBAL_UNIT_ASSIGNED_CONTEXT ( ( #35, #287, #5 ) ) REPRESENTATION_CONTEXT ( 'NONE', 'WORKASPACE' ) );
#12 = CARTESIAN_POINT ( 'NONE',  ( -7.654042494670957545E-18, 0.06250000000000001388, 0.000000000000000000 ) ) ;
#13 = SURFACE_SIDE_STYLE ('',( #263 ) ) ;
#14 = CARTESIAN_POINT ( 'NONE',  ( 7.654042494670954463E-18, 0.000000000000000000, 0.06249999999999997224 ) ) ;
#15 = FACE_OUTER_BOUND ( 'NONE', #348, .T. ) ;
#16 = EDGE_CURVE ( 'NONE', #166, #288, #40, .T. ) ;
#17 = LENGTH_MEASURE_WITH_UNIT ( LENGTH_MEASURE( 0.02539999999999999897 ), #262 );
#18 = ORIENTED_EDGE ( 'NONE', *, *, #258, .F. ) ;
#19 = CIRCLE ( 'NONE', #257, 0.06250000000000001388 ) ;
#20 = DIRECTION ( 'NONE',  ( -1.000000000000000000, 0.000000000000000000, 0.000000000000000000 ) ) ;
#21 = SURFACE_STYLE_FILL_AREA ( #178 ) ;
#22 = CARTESIAN_POINT ( 'NONE',  ( 0.000000000000000000, 0.06250000000000002776, 0.000000000000000000 ) ) ;
#23 = DIRECTION ( 'NONE',  ( -1.000000000000000000, 0.000000000000000000, 0.000000000000000000 ) ) ;
#24 = FACE_OUTER_BOUND ( 'NONE', #345, .T. ) ;
#25 = PRODUCT_DEFINITION_SHAPE ( 'NONE', 'NONE',  #292 ) ;
#26 = DIRECTION ( 'NONE',  ( 1.000000000000000000, 0.000000000000000000, 0.000000000000000000 ) ) ;
#27 = ORIENTED_EDGE ( 'NONE', *, *, #195, .T. ) ;
#28 = LENGTH_MEASURE_WITH_UNIT ( LENGTH_MEASURE( 0.02539999999999999897 ), #165 );
#29 = AXIS2_PLACEMENT_3D ( 'NONE', #99, #324, #338 ) ;
#30 = ORIENTED_EDGE ( 'NONE', *, *, #341, .T. ) ;
#31 = ORIENTED_EDGE ( 'NONE', *, *, #346, .F. ) ;
#32 = EDGE_CURVE ( 'NONE', #288, #327, #80, .T. ) ;
#33 = SHAPE_DEFINITION_REPRESENTATION ( #25, #272 ) ;
#34 =( LENGTH_UNIT ( ) NAMED_UNIT ( * ) SI_UNIT ( $, .METRE. ) );
#35 =( CONVERSION_BASED_UNIT ( 'INCH', #152 ) LENGTH_UNIT ( ) NAMED_UNIT ( #358 ) );
#36 = PRESENTATION_LAYER_ASSIGNMENT (  '', '', ( #54 ) ) ;
#37 = SURFACE_SIDE_STYLE ('',( #220 ) ) ;
#38 = SURFACE_STYLE_FILL_AREA ( #198 ) ;
#39 = EDGE_CURVE ( 'NONE', #218, #350, #243, .T. ) ;
#40 = CIRCLE ( 'NONE', #236, 0.06249999999999981265 ) ;
#41 = COLOUR_RGB ( '',1.000000000000000000, 0.000000000000000000, 0.000000000000000000 ) ;
#42 = APPLICATION_CONTEXT ( 'automotive_design' ) ;
#43 =( CONVERSION_BASED_UNIT ( 'INCH', #17 ) LENGTH_UNIT ( ) NAMED_UNIT ( #241 ) );
#44 = LENGTH_MEASURE_WITH_UNIT ( LENGTH_MEASURE( 0.02539999999999999897 ), #146 );
#45 = ORIENTED_EDGE ( 'NONE', *, *, #70, .T. ) ;
#46 = CYLINDRICAL_SURFACE ( 'NONE', #251, 0.06249999999999991673 ) ;
#47 = CYLINDRICAL_SURFACE ( 'NONE', #148, 0.06249999999999997224 ) ;
#48 = CIRCLE ( 'NONE', #29, 0.06249999999999981265 ) ;
#49 = CARTESIAN_POINT ( 'NONE',  ( 0.000000000000000000, 0.000000000000000000, 0.000000000000000000 ) ) ;
#50 = EDGE_CURVE ( 'NONE', #166, #219, #267, .T. ) ;
#51 = UNCERTAINTY_MEASURE_WITH_UNIT (LENGTH_MEASURE( 1.000000000000000082E-05 ), #35, 'distance_accuracy_value', 'NONE');
#52 = DIRECTION ( 'NONE',  ( 1.224646799147353207E-16, -1.000000000000000000, 0.000000000000000000 ) ) ;
#53 = CARTESIAN_POINT ( 'NONE',  ( 0.06249999999999985428, 2.000000000000000000, 7.654042494670946760E-18 ) ) ;
#54 = STYLED_ITEM ( 'NONE', ( #8 ), #3 ) ;
#55 = EDGE_LOOP ( 'NONE', ( #2, #282, #140, #18, #116 ) ) ;
#56 = ADVANCED_FACE ( 'NONE', ( #15 ), #242, .F. ) ;
#57 = ORIENTED_EDGE ( 'NONE', *, *, #353, .F. ) ;
#58 = ORIENTED_EDGE ( 'NONE', *, *, #201, .F. ) ;
#59 = SURFACE_STYLE_FILL_AREA ( #139 ) ;
#60 =( GEOMETRIC_REPRESENTATION_CONTEXT ( 3 ) GLOBAL_UNCERTAINTY_ASSIGNED_CONTEXT ( ( #216 ) ) GLOBAL_UNIT_ASSIGNED_CONTEXT ( ( #173, #66, #7 ) ) REPRESENTATION_CONTEXT ( 'NONE', 'WORKASPACE' ) );
#61 = VERTEX_POINT ( 'NONE', #271 ) ;
#62 = ADVANCED_FACE ( 'NONE', ( #24 ), #46, .T. ) ;
#63 = CARTESIAN_POINT ( 'NONE',  ( -6.123233995736772199E-17, 2.000000000000000000, 0.000000000000000000 ) ) ;
#64 = CARTESIAN_POINT ( 'NONE',  ( 0.000000000000000000, 0.000000000000000000, 0.000000000000000000 ) ) ;
#65 = PRESENTATION_LAYER_ASSIGNMENT (  '', '', ( #237 ) ) ;
#66 =( NAMED_UNIT ( * ) PLANE_ANGLE_UNIT ( ) SI_UNIT ( $, .RADIAN. ) );
#67 = PRESENTATION_STYLE_ASSIGNMENT (( #319 ) ) ;
#68 =( LENGTH_UNIT ( ) NAMED_UNIT ( * ) SI_UNIT ( $, .METRE. ) );
#69 = CARTESIAN_POINT ( 'NONE',  ( -6.123233995736772199E-17, 2.000000000000000000, 0.000000000000000000 ) ) ;
#70 = EDGE_CURVE ( 'NONE', #225, #189, #326, .T. ) ;
#71 = MECHANICAL_DESIGN_GEOMETRIC_PRESENTATION_REPRESENTATION (  '', ( #107 ), #354 ) ;
#72 = COLOUR_RGB ( '',0.7921568627450980005, 0.8196078431372548767, 0.9333333333333333481 ) ;
#73 =( LENGTH_UNIT ( ) NAMED_UNIT ( * ) SI_UNIT ( $, .METRE. ) );
#74 = DIRECTION ( 'NONE',  ( 1.000000000000000000, 0.000000000000000000, 0.000000000000000000 ) ) ;
#75 = CARTESIAN_POINT ( 'NONE',  ( -7.654042494670957545E-18, 0.06250000000000001388, 0.000000000000000000 ) ) ;
#76 = SURFACE_STYLE_FILL_AREA ( #234 ) ;
#77 = CARTESIAN_POINT ( 'NONE',  ( 0.000000000000000000, 0.000000000000000000, 0.000000000000000000 ) ) ;
#78 =( GEOMETRIC_REPRESENTATION_CONTEXT ( 3 ) GLOBAL_UNCERTAINTY_ASSIGNED_CONTEXT ( ( #367 ) ) GLOBAL_UNIT_ASSIGNED_CONTEXT ( ( #43, #98, #130 ) ) REPRESENTATION_CONTEXT ( 'NONE', 'WORKASPACE' ) );
#79 = UNCERTAINTY_MEASURE_WITH_UNIT (LENGTH_MEASURE( 1.000000000000000082E-05 ), #303, 'distance_accuracy_value', 'NONE');
#80 = LINE ( 'NONE', #53, #84 ) ;
#81 = PRODUCT ( '84407', '84407', '', ( #138 ) ) ;
#82 =( CONVERSION_BASED_UNIT ( 'INCH', #28 ) LENGTH_UNIT ( ) NAMED_UNIT ( #330 ) );
#83 = ORIENTED_EDGE ( 'NONE', *, *, #341, .F. ) ;
#84 = VECTOR ( 'NONE', #238, 39.37007874015748143 ) ;
#85 = AXIS2_PLACEMENT_3D ( 'NONE', #197, #92, #317 ) ;
#86 =( NAMED_UNIT ( * ) SI_UNIT ( $, .STERADIAN. ) SOLID_ANGLE_UNIT ( ) );
#87 = ORIENTED_EDGE ( 'NONE', *, *, #147, .F. ) ;
#88 = ORIENTED_EDGE ( 'NONE', *, *, #70, .F. ) ;
#89 = DIRECTION ( 'NONE',  ( 1.000000000000000000, 0.000000000000000000, 0.000000000000000000 ) ) ;
#90 = PRESENTATION_LAYER_ASSIGNMENT (  '', '', ( #186 ) ) ;
#91 = SURFACE_STYLE_USAGE ( .BOTH. , #311 ) ;
#92 = DIRECTION ( 'NONE',  ( -0.000000000000000000, -1.000000000000000000, -0.000000000000000000 ) ) ;
#93 = VECTOR ( 'NONE', #210, 39.37007874015748143 ) ;
#94 = MECHANICAL_DESIGN_GEOMETRIC_PRESENTATION_REPRESENTATION (  '', ( #174 ), #155 ) ;
#95 = MECHANICAL_DESIGN_GEOMETRIC_PRESENTATION_REPRESENTATION (  '', ( #186 ), #355 ) ;
#96 = FILL_AREA_STYLE_COLOUR ( '', #343 ) ;
#97 = ADVANCED_FACE ( 'NONE', ( #124 ), #370, .T. ) ;
#98 =( NAMED_UNIT ( * ) PLANE_ANGLE_UNIT ( ) SI_UNIT ( $, .RADIAN. ) );
#99 = CARTESIAN_POINT ( 'NONE',  ( 1.377727649040771896E-16, 0.3749999999999999445, 0.000000000000000000 ) ) ;
#100 = CARTESIAN_POINT ( 'NONE',  ( -6.123233995736772199E-17, 2.000000000000000000, 0.000000000000000000 ) ) ;
#101 = CLOSED_SHELL ( 'NONE', ( #318, #3, #172, #97, #362 ) ) ;
#102 = DIRECTION ( 'NONE',  ( -0.000000000000000000, -1.000000000000000000, -0.000000000000000000 ) ) ;
#103 = CIRCLE ( 'NONE', #229, 0.06250000000000000000 ) ;
#104 =( NAMED_UNIT ( * ) PLANE_ANGLE_UNIT ( ) SI_UNIT ( $, .RADIAN. ) );
#105 = PLANE ( 'NONE',  #291 ) ;
#106 = CARTESIAN_POINT ( 'NONE',  ( 0.06249999999999995143, 2.000000000000000000, 0.000000000000000000 ) ) ;
#107 = STYLED_ITEM ( 'NONE', ( #164 ), #97 ) ;
#108 = LENGTH_MEASURE_WITH_UNIT ( LENGTH_MEASURE( 0.02539999999999999897 ), #34 );
#109 = EDGE_LOOP ( 'NONE', ( #223, #57 ) ) ;
#110 = FILL_AREA_STYLE ('',( #372 ) ) ;
#111 = ORIENTED_EDGE ( 'NONE', *, *, #195, .F. ) ;
#112 = PRESENTATION_LAYER_ASSIGNMENT (  '', '', ( #174 ) ) ;
#113 = FILL_AREA_STYLE_COLOUR ( '', #72 ) ;
#114 = ORIENTED_EDGE ( 'NONE', *, *, #201, .T. ) ;
#115 = ORIENTED_EDGE ( 'NONE', *, *, #254, .T. ) ;
#116 = ORIENTED_EDGE ( 'NONE', *, *, #39, .F. ) ;
#117 = AXIS2_PLACEMENT_3D ( 'NONE', #75, #182, #185 ) ;
#118 = AXIS2_PLACEMENT_3D ( 'NONE', #49, #162, #26 ) ;
#119 = DIRECTION ( 'NONE',  ( -1.000000000000000000, 0.000000000000000000, 0.000000000000000000 ) ) ;
#120 = EDGE_CURVE ( 'NONE', #61, #239, #314, .T. ) ;
#121 = UNCERTAINTY_MEASURE_WITH_UNIT (LENGTH_MEASURE( 1.000000000000000082E-05 ), #363, 'distance_accuracy_value', 'NONE');
#122 = ORIENTED_EDGE ( 'NONE', *, *, #147, .T. ) ;
#123 = CARTESIAN_POINT ( 'NONE',  ( 7.654042494670952923E-18, 0.3750000000000000555, 0.06249999999999995143 ) ) ;
#124 = FACE_OUTER_BOUND ( 'NONE', #55, .T. ) ;
#125 = UNCERTAINTY_MEASURE_WITH_UNIT (LENGTH_MEASURE( 1.000000000000000082E-05 ), #159, 'distance_accuracy_value', 'NONE');
#126 = MECHANICAL_DESIGN_GEOMETRIC_PRESENTATION_REPRESENTATION (  '', ( #54 ), #222 ) ;
#127 = DIRECTION ( 'NONE',  ( -0.000000000000000000, -1.000000000000000000, -0.000000000000000000 ) ) ;
#128 = STYLED_ITEM ( 'NONE', ( #296 ), #362 ) ;
#129 = DIRECTION ( 'NONE',  ( -1.000000000000000000, 0.000000000000000000, 0.000000000000000000 ) ) ;
#130 =( NAMED_UNIT ( * ) SI_UNIT ( $, .STERADIAN. ) SOLID_ANGLE_UNIT ( ) );
#131 = DIRECTION ( 'NONE',  ( -0.000000000000000000, -1.000000000000000000, -0.000000000000000000 ) ) ;
#132 = UNCERTAINTY_MEASURE_WITH_UNIT (LENGTH_MEASURE( 1.000000000000000082E-05 ), #82, 'distance_accuracy_value', 'NONE');
#133 = DIRECTION ( 'NONE',  ( 1.000000000000000000, 1.224646799147353207E-16, 0.000000000000000000 ) ) ;
#134 = AXIS2_PLACEMENT_3D ( 'NONE', #331, #214, #325 ) ;
#135 = AXIS2_PLACEMENT_3D ( 'NONE', #12, #205, #74 ) ;
#136 = PRODUCT_RELATED_PRODUCT_CATEGORY ( 'part', '', ( #81 ) ) ;
#137 = FACE_OUTER_BOUND ( 'NONE', #144, .T. ) ;
#138 = PRODUCT_CONTEXT ( 'NONE', #42, 'mechanical' ) ;
#139 = FILL_AREA_STYLE ('',( #113 ) ) ;
#140 = ORIENTED_EDGE ( 'NONE', *, *, #333, .T. ) ;
#141 = PRESENTATION_LAYER_ASSIGNMENT (  '', '', ( #107 ) ) ;
#142 = AXIS2_PLACEMENT_3D ( 'NONE', #69, #232, #181 ) ;
#143 = ORIENTED_EDGE ( 'NONE', *, *, #50, .F. ) ;
#144 = EDGE_LOOP ( 'NONE', ( #184, #169, #192, #111 ) ) ;
#145 = DIRECTION ( 'NONE',  ( -0.000000000000000000, -1.000000000000000000, -0.000000000000000000 ) ) ;
#146 =( LENGTH_UNIT ( ) NAMED_UNIT ( * ) SI_UNIT ( $, .METRE. ) );
#147 = EDGE_CURVE ( 'NONE', #189, #265, #298, .T. ) ;
#148 = AXIS2_PLACEMENT_3D ( 'NONE', #77, #127, #269 ) ;
#149 =( LENGTH_UNIT ( ) NAMED_UNIT ( * ) SI_UNIT ( $, .METRE. ) );
#150 =( LENGTH_UNIT ( ) NAMED_UNIT ( * ) SI_UNIT ( $, .METRE. ) );
#151 = DIRECTION ( 'NONE',  ( -0.000000000000000000, -1.000000000000000000, -0.000000000000000000 ) ) ;
#152 = LENGTH_MEASURE_WITH_UNIT ( LENGTH_MEASURE( 0.02539999999999999897 ), #149 );
#153 = PLANE ( 'NONE',  #134 ) ;
#154 = SURFACE_SIDE_STYLE ('',( #21 ) ) ;
#155 =( GEOMETRIC_REPRESENTATION_CONTEXT ( 3 ) GLOBAL_UNCERTAINTY_ASSIGNED_CONTEXT ( ( #125 ) ) GLOBAL_UNIT_ASSIGNED_CONTEXT ( ( #159, #209, #364 ) ) REPRESENTATION_CONTEXT ( 'NONE', 'WORKASPACE' ) );
#156 = CIRCLE ( 'NONE', #361, 0.06250000000000000000 ) ;
#157 = DIRECTION ( 'NONE',  ( -1.224646799147353207E-16, 1.000000000000000000, -0.000000000000000000 ) ) ;
#158 = DIRECTION ( 'NONE',  ( -1.224646799147353207E-16, 1.000000000000000000, -0.000000000000000000 ) ) ;
#159 =( CONVERSION_BASED_UNIT ( 'INCH', #44 ) LENGTH_UNIT ( ) NAMED_UNIT ( #301 ) );
#160 = DIRECTION ( 'NONE',  ( 0.000000000000000000, 0.000000000000000000, -1.000000000000000000 ) ) ;
#161 = ORIENTED_EDGE ( 'NONE', *, *, #258, .T. ) ;
#162 = DIRECTION ( 'NONE',  ( 0.000000000000000000, 0.000000000000000000, 1.000000000000000000 ) ) ;
#163 = CARTESIAN_POINT ( 'NONE',  ( 0.000000000000000000, 0.06250000000000002776, -0.06250000000000000000 ) ) ;
#164 = PRESENTATION_STYLE_ASSIGNMENT (( #188 ) ) ;
#165 =( LENGTH_UNIT ( ) NAMED_UNIT ( * ) SI_UNIT ( $, .METRE. ) );
#166 = VERTEX_POINT ( 'NONE', #259 ) ;
#167 = ORIENTED_EDGE ( 'NONE', *, *, #16, .T. ) ;
#168 = COLOUR_RGB ( '',1.000000000000000000, 0.000000000000000000, 0.000000000000000000 ) ;
#169 = ORIENTED_EDGE ( 'NONE', *, *, #353, .T. ) ;
#170 = CARTESIAN_POINT ( 'NONE',  ( 0.000000000000000000, 0.06250000000000002776, 0.000000000000000000 ) ) ;
#171 = CARTESIAN_POINT ( 'NONE',  ( 0.000000000000000000, 0.3750000000000000555, 0.000000000000000000 ) ) ;
#172 = ADVANCED_FACE ( 'NONE', ( #295 ), #153, .T. ) ;
#173 =( CONVERSION_BASED_UNIT ( 'INCH', #316 ) LENGTH_UNIT ( ) NAMED_UNIT ( #211 ) );
#174 = STYLED_ITEM ( 'NONE', ( #196 ), #172 ) ;
#175 = CARTESIAN_POINT ( 'NONE',  ( 0.06249999999999995837, 0.3749999999999999445, 7.654042494670954463E-18 ) ) ;
#176 = MECHANICAL_DESIGN_GEOMETRIC_PRESENTATION_REPRESENTATION (  '', ( #128 ), #78 ) ;
#177 = SURFACE_SIDE_STYLE ('',( #38 ) ) ;
#178 = FILL_AREA_STYLE ('',( #268 ) ) ;
#179 =( NAMED_UNIT ( * ) PLANE_ANGLE_UNIT ( ) SI_UNIT ( $, .RADIAN. ) );
#180 = AXIS2_PLACEMENT_3D ( 'NONE', #64, #199, #293 ) ;
#181 = DIRECTION ( 'NONE',  ( -1.000000000000000000, 0.000000000000000000, 0.000000000000000000 ) ) ;
#182 = DIRECTION ( 'NONE',  ( 1.224646799147353207E-16, -0.000000000000000000, 1.000000000000000000 ) ) ;
#183 = EDGE_CURVE ( 'NONE', #350, #265, #351, .T. ) ;
#184 = ORIENTED_EDGE ( 'NONE', *, *, #32, .F. ) ;
#185 = DIRECTION ( 'NONE',  ( 1.000000000000000000, 0.000000000000000000, -1.224646799147353207E-16 ) ) ;
#186 = STYLED_ITEM ( 'NONE', ( #347 ), #284 ) ;
#187 = DIRECTION ( 'NONE',  ( -0.000000000000000000, -1.000000000000000000, -0.000000000000000000 ) ) ;
#188 = SURFACE_STYLE_USAGE ( .BOTH. , #304 ) ;
#189 = VERTEX_POINT ( 'NONE', #212 ) ;
#190 = CIRCLE ( 'NONE', #142, 0.06250000000000001388 ) ;
#191 = ORIENTED_EDGE ( 'NONE', *, *, #183, .F. ) ;
#192 = ORIENTED_EDGE ( 'NONE', *, *, #50, .T. ) ;
#193 = APPLICATION_CONTEXT ( 'automotive_design' ) ;
#194 = LINE ( 'NONE', #349, #206 ) ;
#195 = EDGE_CURVE ( 'NONE', #327, #219, #190, .T. ) ;
#196 = PRESENTATION_STYLE_ASSIGNMENT (( #226 ) ) ;
#197 = CARTESIAN_POINT ( 'NONE',  ( 0.000000000000000000, 0.3750000000000000555, 0.000000000000000000 ) ) ;
#198 = FILL_AREA_STYLE ('',( #321 ) ) ;
#199 = DIRECTION ( 'NONE',  ( -0.000000000000000000, -1.000000000000000000, -0.000000000000000000 ) ) ;
#200 = AXIS2_PLACEMENT_3D ( 'NONE', #297, #357, #256 ) ;
#201 = EDGE_CURVE ( 'NONE', #219, #327, #19, .T. ) ;
#202 = DIMENSIONAL_EXPONENTS ( 1.000000000000000000, 0.000000000000000000, 0.000000000000000000, 0.000000000000000000, 0.000000000000000000, 0.000000000000000000, 0.000000000000000000 ) ;
#203 = SURFACE_STYLE_USAGE ( .BOTH. , #177 ) ;
#204 = FILL_AREA_STYLE ('',( #96 ) ) ;
#205 = DIRECTION ( 'NONE',  ( 0.000000000000000000, 0.000000000000000000, 1.000000000000000000 ) ) ;
#206 = VECTOR ( 'NONE', #289, 39.37007874015748143 ) ;
#207 = DIRECTION ( 'NONE',  ( -1.224646799147353207E-16, 1.000000000000000000, 0.000000000000000000 ) ) ;
#208 = SPHERICAL_SURFACE ( 'NONE', #135, 0.06250000000000001388 ) ;
#209 =( NAMED_UNIT ( * ) PLANE_ANGLE_UNIT ( ) SI_UNIT ( $, .RADIAN. ) );
#210 = DIRECTION ( 'NONE',  ( -1.224646799147353207E-16, 1.000000000000000000, -0.000000000000000000 ) ) ;
#211 = DIMENSIONAL_EXPONENTS ( 1.000000000000000000, 0.000000000000000000, 0.000000000000000000, 0.000000000000000000, 0.000000000000000000, 0.000000000000000000, 0.000000000000000000 ) ;
#212 = CARTESIAN_POINT ( 'NONE',  ( 0.06250000000000000000, 0.06250000000000002776, 0.000000000000000000 ) ) ;
#213 = DIMENSIONAL_EXPONENTS ( 1.000000000000000000, 0.000000000000000000, 0.000000000000000000, 0.000000000000000000, 0.000000000000000000, 0.000000000000000000, 0.000000000000000000 ) ;
#214 = DIRECTION ( 'NONE',  ( 0.000000000000000000, 1.000000000000000000, 0.000000000000000000 ) ) ;
#215 = CLOSED_SHELL ( 'NONE', ( #62, #275, #322, #56 ) ) ;
#216 = UNCERTAINTY_MEASURE_WITH_UNIT (LENGTH_MEASURE( 1.000000000000000082E-05 ), #173, 'distance_accuracy_value', 'NONE');
#217 = VECTOR ( 'NONE', #233, 39.37007874015748143 ) ;
#218 = VERTEX_POINT ( 'NONE', #300 ) ;
#219 = VERTEX_POINT ( 'NONE', #335 ) ;
#220 = SURFACE_STYLE_FILL_AREA ( #110 ) ;
#221 = SURFACE_STYLE_FILL_AREA ( #373 ) ;
#222 =( GEOMETRIC_REPRESENTATION_CONTEXT ( 3 ) GLOBAL_UNCERTAINTY_ASSIGNED_CONTEXT ( ( #121 ) ) GLOBAL_UNIT_ASSIGNED_CONTEXT ( ( #363, #104, #278 ) ) REPRESENTATION_CONTEXT ( 'NONE', 'WORKASPACE' ) );
#223 = ORIENTED_EDGE ( 'NONE', *, *, #16, .F. ) ;
#224 = EDGE_LOOP ( 'NONE', ( #312, #342, #87, #30 ) ) ;
#225 = VERTEX_POINT ( 'NONE', #163 ) ;
#226 = SURFACE_STYLE_USAGE ( .BOTH. , #13 ) ;
#227 = DIRECTION ( 'NONE',  ( -1.224646799147353207E-16, 1.000000000000000000, -0.000000000000000000 ) ) ;
#228 = DIRECTION ( 'NONE',  ( 0.000000000000000000, 0.000000000000000000, 1.000000000000000000 ) ) ;
#229 = AXIS2_PLACEMENT_3D ( 'NONE', #22, #131, #360 ) ;
#230 = CYLINDRICAL_SURFACE ( 'NONE', #315, 0.06249999999999991673 ) ;
#231 = DIRECTION ( 'NONE',  ( 0.000000000000000000, 0.000000000000000000, -1.000000000000000000 ) ) ;
#232 = DIRECTION ( 'NONE',  ( -1.224646799147353207E-16, 1.000000000000000000, -0.000000000000000000 ) ) ;
#233 = DIRECTION ( 'NONE',  ( -0.000000000000000000, -1.000000000000000000, -0.000000000000000000 ) ) ;
#234 = FILL_AREA_STYLE ('',( #329 ) ) ;
#235 = SURFACE_STYLE_USAGE ( .BOTH. , #154 ) ;
#236 = AXIS2_PLACEMENT_3D ( 'NONE', #299, #158, #129 ) ;
#237 = STYLED_ITEM ( 'NONE', ( #67 ), #286 ) ;
#238 = DIRECTION ( 'NONE',  ( -1.224646799147353207E-16, 1.000000000000000000, -0.000000000000000000 ) ) ;
#239 = VERTEX_POINT ( 'NONE', #123 ) ;
#240 = CARTESIAN_POINT ( 'NONE',  ( -3.827021247335478002E-18, 0.000000000000000000, 0.000000000000000000 ) ) ;
#241 = DIMENSIONAL_EXPONENTS ( 1.000000000000000000, 0.000000000000000000, 0.000000000000000000, 0.000000000000000000, 0.000000000000000000, 0.000000000000000000, 0.000000000000000000 ) ;
#242 = PLANE ( 'NONE',  #260 ) ;
#243 = CIRCLE ( 'NONE', #320, 0.06250000000000000000 ) ;
#244 = COLOUR_RGB ( '',0.7921568627450980005, 0.8196078431372548767, 0.9333333333333333481 ) ;
#245 = CARTESIAN_POINT ( 'NONE',  ( 0.000000000000000000, 0.06250000000000002776, 0.000000000000000000 ) ) ;
#246 =( NAMED_UNIT ( * ) PLANE_ANGLE_UNIT ( ) SI_UNIT ( $, .RADIAN. ) );
#247 = FILL_AREA_STYLE_COLOUR ( '', #168 ) ;
#248 =( NAMED_UNIT ( * ) PLANE_ANGLE_UNIT ( ) SI_UNIT ( $, .RADIAN. ) );
#249 = SURFACE_SIDE_STYLE ('',( #59 ) ) ;
#250 = EDGE_LOOP ( 'NONE', ( #191, #161, #45, #122 ) ) ;
#251 = AXIS2_PLACEMENT_3D ( 'NONE', #368, #276, #23 ) ;
#252 = FACE_OUTER_BOUND ( 'NONE', #224, .T. ) ;
#253 = EDGE_LOOP ( 'NONE', ( #6, #115, #83, #88, #313 ) ) ;
#254 = EDGE_CURVE ( 'NONE', #239, #218, #274, .T. ) ;
#255 = DIRECTION ( 'NONE',  ( 0.000000000000000000, 0.000000000000000000, -1.000000000000000000 ) ) ;
#256 = DIRECTION ( 'NONE',  ( -1.000000000000000000, 0.000000000000000000, 0.000000000000000000 ) ) ;
#257 = AXIS2_PLACEMENT_3D ( 'NONE', #100, #157, #20 ) ;
#258 = EDGE_CURVE ( 'NONE', #350, #225, #103, .T. ) ;
#259 = CARTESIAN_POINT ( 'NONE',  ( -0.06249999999999967387, 0.3749999999999999445, 0.000000000000000000 ) ) ;
#260 = AXIS2_PLACEMENT_3D ( 'NONE', #106, #52, #133 ) ;
#261 = COLOUR_RGB ( '',1.000000000000000000, 0.000000000000000000, 0.000000000000000000 ) ;
#262 =( LENGTH_UNIT ( ) NAMED_UNIT ( * ) SI_UNIT ( $, .METRE. ) );
#263 = SURFACE_STYLE_FILL_AREA ( #204 ) ;
#264 = PRODUCT_DEFINITION_CONTEXT ( 'detailed design', #193, 'design' ) ;
#265 = VERTEX_POINT ( 'NONE', #240 ) ;
#266 =( NAMED_UNIT ( * ) SI_UNIT ( $, .STERADIAN. ) SOLID_ANGLE_UNIT ( ) );
#267 = LINE ( 'NONE', #332, #93 ) ;
#268 = FILL_AREA_STYLE_COLOUR ( '', #41 ) ;
#269 = DIRECTION ( 'NONE',  ( 0.000000000000000000, 0.000000000000000000, -1.000000000000000000 ) ) ;
#270 = MECHANICAL_DESIGN_GEOMETRIC_PRESENTATION_REPRESENTATION (  '', ( #237 ), #60 ) ;
#271 = CARTESIAN_POINT ( 'NONE',  ( 0.000000000000000000, 0.3750000000000000555, -0.06249999999999995143 ) ) ;
#272 = ADVANCED_BREP_SHAPE_REPRESENTATION ( '84407', ( #284, #286, #118 ), #306 ) ;
#273 = LENGTH_MEASURE_WITH_UNIT ( LENGTH_MEASURE( 0.02539999999999999897 ), #68 );
#274 = LINE ( 'NONE', #14, #217 ) ;
#275 = ADVANCED_FACE ( 'NONE', ( #366 ), #105, .F. ) ;
#276 = DIRECTION ( 'NONE',  ( -1.224646799147353207E-16, 1.000000000000000000, -0.000000000000000000 ) ) ;
#277 = DIMENSIONAL_EXPONENTS ( 1.000000000000000000, 0.000000000000000000, 0.000000000000000000, 0.000000000000000000, 0.000000000000000000, 0.000000000000000000, 0.000000000000000000 ) ;
#278 =( NAMED_UNIT ( * ) SI_UNIT ( $, .STERADIAN. ) SOLID_ANGLE_UNIT ( ) );
#279 = SURFACE_STYLE_USAGE ( .BOTH. , #249 ) ;
#280 = AXIS2_PLACEMENT_3D ( 'NONE', #171, #151, #231 ) ;
#281 = AXIS2_PLACEMENT_3D ( 'NONE', #352, #228, #89 ) ;
#282 = ORIENTED_EDGE ( 'NONE', *, *, #346, .T. ) ;
#283 = COLOUR_RGB ( '',1.000000000000000000, 0.000000000000000000, 0.000000000000000000 ) ;
#284 = MANIFOLD_SOLID_BREP ( 'Revolve - Cutting Edge', #101 ) ;
#285 = PRODUCT_DEFINITION_FORMATION_WITH_SPECIFIED_SOURCE ( 'ANY', '', #81, .NOT_KNOWN. ) ;
#286 = MANIFOLD_SOLID_BREP ( 'Revolve - Tool Body (Straight Shanked)', #215 ) ;
#287 =( NAMED_UNIT ( * ) PLANE_ANGLE_UNIT ( ) SI_UNIT ( $, .RADIAN. ) );
#288 = VERTEX_POINT ( 'NONE', #175 ) ;
#289 = DIRECTION ( 'NONE',  ( -0.000000000000000000, -1.000000000000000000, -0.000000000000000000 ) ) ;
#290 = CARTESIAN_POINT ( 'NONE',  ( -0.06250000000000001388, 0.06250000000000002776, 7.654042494670957545E-18 ) ) ;
#291 = AXIS2_PLACEMENT_3D ( 'NONE', #340, #207, #328 ) ;
#292 = PRODUCT_DEFINITION ( 'UNKNOWN', '', #285, #264 ) ;
#293 = DIRECTION ( 'NONE',  ( 0.000000000000000000, 0.000000000000000000, -1.000000000000000000 ) ) ;
#294 = APPLICATION_PROTOCOL_DEFINITION ( 'draft international standard', 'automotive_design', 1998, #193 ) ;
#295 = FACE_OUTER_BOUND ( 'NONE', #4, .T. ) ;
#296 = PRESENTATION_STYLE_ASSIGNMENT (( #235 ) ) ;
#297 = CARTESIAN_POINT ( 'NONE',  ( -7.654042494670957545E-18, 0.06250000000000001388, 0.000000000000000000 ) ) ;
#298 = CIRCLE ( 'NONE', #200, 0.06250000000000001388 ) ;
#299 = CARTESIAN_POINT ( 'NONE',  ( 1.377727649040771896E-16, 0.3749999999999999445, 0.000000000000000000 ) ) ;
#300 = CARTESIAN_POINT ( 'NONE',  ( 7.654042494670959086E-18, 0.06250000000000002776, 0.06250000000000000000 ) ) ;
#301 = DIMENSIONAL_EXPONENTS ( 1.000000000000000000, 0.000000000000000000, 0.000000000000000000, 0.000000000000000000, 0.000000000000000000, 0.000000000000000000, 0.000000000000000000 ) ;
#302 = LENGTH_MEASURE_WITH_UNIT ( LENGTH_MEASURE( 0.02539999999999999897 ), #73 );
#303 =( CONVERSION_BASED_UNIT ( 'INCH', #273 ) LENGTH_UNIT ( ) NAMED_UNIT ( #202 ) );
#304 = SURFACE_SIDE_STYLE ('',( #76 ) ) ;
#305 = FACE_OUTER_BOUND ( 'NONE', #253, .T. ) ;
#306 =( GEOMETRIC_REPRESENTATION_CONTEXT ( 3 ) GLOBAL_UNCERTAINTY_ASSIGNED_CONTEXT ( ( #79 ) ) GLOBAL_UNIT_ASSIGNED_CONTEXT ( ( #303, #179, #266 ) ) REPRESENTATION_CONTEXT ( 'NONE', 'WORKASPACE' ) );
#307 = DIRECTION ( 'NONE',  ( 0.000000000000000000, 0.000000000000000000, -1.000000000000000000 ) ) ;
#308 =( CONVERSION_BASED_UNIT ( 'INCH', #302 ) LENGTH_UNIT ( ) NAMED_UNIT ( #213 ) );
#309 =( NAMED_UNIT ( * ) SI_UNIT ( $, .STERADIAN. ) SOLID_ANGLE_UNIT ( ) );
#310 = STYLED_ITEM ( 'NONE', ( #323 ), #318 ) ;
#311 = SURFACE_SIDE_STYLE ('',( #221 ) ) ;
#312 = ORIENTED_EDGE ( 'NONE', *, *, #39, .T. ) ;
#313 = ORIENTED_EDGE ( 'NONE', *, *, #333, .F. ) ;
#314 = CIRCLE ( 'NONE', #280, 0.06249999999999995143 ) ;
#315 = AXIS2_PLACEMENT_3D ( 'NONE', #63, #227, #119 ) ;
#316 = LENGTH_MEASURE_WITH_UNIT ( LENGTH_MEASURE( 0.02539999999999999897 ), #150 );
#317 = DIRECTION ( 'NONE',  ( 0.000000000000000000, 0.000000000000000000, -1.000000000000000000 ) ) ;
#318 = ADVANCED_FACE ( 'NONE', ( #252 ), #10, .T. ) ;
#319 = SURFACE_STYLE_USAGE ( .BOTH. , #37 ) ;
#320 = AXIS2_PLACEMENT_3D ( 'NONE', #337, #187, #307 ) ;
#321 = FILL_AREA_STYLE_COLOUR ( '', #261 ) ;
#322 = ADVANCED_FACE ( 'NONE', ( #137 ), #230, .T. ) ;
#323 = PRESENTATION_STYLE_ASSIGNMENT (( #203 ) ) ;
#324 = DIRECTION ( 'NONE',  ( -1.224646799147353207E-16, 1.000000000000000000, -0.000000000000000000 ) ) ;
#325 = DIRECTION ( 'NONE',  ( 0.000000000000000000, -0.000000000000000000, 1.000000000000000000 ) ) ;
#326 = CIRCLE ( 'NONE', #1, 0.06250000000000000000 ) ;
#327 = VERTEX_POINT ( 'NONE', #356 ) ;
#328 = DIRECTION ( 'NONE',  ( -1.000000000000000000, -1.224646799147353207E-16, 0.000000000000000000 ) ) ;
#329 = FILL_AREA_STYLE_COLOUR ( '', #283 ) ;
#330 = DIMENSIONAL_EXPONENTS ( 1.000000000000000000, 0.000000000000000000, 0.000000000000000000, 0.000000000000000000, 0.000000000000000000, 0.000000000000000000, 0.000000000000000000 ) ;
#331 = CARTESIAN_POINT ( 'NONE',  ( 0.000000000000000000, 0.3750000000000000555, 0.000000000000000000 ) ) ;
#332 = CARTESIAN_POINT ( 'NONE',  ( -0.06249999999999997224, 2.000000000000000000, 0.000000000000000000 ) ) ;
#333 = EDGE_CURVE ( 'NONE', #61, #225, #194, .T. ) ;
#334 = APPLICATION_PROTOCOL_DEFINITION ( 'draft international standard', 'automotive_design', 1998, #42 ) ;
#335 = CARTESIAN_POINT ( 'NONE',  ( -0.06250000000000006939, 2.000000000000000000, 0.000000000000000000 ) ) ;
#336 = UNCERTAINTY_MEASURE_WITH_UNIT (LENGTH_MEASURE( 1.000000000000000082E-05 ), #308, 'distance_accuracy_value', 'NONE');
#337 = CARTESIAN_POINT ( 'NONE',  ( 0.000000000000000000, 0.06250000000000002776, 0.000000000000000000 ) ) ;
#338 = DIRECTION ( 'NONE',  ( -1.000000000000000000, 0.000000000000000000, 0.000000000000000000 ) ) ;
#339 = MECHANICAL_DESIGN_GEOMETRIC_PRESENTATION_REPRESENTATION (  '', ( #310 ), #11 ) ;
#340 = CARTESIAN_POINT ( 'NONE',  ( 1.377727649040771896E-16, 0.3750000000000000555, 0.000000000000000000 ) ) ;
#341 = EDGE_CURVE ( 'NONE', #189, #218, #156, .T. ) ;
#342 = ORIENTED_EDGE ( 'NONE', *, *, #183, .T. ) ;
#343 = COLOUR_RGB ( '',1.000000000000000000, 0.000000000000000000, 0.000000000000000000 ) ;
#344 = PRESENTATION_LAYER_ASSIGNMENT (  '', '', ( #128 ) ) ;
#345 = EDGE_LOOP ( 'NONE', ( #167, #359, #58, #143 ) ) ;
#346 = EDGE_CURVE ( 'NONE', #239, #61, #369, .T. ) ;
#347 = PRESENTATION_STYLE_ASSIGNMENT (( #279 ) ) ;
#348 = EDGE_LOOP ( 'NONE', ( #114, #27 ) ) ;
#349 = CARTESIAN_POINT ( 'NONE',  ( 0.000000000000000000, 0.000000000000000000, -0.06249999999999997224 ) ) ;
#350 = VERTEX_POINT ( 'NONE', #290 ) ;
#351 = CIRCLE ( 'NONE', #117, 0.06250000000000001388 ) ;
#352 = CARTESIAN_POINT ( 'NONE',  ( -7.654042494670957545E-18, 0.06250000000000001388, 0.000000000000000000 ) ) ;
#353 = EDGE_CURVE ( 'NONE', #288, #166, #48, .T. ) ;
#354 =( GEOMETRIC_REPRESENTATION_CONTEXT ( 3 ) GLOBAL_UNCERTAINTY_ASSIGNED_CONTEXT ( ( #336 ) ) GLOBAL_UNIT_ASSIGNED_CONTEXT ( ( #308, #248, #86 ) ) REPRESENTATION_CONTEXT ( 'NONE', 'WORKASPACE' ) );
#355 =( GEOMETRIC_REPRESENTATION_CONTEXT ( 3 ) GLOBAL_UNCERTAINTY_ASSIGNED_CONTEXT ( ( #132 ) ) GLOBAL_UNIT_ASSIGNED_CONTEXT ( ( #82, #246, #309 ) ) REPRESENTATION_CONTEXT ( 'NONE', 'WORKASPACE' ) );
#356 = CARTESIAN_POINT ( 'NONE',  ( 0.06249999999999995837, 2.000000000000000000, 7.654042494670954463E-18 ) ) ;
#357 = DIRECTION ( 'NONE',  ( 0.000000000000000000, 0.000000000000000000, -1.000000000000000000 ) ) ;
#358 = DIMENSIONAL_EXPONENTS ( 1.000000000000000000, 0.000000000000000000, 0.000000000000000000, 0.000000000000000000, 0.000000000000000000, 0.000000000000000000, 0.000000000000000000 ) ;
#359 = ORIENTED_EDGE ( 'NONE', *, *, #32, .T. ) ;
#360 = DIRECTION ( 'NONE',  ( 0.000000000000000000, 0.000000000000000000, -1.000000000000000000 ) ) ;
#361 = AXIS2_PLACEMENT_3D ( 'NONE', #170, #145, #255 ) ;
#362 = ADVANCED_FACE ( 'NONE', ( #365 ), #208, .T. ) ;
#363 =( CONVERSION_BASED_UNIT ( 'INCH', #108 ) LENGTH_UNIT ( ) NAMED_UNIT ( #277 ) );
#364 =( NAMED_UNIT ( * ) SI_UNIT ( $, .STERADIAN. ) SOLID_ANGLE_UNIT ( ) );
#365 = FACE_OUTER_BOUND ( 'NONE', #250, .T. ) ;
#366 = FACE_OUTER_BOUND ( 'NONE', #109, .T. ) ;
#367 = UNCERTAINTY_MEASURE_WITH_UNIT (LENGTH_MEASURE( 1.000000000000000082E-05 ), #43, 'distance_accuracy_value', 'NONE');
#368 = CARTESIAN_POINT ( 'NONE',  ( -6.123233995736772199E-17, 2.000000000000000000, 0.000000000000000000 ) ) ;
#369 = CIRCLE ( 'NONE', #85, 0.06249999999999995143 ) ;
#370 = CYLINDRICAL_SURFACE ( 'NONE', #180, 0.06249999999999997224 ) ;
#371 = ORIENTED_EDGE ( 'NONE', *, *, #120, .F. ) ;
#372 = FILL_AREA_STYLE_COLOUR ( '', #244 ) ;
#373 = FILL_AREA_STYLE ('',( #247 ) ) ;
ENDSEC;
END-ISO-10303-21;
