ISO-10303-21;
HEADER;
FILE_DESCRIPTION (( 'STEP AP214' ),
    '1' );
FILE_NAME ('00705.STEP',
    '2023-06-22T14:14:54',
    ( '' ),
    ( '' ),
    'SwSTEP 2.0',
    'SolidWorks 2023',
    '' );
FILE_SCHEMA (( 'AUTOMOTIVE_DESIGN' ));
ENDSEC;

DATA;
#1 = DIRECTION ( 'NONE',  ( 0.000000000000000000, 1.000000000000000000, 0.000000000000000000 ) ) ;
#2 = SURFACE_STYLE_USAGE ( .BOTH. , #128 ) ;
#3 = SHAPE_DEFINITION_REPRESENTATION ( #71, #146 ) ;
#4 = VECTOR ( 'NONE', #81, 39.37007874015748143 ) ;
#5 = COLOUR_RGB ( '',0.7921568627450980005, 0.8196078431372548767, 0.9333333333333333481 ) ;
#6 = CARTESIAN_POINT ( 'NONE',  ( 0.000000000000000000, 0.000000000000000000, -0.3750000000000000555 ) ) ;
#7 = PLANE ( 'NONE',  #155 ) ;
#8 = MECHANICAL_DESIGN_GEOMETRIC_PRESENTATION_REPRESENTATION (  '', ( #276 ), #203 ) ;
#9 = ADVANCED_FACE ( 'NONE', ( #12 ), #40, .T. ) ;
#10 = COLOUR_RGB ( '',1.000000000000000000, 0.000000000000000000, 0.000000000000000000 ) ;
#11 =( GEOMETRIC_REPRESENTATION_CONTEXT ( 3 ) GLOBAL_UNCERTAINTY_ASSIGNED_CONTEXT ( ( #237 ) ) GLOBAL_UNIT_ASSIGNED_CONTEXT ( ( #127, #147, #25 ) ) REPRESENTATION_CONTEXT ( 'NONE', 'WORKASPACE' ) );
#12 = FACE_OUTER_BOUND ( 'NONE', #253, .T. ) ;
#13 = ADVANCED_FACE ( 'NONE', ( #94 ), #72, .T. ) ;
#14 = CARTESIAN_POINT ( 'NONE',  ( 4.592425496802575451E-17, 0.000000000000000000, 0.3750000000000000555 ) ) ;
#15 = ORIENTED_EDGE ( 'NONE', *, *, #200, .T. ) ;
#16 = LENGTH_MEASURE_WITH_UNIT ( LENGTH_MEASURE( 0.02539999999999999897 ), #22 );
#17 = EDGE_CURVE ( 'NONE', #300, #61, #256, .T. ) ;
#18 = PLANE ( 'NONE',  #73 ) ;
#19 = FILL_AREA_STYLE_COLOUR ( '', #5 ) ;
#20 = FILL_AREA_STYLE_COLOUR ( '', #283 ) ;
#21 = APPLICATION_CONTEXT ( 'automotive_design' ) ;
#22 =( LENGTH_UNIT ( ) NAMED_UNIT ( * ) SI_UNIT ( $, .METRE. ) );
#23 = VECTOR ( 'NONE', #84, 39.37007874015748143 ) ;
#24 = SURFACE_SIDE_STYLE ('',( #53 ) ) ;
#25 =( NAMED_UNIT ( * ) SI_UNIT ( $, .STERADIAN. ) SOLID_ANGLE_UNIT ( ) );
#26 = CARTESIAN_POINT ( 'NONE',  ( -1.224646799147351975E-16, 7.000000000000000000, 0.000000000000000000 ) ) ;
#27 = PRODUCT_DEFINITION_CONTEXT ( 'detailed design', #33, 'design' ) ;
#28 = FILL_AREA_STYLE ('',( #178 ) ) ;
#29 = DIRECTION ( 'NONE',  ( -1.000000000000000000, 0.000000000000000000, 0.000000000000000000 ) ) ;
#30 = PRODUCT ( '00705', '00705', '', ( #217 ) ) ;
#31 = CIRCLE ( 'NONE', #205, 0.3750000000000000555 ) ;
#32 = FILL_AREA_STYLE_COLOUR ( '', #234 ) ;
#33 = APPLICATION_CONTEXT ( 'automotive_design' ) ;
#34 =( LENGTH_UNIT ( ) NAMED_UNIT ( * ) SI_UNIT ( $, .METRE. ) );
#35 = ORIENTED_EDGE ( 'NONE', *, *, #48, .F. ) ;
#36 =( GEOMETRIC_REPRESENTATION_CONTEXT ( 3 ) GLOBAL_UNCERTAINTY_ASSIGNED_CONTEXT ( ( #126 ) ) GLOBAL_UNIT_ASSIGNED_CONTEXT ( ( #150, #100, #55 ) ) REPRESENTATION_CONTEXT ( 'NONE', 'WORKASPACE' ) );
#37 = AXIS2_PLACEMENT_3D ( 'NONE', #110, #97, #66 ) ;
#38 = DIRECTION ( 'NONE',  ( -4.082155997157840737E-17, 1.000000000000000000, -0.000000000000000000 ) ) ;
#39 = EDGE_CURVE ( 'NONE', #281, #112, #79, .T. ) ;
#40 = CYLINDRICAL_SURFACE ( 'NONE', #270, 0.3750000000000001110 ) ;
#41 =( CONVERSION_BASED_UNIT ( 'INCH', #282 ) LENGTH_UNIT ( ) NAMED_UNIT ( #45 ) );
#42 = FACE_OUTER_BOUND ( 'NONE', #226, .T. ) ;
#43 =( LENGTH_UNIT ( ) NAMED_UNIT ( * ) SI_UNIT ( $, .METRE. ) );
#44 = DIRECTION ( 'NONE',  ( 1.000000000000000000, 4.082155997157840737E-17, 0.000000000000000000 ) ) ;
#45 = DIMENSIONAL_EXPONENTS ( 1.000000000000000000, 0.000000000000000000, 0.000000000000000000, 0.000000000000000000, 0.000000000000000000, 0.000000000000000000, 0.000000000000000000 ) ;
#46 = CARTESIAN_POINT ( 'NONE',  ( -0.3750000000000000555, 4.000000000000000000, 0.000000000000000000 ) ) ;
#47 = CLOSED_SHELL ( 'NONE', ( #272, #296, #9, #228 ) ) ;
#48 = EDGE_CURVE ( 'NONE', #251, #298, #248, .T. ) ;
#49 =( LENGTH_UNIT ( ) NAMED_UNIT ( * ) SI_UNIT ( $, .METRE. ) );
#50 = UNCERTAINTY_MEASURE_WITH_UNIT (LENGTH_MEASURE( 1.000000000000000082E-05 ), #134, 'distance_accuracy_value', 'NONE');
#51 = DIRECTION ( 'NONE',  ( 0.000000000000000000, 0.000000000000000000, 1.000000000000000000 ) ) ;
#52 = EDGE_CURVE ( 'NONE', #281, #251, #239, .T. ) ;
#53 = SURFACE_STYLE_FILL_AREA ( #54 ) ;
#54 = FILL_AREA_STYLE ('',( #20 ) ) ;
#55 =( NAMED_UNIT ( * ) SI_UNIT ( $, .STERADIAN. ) SOLID_ANGLE_UNIT ( ) );
#56 = CYLINDRICAL_SURFACE ( 'NONE', #160, 0.3750000000000000555 ) ;
#57 = MECHANICAL_DESIGN_GEOMETRIC_PRESENTATION_REPRESENTATION (  '', ( #64 ), #36 ) ;
#58 = ADVANCED_FACE ( 'NONE', ( #152 ), #18, .T. ) ;
#59 = SURFACE_STYLE_USAGE ( .BOTH. , #65 ) ;
#60 = DIRECTION ( 'NONE',  ( 0.000000000000000000, 0.000000000000000000, -1.000000000000000000 ) ) ;
#61 = VERTEX_POINT ( 'NONE', #156 ) ;
#62 = LENGTH_MEASURE_WITH_UNIT ( LENGTH_MEASURE( 0.02539999999999999897 ), #241 );
#63 = ORIENTED_EDGE ( 'NONE', *, *, #224, .T. ) ;
#64 = STYLED_ITEM ( 'NONE', ( #220 ), #13 ) ;
#65 = SURFACE_SIDE_STYLE ('',( #274 ) ) ;
#66 = DIRECTION ( 'NONE',  ( -1.000000000000000000, 0.000000000000000000, 0.000000000000000000 ) ) ;
#67 = CARTESIAN_POINT ( 'NONE',  ( 0.000000000000000000, 0.000000000000000000, 0.000000000000000000 ) ) ;
#68 = AXIS2_PLACEMENT_3D ( 'NONE', #252, #259, #170 ) ;
#69 = DIRECTION ( 'NONE',  ( -0.000000000000000000, -1.000000000000000000, -0.000000000000000000 ) ) ;
#70 = CARTESIAN_POINT ( 'NONE',  ( 4.592425496802575451E-17, 0.000000000000000000, 0.3750000000000000555 ) ) ;
#71 = PRODUCT_DEFINITION_SHAPE ( 'NONE', 'NONE',  #294 ) ;
#72 = CYLINDRICAL_SURFACE ( 'NONE', #209, 0.3750000000000000555 ) ;
#73 = AXIS2_PLACEMENT_3D ( 'NONE', #83, #107, #154 ) ;
#74 = CIRCLE ( 'NONE', #37, 0.3750000000000001665 ) ;
#75 = DIMENSIONAL_EXPONENTS ( 1.000000000000000000, 0.000000000000000000, 0.000000000000000000, 0.000000000000000000, 0.000000000000000000, 0.000000000000000000, 0.000000000000000000 ) ;
#76 = DIRECTION ( 'NONE',  ( -1.000000000000000000, -4.082155997157840737E-17, 0.000000000000000000 ) ) ;
#77 = DIRECTION ( 'NONE',  ( -4.082155997157840737E-17, 1.000000000000000000, 0.000000000000000000 ) ) ;
#78 = DIRECTION ( 'NONE',  ( -0.000000000000000000, -1.000000000000000000, -0.000000000000000000 ) ) ;
#79 = CIRCLE ( 'NONE', #123, 0.3750000000000000555 ) ;
#80 = VECTOR ( 'NONE', #264, 39.37007874015748143 ) ;
#81 = DIRECTION ( 'NONE',  ( -0.000000000000000000, -1.000000000000000000, -0.000000000000000000 ) ) ;
#82 = DIMENSIONAL_EXPONENTS ( 1.000000000000000000, 0.000000000000000000, 0.000000000000000000, 0.000000000000000000, 0.000000000000000000, 0.000000000000000000, 0.000000000000000000 ) ;
#83 = CARTESIAN_POINT ( 'NONE',  ( 0.000000000000000000, 0.000000000000000000, 0.000000000000000000 ) ) ;
#84 = DIRECTION ( 'NONE',  ( -0.000000000000000000, -1.000000000000000000, -0.000000000000000000 ) ) ;
#85 = PRESENTATION_LAYER_ASSIGNMENT (  '', '', ( #168 ) ) ;
#86 = CARTESIAN_POINT ( 'NONE',  ( -0.3750000000000002220, 7.000000000000000000, 0.000000000000000000 ) ) ;
#87 = ORIENTED_EDGE ( 'NONE', *, *, #288, .F. ) ;
#88 = ORIENTED_EDGE ( 'NONE', *, *, #143, .T. ) ;
#89 = PRESENTATION_STYLE_ASSIGNMENT (( #249 ) ) ;
#90 = ORIENTED_EDGE ( 'NONE', *, *, #213, .T. ) ;
#91 = MECHANICAL_DESIGN_GEOMETRIC_PRESENTATION_REPRESENTATION (  '', ( #266 ), #177 ) ;
#92 = ORIENTED_EDGE ( 'NONE', *, *, #52, .T. ) ;
#93 = FILL_AREA_STYLE_COLOUR ( '', #223 ) ;
#94 = FACE_OUTER_BOUND ( 'NONE', #206, .T. ) ;
#95 =( GEOMETRIC_REPRESENTATION_CONTEXT ( 3 ) GLOBAL_UNCERTAINTY_ASSIGNED_CONTEXT ( ( #242 ) ) GLOBAL_UNIT_ASSIGNED_CONTEXT ( ( #199, #201, #284 ) ) REPRESENTATION_CONTEXT ( 'NONE', 'WORKASPACE' ) );
#96 = CIRCLE ( 'NONE', #68, 0.3750000000000000555 ) ;
#97 = DIRECTION ( 'NONE',  ( -4.082155997157840737E-17, 1.000000000000000000, -0.000000000000000000 ) ) ;
#98 = LENGTH_MEASURE_WITH_UNIT ( LENGTH_MEASURE( 0.02539999999999999897 ), #144 );
#99 =( NAMED_UNIT ( * ) PLANE_ANGLE_UNIT ( ) SI_UNIT ( $, .RADIAN. ) );
#100 =( NAMED_UNIT ( * ) PLANE_ANGLE_UNIT ( ) SI_UNIT ( $, .RADIAN. ) );
#101 = DIRECTION ( 'NONE',  ( -1.000000000000000000, 0.000000000000000000, 0.000000000000000000 ) ) ;
#102 = DIMENSIONAL_EXPONENTS ( 1.000000000000000000, 0.000000000000000000, 0.000000000000000000, 0.000000000000000000, 0.000000000000000000, 0.000000000000000000, 0.000000000000000000 ) ;
#103 = CARTESIAN_POINT ( 'NONE',  ( 0.3750000000000000555, 7.000000000000000000, 4.592425496802576684E-17 ) ) ;
#104 = COLOUR_RGB ( '',1.000000000000000000, 0.000000000000000000, 0.000000000000000000 ) ;
#105 = SURFACE_STYLE_FILL_AREA ( #181 ) ;
#106 = MECHANICAL_DESIGN_GEOMETRIC_PRESENTATION_REPRESENTATION (  '', ( #168 ), #111 ) ;
#107 = DIRECTION ( 'NONE',  ( 0.000000000000000000, -1.000000000000000000, -0.000000000000000000 ) ) ;
#108 = ORIENTED_EDGE ( 'NONE', *, *, #288, .T. ) ;
#109 = FILL_AREA_STYLE ('',( #295 ) ) ;
#110 = CARTESIAN_POINT ( 'NONE',  ( -1.224646799147351975E-16, 7.000000000000000000, 0.000000000000000000 ) ) ;
#111 =( GEOMETRIC_REPRESENTATION_CONTEXT ( 3 ) GLOBAL_UNCERTAINTY_ASSIGNED_CONTEXT ( ( #179 ) ) GLOBAL_UNIT_ASSIGNED_CONTEXT ( ( #222, #297, #246 ) ) REPRESENTATION_CONTEXT ( 'NONE', 'WORKASPACE' ) );
#112 = VERTEX_POINT ( 'NONE', #243 ) ;
#113 =( GEOMETRIC_REPRESENTATION_CONTEXT ( 3 ) GLOBAL_UNCERTAINTY_ASSIGNED_CONTEXT ( ( #245 ) ) GLOBAL_UNIT_ASSIGNED_CONTEXT ( ( #116, #99, #227 ) ) REPRESENTATION_CONTEXT ( 'NONE', 'WORKASPACE' ) );
#114 = CARTESIAN_POINT ( 'NONE',  ( 0.000000000000000000, 4.000000000000000000, 0.000000000000000000 ) ) ;
#115 = ORIENTED_EDGE ( 'NONE', *, *, #17, .F. ) ;
#116 =( CONVERSION_BASED_UNIT ( 'INCH', #16 ) LENGTH_UNIT ( ) NAMED_UNIT ( #82 ) );
#117 = FILL_AREA_STYLE ('',( #19 ) ) ;
#118 = ADVANCED_FACE ( 'NONE', ( #244 ), #56, .T. ) ;
#119 = AXIS2_PLACEMENT_3D ( 'NONE', #240, #51, #174 ) ;
#120 = SURFACE_STYLE_FILL_AREA ( #163 ) ;
#121 = DIRECTION ( 'NONE',  ( -4.082155997157840737E-17, 1.000000000000000000, -0.000000000000000000 ) ) ;
#122 = APPLICATION_PROTOCOL_DEFINITION ( 'draft international standard', 'automotive_design', 1998, #33 ) ;
#123 = AXIS2_PLACEMENT_3D ( 'NONE', #141, #78, #212 ) ;
#124 = LINE ( 'NONE', #125, #80 ) ;
#125 = CARTESIAN_POINT ( 'NONE',  ( 0.3749999999999999445, 7.000000000000000000, 4.592425496802576068E-17 ) ) ;
#126 = UNCERTAINTY_MEASURE_WITH_UNIT (LENGTH_MEASURE( 1.000000000000000082E-05 ), #150, 'distance_accuracy_value', 'NONE');
#127 =( CONVERSION_BASED_UNIT ( 'INCH', #236 ) LENGTH_UNIT ( ) NAMED_UNIT ( #290 ) );
#128 = SURFACE_SIDE_STYLE ('',( #151 ) ) ;
#129 = EDGE_CURVE ( 'NONE', #278, #61, #157, .T. ) ;
#130 = AXIS2_PLACEMENT_3D ( 'NONE', #216, #149, #29 ) ;
#131 = LINE ( 'NONE', #277, #23 ) ;
#132 = CARTESIAN_POINT ( 'NONE',  ( 0.000000000000000000, 0.000000000000000000, 0.000000000000000000 ) ) ;
#133 = ORIENTED_EDGE ( 'NONE', *, *, #39, .F. ) ;
#134 =( CONVERSION_BASED_UNIT ( 'INCH', #62 ) LENGTH_UNIT ( ) NAMED_UNIT ( #180 ) );
#135 = SURFACE_SIDE_STYLE ('',( #139 ) ) ;
#136 = PLANE ( 'NONE',  #189 ) ;
#137 = AXIS2_PLACEMENT_3D ( 'NONE', #196, #121, #176 ) ;
#138 = AXIS2_PLACEMENT_3D ( 'NONE', #26, #219, #101 ) ;
#139 = SURFACE_STYLE_FILL_AREA ( #117 ) ;
#140 = ORIENTED_EDGE ( 'NONE', *, *, #52, .F. ) ;
#141 = CARTESIAN_POINT ( 'NONE',  ( 0.000000000000000000, 4.000000000000000000, 0.000000000000000000 ) ) ;
#142 = PRESENTATION_STYLE_ASSIGNMENT (( #192 ) ) ;
#143 = EDGE_CURVE ( 'NONE', #112, #298, #131, .T. ) ;
#144 =( LENGTH_UNIT ( ) NAMED_UNIT ( * ) SI_UNIT ( $, .METRE. ) );
#145 = PRESENTATION_LAYER_ASSIGNMENT (  '', '', ( #276 ) ) ;
#146 = ADVANCED_BREP_SHAPE_REPRESENTATION ( '00705', ( #167, #268, #119 ), #11 ) ;
#147 =( NAMED_UNIT ( * ) PLANE_ANGLE_UNIT ( ) SI_UNIT ( $, .RADIAN. ) );
#148 = AXIS2_PLACEMENT_3D ( 'NONE', #267, #307, #210 ) ;
#149 = DIRECTION ( 'NONE',  ( -4.082155997157840737E-17, 1.000000000000000000, -0.000000000000000000 ) ) ;
#150 =( CONVERSION_BASED_UNIT ( 'INCH', #98 ) LENGTH_UNIT ( ) NAMED_UNIT ( #75 ) );
#151 = SURFACE_STYLE_FILL_AREA ( #28 ) ;
#152 = FACE_OUTER_BOUND ( 'NONE', #166, .T. ) ;
#153 = PRODUCT_RELATED_PRODUCT_CATEGORY ( 'part', '', ( #30 ) ) ;
#154 = DIRECTION ( 'NONE',  ( 0.000000000000000000, 0.000000000000000000, -1.000000000000000000 ) ) ;
#155 = AXIS2_PLACEMENT_3D ( 'NONE', #289, #77, #76 ) ;
#156 = CARTESIAN_POINT ( 'NONE',  ( -0.3750000000000002776, 7.000000000000000000, 0.000000000000000000 ) ) ;
#157 = LINE ( 'NONE', #86, #291 ) ;
#158 = EDGE_LOOP ( 'NONE', ( #140, #208, #88, #35 ) ) ;
#159 = SURFACE_SIDE_STYLE ('',( #105 ) ) ;
#160 = AXIS2_PLACEMENT_3D ( 'NONE', #132, #299, #60 ) ;
#161 = PRODUCT_DEFINITION_FORMATION_WITH_SPECIFIED_SOURCE ( 'ANY', '', #30, .NOT_KNOWN. ) ;
#162 = ORIENTED_EDGE ( 'NONE', *, *, #129, .F. ) ;
#163 = FILL_AREA_STYLE ('',( #93 ) ) ;
#164 = ADVANCED_FACE ( 'NONE', ( #271 ), #185, .T. ) ;
#165 = CARTESIAN_POINT ( 'NONE',  ( 0.000000000000000000, 4.000000000000000000, 0.000000000000000000 ) ) ;
#166 = EDGE_LOOP ( 'NONE', ( #15, #190 ) ) ;
#167 = MANIFOLD_SOLID_BREP ( 'Revolve - Cutting Edge', #262 ) ;
#168 = STYLED_ITEM ( 'NONE', ( #89 ), #118 ) ;
#169 = AXIS2_PLACEMENT_3D ( 'NONE', #165, #69, #279 ) ;
#170 = DIRECTION ( 'NONE',  ( -1.000000000000000000, 0.000000000000000000, 0.000000000000000000 ) ) ;
#171 = SURFACE_STYLE_USAGE ( .BOTH. , #24 ) ;
#172 = STYLED_ITEM ( 'NONE', ( #218 ), #58 ) ;
#173 = CIRCLE ( 'NONE', #169, 0.3750000000000000555 ) ;
#174 = DIRECTION ( 'NONE',  ( 1.000000000000000000, 0.000000000000000000, 0.000000000000000000 ) ) ;
#175 = DIMENSIONAL_EXPONENTS ( 1.000000000000000000, 0.000000000000000000, 0.000000000000000000, 0.000000000000000000, 0.000000000000000000, 0.000000000000000000, 0.000000000000000000 ) ;
#176 = DIRECTION ( 'NONE',  ( -1.000000000000000000, 0.000000000000000000, 0.000000000000000000 ) ) ;
#177 =( GEOMETRIC_REPRESENTATION_CONTEXT ( 3 ) GLOBAL_UNCERTAINTY_ASSIGNED_CONTEXT ( ( #202 ) ) GLOBAL_UNIT_ASSIGNED_CONTEXT ( ( #41, #303, #207 ) ) REPRESENTATION_CONTEXT ( 'NONE', 'WORKASPACE' ) );
#178 = FILL_AREA_STYLE_COLOUR ( '', #10 ) ;
#179 = UNCERTAINTY_MEASURE_WITH_UNIT (LENGTH_MEASURE( 1.000000000000000082E-05 ), #222, 'distance_accuracy_value', 'NONE');
#180 = DIMENSIONAL_EXPONENTS ( 1.000000000000000000, 0.000000000000000000, 0.000000000000000000, 0.000000000000000000, 0.000000000000000000, 0.000000000000000000, 0.000000000000000000 ) ;
#181 = FILL_AREA_STYLE ('',( #32 ) ) ;
#182 = LENGTH_MEASURE_WITH_UNIT ( LENGTH_MEASURE( 0.02539999999999999897 ), #34 );
#183 = PRESENTATION_STYLE_ASSIGNMENT (( #59 ) ) ;
#184 = ORIENTED_EDGE ( 'NONE', *, *, #200, .F. ) ;
#185 = PLANE ( 'NONE',  #197 ) ;
#186 = ORIENTED_EDGE ( 'NONE', *, *, #129, .T. ) ;
#187 = EDGE_CURVE ( 'NONE', #112, #281, #173, .T. ) ;
#188 = PRESENTATION_LAYER_ASSIGNMENT (  '', '', ( #64 ) ) ;
#189 = AXIS2_PLACEMENT_3D ( 'NONE', #285, #229, #44 ) ;
#190 = ORIENTED_EDGE ( 'NONE', *, *, #48, .T. ) ;
#191 = DIRECTION ( 'NONE',  ( 0.000000000000000000, -0.000000000000000000, 1.000000000000000000 ) ) ;
#192 = SURFACE_STYLE_USAGE ( .BOTH. , #135 ) ;
#193 = ORIENTED_EDGE ( 'NONE', *, *, #187, .T. ) ;
#194 =( LENGTH_UNIT ( ) NAMED_UNIT ( * ) SI_UNIT ( $, .METRE. ) );
#195 = DIRECTION ( 'NONE',  ( -0.000000000000000000, -1.000000000000000000, -0.000000000000000000 ) ) ;
#196 = CARTESIAN_POINT ( 'NONE',  ( -1.224646799147351975E-16, 7.000000000000000000, 0.000000000000000000 ) ) ;
#197 = AXIS2_PLACEMENT_3D ( 'NONE', #114, #1, #191 ) ;
#198 = FACE_OUTER_BOUND ( 'NONE', #273, .T. ) ;
#199 =( CONVERSION_BASED_UNIT ( 'INCH', #309 ) LENGTH_UNIT ( ) NAMED_UNIT ( #175 ) );
#200 = EDGE_CURVE ( 'NONE', #298, #251, #31, .T. ) ;
#201 =( NAMED_UNIT ( * ) PLANE_ANGLE_UNIT ( ) SI_UNIT ( $, .RADIAN. ) );
#202 = UNCERTAINTY_MEASURE_WITH_UNIT (LENGTH_MEASURE( 1.000000000000000082E-05 ), #41, 'distance_accuracy_value', 'NONE');
#203 =( GEOMETRIC_REPRESENTATION_CONTEXT ( 3 ) GLOBAL_UNCERTAINTY_ASSIGNED_CONTEXT ( ( #50 ) ) GLOBAL_UNIT_ASSIGNED_CONTEXT ( ( #134, #221, #301 ) ) REPRESENTATION_CONTEXT ( 'NONE', 'WORKASPACE' ) );
#204 = ORIENTED_EDGE ( 'NONE', *, *, #293, .F. ) ;
#205 = AXIS2_PLACEMENT_3D ( 'NONE', #67, #195, #255 ) ;
#206 = EDGE_LOOP ( 'NONE', ( #193, #92, #184, #225 ) ) ;
#207 =( NAMED_UNIT ( * ) SI_UNIT ( $, .STERADIAN. ) SOLID_ANGLE_UNIT ( ) );
#208 = ORIENTED_EDGE ( 'NONE', *, *, #39, .T. ) ;
#209 = AXIS2_PLACEMENT_3D ( 'NONE', #286, #235, #265 ) ;
#210 = DIRECTION ( 'NONE',  ( 0.000000000000000000, 0.000000000000000000, -1.000000000000000000 ) ) ;
#211 = PRESENTATION_LAYER_ASSIGNMENT (  '', '', ( #263 ) ) ;
#212 = DIRECTION ( 'NONE',  ( 0.000000000000000000, 0.000000000000000000, -1.000000000000000000 ) ) ;
#213 = EDGE_CURVE ( 'NONE', #61, #300, #74, .T. ) ;
#214 = CARTESIAN_POINT ( 'NONE',  ( 4.592425496802575451E-17, 4.000000000000000000, 0.3750000000000000555 ) ) ;
#215 = MECHANICAL_DESIGN_GEOMETRIC_PRESENTATION_REPRESENTATION (  '', ( #172 ), #95 ) ;
#216 = CARTESIAN_POINT ( 'NONE',  ( 1.516480271171051896E-32, 4.000000000000000000, 0.000000000000000000 ) ) ;
#217 = PRODUCT_CONTEXT ( 'NONE', #21, 'mechanical' ) ;
#218 = PRESENTATION_STYLE_ASSIGNMENT (( #2 ) ) ;
#219 = DIRECTION ( 'NONE',  ( -4.082155997157840737E-17, 1.000000000000000000, -0.000000000000000000 ) ) ;
#220 = PRESENTATION_STYLE_ASSIGNMENT (( #171 ) ) ;
#221 =( NAMED_UNIT ( * ) PLANE_ANGLE_UNIT ( ) SI_UNIT ( $, .RADIAN. ) );
#222 =( CONVERSION_BASED_UNIT ( 'INCH', #182 ) LENGTH_UNIT ( ) NAMED_UNIT ( #102 ) );
#223 = COLOUR_RGB ( '',0.7921568627450980005, 0.8196078431372548767, 0.9333333333333333481 ) ;
#224 = EDGE_CURVE ( 'NONE', #254, #278, #96, .T. ) ;
#225 = ORIENTED_EDGE ( 'NONE', *, *, #143, .F. ) ;
#226 = EDGE_LOOP ( 'NONE', ( #90, #257 ) ) ;
#227 =( NAMED_UNIT ( * ) SI_UNIT ( $, .STERADIAN. ) SOLID_ANGLE_UNIT ( ) );
#228 = ADVANCED_FACE ( 'NONE', ( #42 ), #136, .F. ) ;
#229 = DIRECTION ( 'NONE',  ( 4.082155997157840737E-17, -1.000000000000000000, 0.000000000000000000 ) ) ;
#230 = MECHANICAL_DESIGN_GEOMETRIC_PRESENTATION_REPRESENTATION (  '', ( #263 ), #113 ) ;
#231 = ORIENTED_EDGE ( 'NONE', *, *, #187, .F. ) ;
#232 = ORIENTED_EDGE ( 'NONE', *, *, #224, .F. ) ;
#233 = SURFACE_STYLE_USAGE ( .BOTH. , #280 ) ;
#234 = COLOUR_RGB ( '',1.000000000000000000, 0.000000000000000000, 0.000000000000000000 ) ;
#235 = DIRECTION ( 'NONE',  ( -0.000000000000000000, -1.000000000000000000, -0.000000000000000000 ) ) ;
#236 = LENGTH_MEASURE_WITH_UNIT ( LENGTH_MEASURE( 0.02539999999999999897 ), #49 );
#237 = UNCERTAINTY_MEASURE_WITH_UNIT (LENGTH_MEASURE( 1.000000000000000082E-05 ), #127, 'distance_accuracy_value', 'NONE');
#238 = PRESENTATION_LAYER_ASSIGNMENT (  '', '', ( #172 ) ) ;
#239 = LINE ( 'NONE', #70, #4 ) ;
#240 = CARTESIAN_POINT ( 'NONE',  ( 0.000000000000000000, 0.000000000000000000, 0.000000000000000000 ) ) ;
#241 =( LENGTH_UNIT ( ) NAMED_UNIT ( * ) SI_UNIT ( $, .METRE. ) );
#242 = UNCERTAINTY_MEASURE_WITH_UNIT (LENGTH_MEASURE( 1.000000000000000082E-05 ), #199, 'distance_accuracy_value', 'NONE');
#243 = CARTESIAN_POINT ( 'NONE',  ( 0.000000000000000000, 4.000000000000000000, -0.3750000000000000555 ) ) ;
#244 = FACE_OUTER_BOUND ( 'NONE', #158, .T. ) ;
#245 = UNCERTAINTY_MEASURE_WITH_UNIT (LENGTH_MEASURE( 1.000000000000000082E-05 ), #116, 'distance_accuracy_value', 'NONE');
#246 =( NAMED_UNIT ( * ) SI_UNIT ( $, .STERADIAN. ) SOLID_ANGLE_UNIT ( ) );
#247 = EDGE_LOOP ( 'NONE', ( #231, #133 ) ) ;
#248 = CIRCLE ( 'NONE', #148, 0.3750000000000000555 ) ;
#249 = SURFACE_STYLE_USAGE ( .BOTH. , #159 ) ;
#250 = CIRCLE ( 'NONE', #130, 0.3750000000000000555 ) ;
#251 = VERTEX_POINT ( 'NONE', #14 ) ;
#252 = CARTESIAN_POINT ( 'NONE',  ( 1.516480271171051896E-32, 4.000000000000000000, 0.000000000000000000 ) ) ;
#253 = EDGE_LOOP ( 'NONE', ( #87, #63, #186, #115 ) ) ;
#254 = VERTEX_POINT ( 'NONE', #258 ) ;
#255 = DIRECTION ( 'NONE',  ( 0.000000000000000000, 0.000000000000000000, -1.000000000000000000 ) ) ;
#256 = CIRCLE ( 'NONE', #137, 0.3750000000000001665 ) ;
#257 = ORIENTED_EDGE ( 'NONE', *, *, #17, .T. ) ;
#258 = CARTESIAN_POINT ( 'NONE',  ( 0.3750000000000000555, 4.000000000000000000, 4.592425496802576684E-17 ) ) ;
#259 = DIRECTION ( 'NONE',  ( -4.082155997157840737E-17, 1.000000000000000000, -0.000000000000000000 ) ) ;
#260 = DIRECTION ( 'NONE',  ( -4.082155997157840737E-17, 1.000000000000000000, -0.000000000000000000 ) ) ;
#261 = APPLICATION_PROTOCOL_DEFINITION ( 'draft international standard', 'automotive_design', 1998, #21 ) ;
#262 = CLOSED_SHELL ( 'NONE', ( #13, #164, #118, #58 ) ) ;
#263 = STYLED_ITEM ( 'NONE', ( #142 ), #268 ) ;
#264 = DIRECTION ( 'NONE',  ( -4.082155997157840737E-17, 1.000000000000000000, -0.000000000000000000 ) ) ;
#265 = DIRECTION ( 'NONE',  ( 0.000000000000000000, 0.000000000000000000, -1.000000000000000000 ) ) ;
#266 = STYLED_ITEM ( 'NONE', ( #308 ), #167 ) ;
#267 = CARTESIAN_POINT ( 'NONE',  ( 0.000000000000000000, 0.000000000000000000, 0.000000000000000000 ) ) ;
#268 = MANIFOLD_SOLID_BREP ( 'Revolve - Tool Body (Straight Shanked)', #47 ) ;
#269 = DIRECTION ( 'NONE',  ( -1.000000000000000000, 0.000000000000000000, 0.000000000000000000 ) ) ;
#270 = AXIS2_PLACEMENT_3D ( 'NONE', #302, #260, #269 ) ;
#271 = FACE_OUTER_BOUND ( 'NONE', #247, .T. ) ;
#272 = ADVANCED_FACE ( 'NONE', ( #287 ), #305, .T. ) ;
#273 = EDGE_LOOP ( 'NONE', ( #204, #232 ) ) ;
#274 = SURFACE_STYLE_FILL_AREA ( #109 ) ;
#275 = EDGE_LOOP ( 'NONE', ( #304, #108, #306, #162 ) ) ;
#276 = STYLED_ITEM ( 'NONE', ( #183 ), #164 ) ;
#277 = CARTESIAN_POINT ( 'NONE',  ( 0.000000000000000000, 0.000000000000000000, -0.3750000000000000555 ) ) ;
#278 = VERTEX_POINT ( 'NONE', #46 ) ;
#279 = DIRECTION ( 'NONE',  ( 0.000000000000000000, 0.000000000000000000, -1.000000000000000000 ) ) ;
#280 = SURFACE_SIDE_STYLE ('',( #120 ) ) ;
#281 = VERTEX_POINT ( 'NONE', #214 ) ;
#282 = LENGTH_MEASURE_WITH_UNIT ( LENGTH_MEASURE( 0.02539999999999999897 ), #43 );
#283 = COLOUR_RGB ( '',1.000000000000000000, 0.000000000000000000, 0.000000000000000000 ) ;
#284 =( NAMED_UNIT ( * ) SI_UNIT ( $, .STERADIAN. ) SOLID_ANGLE_UNIT ( ) );
#285 = CARTESIAN_POINT ( 'NONE',  ( 0.3750000000000000555, 7.000000000000000000, 0.000000000000000000 ) ) ;
#286 = CARTESIAN_POINT ( 'NONE',  ( 0.000000000000000000, 0.000000000000000000, 0.000000000000000000 ) ) ;
#287 = FACE_OUTER_BOUND ( 'NONE', #275, .T. ) ;
#288 = EDGE_CURVE ( 'NONE', #254, #300, #124, .T. ) ;
#289 = CARTESIAN_POINT ( 'NONE',  ( 3.124499547212198646E-34, 4.000000000000000000, 0.000000000000000000 ) ) ;
#290 = DIMENSIONAL_EXPONENTS ( 1.000000000000000000, 0.000000000000000000, 0.000000000000000000, 0.000000000000000000, 0.000000000000000000, 0.000000000000000000, 0.000000000000000000 ) ;
#291 = VECTOR ( 'NONE', #38, 39.37007874015748143 ) ;
#292 = PRESENTATION_LAYER_ASSIGNMENT (  '', '', ( #266 ) ) ;
#293 = EDGE_CURVE ( 'NONE', #278, #254, #250, .T. ) ;
#294 = PRODUCT_DEFINITION ( 'UNKNOWN', '', #161, #27 ) ;
#295 = FILL_AREA_STYLE_COLOUR ( '', #104 ) ;
#296 = ADVANCED_FACE ( 'NONE', ( #198 ), #7, .F. ) ;
#297 =( NAMED_UNIT ( * ) PLANE_ANGLE_UNIT ( ) SI_UNIT ( $, .RADIAN. ) );
#298 = VERTEX_POINT ( 'NONE', #6 ) ;
#299 = DIRECTION ( 'NONE',  ( -0.000000000000000000, -1.000000000000000000, -0.000000000000000000 ) ) ;
#300 = VERTEX_POINT ( 'NONE', #103 ) ;
#301 =( NAMED_UNIT ( * ) SI_UNIT ( $, .STERADIAN. ) SOLID_ANGLE_UNIT ( ) );
#302 = CARTESIAN_POINT ( 'NONE',  ( -1.224646799147351975E-16, 7.000000000000000000, 0.000000000000000000 ) ) ;
#303 =( NAMED_UNIT ( * ) PLANE_ANGLE_UNIT ( ) SI_UNIT ( $, .RADIAN. ) );
#304 = ORIENTED_EDGE ( 'NONE', *, *, #293, .T. ) ;
#305 = CYLINDRICAL_SURFACE ( 'NONE', #138, 0.3750000000000001110 ) ;
#306 = ORIENTED_EDGE ( 'NONE', *, *, #213, .F. ) ;
#307 = DIRECTION ( 'NONE',  ( -0.000000000000000000, -1.000000000000000000, -0.000000000000000000 ) ) ;
#308 = PRESENTATION_STYLE_ASSIGNMENT (( #233 ) ) ;
#309 = LENGTH_MEASURE_WITH_UNIT ( LENGTH_MEASURE( 0.02539999999999999897 ), #194 );
ENDSEC;
END-ISO-10303-21;
