ISO-10303-21;
HEADER;
FILE_DESCRIPTION (( 'STEP AP214' ),
    '1' );
FILE_NAME ('Micro_RNC-250-2.STEP',
    '2021-09-03T17:35:49',
    ( '' ),
    ( '' ),
    'SwSTEP 2.0',
    'SolidWorks 2020',
    '' );
FILE_SCHEMA (( 'AUTOMOTIVE_DESIGN' ));
ENDSEC;

DATA;
#1 = CARTESIAN_POINT ( 'NONE',  ( 0.0000000000000000000, 0.0000000000000000000, 0.0000000000000000000 ) ) ;
#2 = AXIS2_PLACEMENT_3D ( 'NONE', #99, #9, #151 ) ;
#3 = MANIFOLD_SOLID_BREP ( 'Mirror1', #120 ) ;
#4 = DIRECTION ( 'NONE',  ( 0.0000000000000000000, 0.0000000000000000000, 1.000000000000000000 ) ) ;
#5 = EDGE_CURVE ( 'NONE', #24, #11, #126, .T. ) ;
#6 = CYLINDRICAL_SURFACE ( 'NONE', #109, 0.1250000000000000000 ) ;
#7 = PRESENTATION_LAYER_ASSIGNMENT (  '', '', ( #17 ) ) ;
#8 = CARTESIAN_POINT ( 'NONE',  ( 0.1250000000000000000, 1.530808498934191509E-17, 2.379000000000000448 ) ) ;
#9 = DIRECTION ( 'NONE',  ( -0.0000000000000000000, -0.0000000000000000000, -1.000000000000000000 ) ) ;
#10 = APPLICATION_CONTEXT ( 'automotive_design' ) ;
#11 = VERTEX_POINT ( 'NONE', #128 ) ;
#12 = LENGTH_MEASURE_WITH_UNIT ( LENGTH_MEASURE( 0.02539999999999999897 ), #173 );
#13 = CIRCLE ( 'NONE', #47, 0.003999999999999999216 ) ;
#14 = AXIS2_PLACEMENT_3D ( 'NONE', #75, #148, #147 ) ;
#15 =( LENGTH_UNIT ( ) NAMED_UNIT ( * ) SI_UNIT ( $, .METRE. ) );
#16 = CARTESIAN_POINT ( 'NONE',  ( 0.0000000000000000000, 0.0000000000000000000, 0.1209999999999995107 ) ) ;
#17 = STYLED_ITEM ( 'NONE', ( #227 ), #52 ) ;
#18 = CARTESIAN_POINT ( 'NONE',  ( 0.0000000000000000000, 0.0000000000000000000, 2.500000000000000000 ) ) ;
#19 = PRODUCT_DEFINITION ( 'UNKNOWN', '', #162, #232 ) ;
#20 = ORIENTED_EDGE ( 'NONE', *, *, #70, .F. ) ;
#21 = PRESENTATION_LAYER_ASSIGNMENT (  '', '', ( #42 ) ) ;
#22 = EDGE_LOOP ( 'NONE', ( #216, #103, #164, #229 ) ) ;
#23 = CONICAL_SURFACE ( 'NONE', #14, 0.003999999999999999216, 0.7853981633974503884 ) ;
#24 = VERTEX_POINT ( 'NONE', #35 ) ;
#25 =( NAMED_UNIT ( * ) PLANE_ANGLE_UNIT ( ) SI_UNIT ( $, .RADIAN. ) );
#26 = AXIS2_PLACEMENT_3D ( 'NONE', #140, #135, #139 ) ;
#27 = FILL_AREA_STYLE_COLOUR ( '', #95 ) ;
#28 = EDGE_CURVE ( 'NONE', #177, #61, #13, .T. ) ;
#29 = DIRECTION ( 'NONE',  ( 1.000000000000000000, 0.0000000000000000000, 0.0000000000000000000 ) ) ;
#30 = LINE ( 'NONE', #181, #214 ) ;
#31 = EDGE_CURVE ( 'NONE', #78, #156, #196, .T. ) ;
#32 = CIRCLE ( 'NONE', #72, 0.1250000000000000000 ) ;
#33 = LINE ( 'NONE', #184, #152 ) ;
#34 = ORIENTED_EDGE ( 'NONE', *, *, #5, .F. ) ;
#35 = CARTESIAN_POINT ( 'NONE',  ( -0.1250000000000000000, 0.0000000000000000000, 0.1209999999999995107 ) ) ;
#36 = CARTESIAN_POINT ( 'NONE',  ( 0.0000000000000000000, 0.0000000000000000000, 2.500000000000000000 ) ) ;
#37 = PRODUCT_DEFINITION_SHAPE ( 'NONE', 'NONE',  #19 ) ;
#38 = ORIENTED_EDGE ( 'NONE', *, *, #5, .T. ) ;
#39 = DIRECTION ( 'NONE',  ( 0.0000000000000000000, 0.0000000000000000000, 1.000000000000000000 ) ) ;
#40 = FACE_OUTER_BOUND ( 'NONE', #137, .T. ) ;
#41 = CARTESIAN_POINT ( 'NONE',  ( 0.0000000000000000000, 0.0000000000000000000, 2.379000000000000448 ) ) ;
#42 = STYLED_ITEM ( 'NONE', ( #45 ), #3 ) ;
#43 = AXIS2_PLACEMENT_3D ( 'NONE', #186, #39, #59 ) ;
#44 = DIRECTION ( 'NONE',  ( 0.0000000000000000000, 0.0000000000000000000, 1.000000000000000000 ) ) ;
#45 = PRESENTATION_STYLE_ASSIGNMENT (( #86 ) ) ;
#46 = VECTOR ( 'NONE', #208, 39.37007874015748143 ) ;
#47 = AXIS2_PLACEMENT_3D ( 'NONE', #204, #203, #153 ) ;
#48 = DIRECTION ( 'NONE',  ( 0.0000000000000000000, 0.0000000000000000000, 1.000000000000000000 ) ) ;
#49 = UNCERTAINTY_MEASURE_WITH_UNIT (LENGTH_MEASURE( 1.000000000000000082E-05 ), #100, 'distance_accuracy_value', 'NONE');
#50 = DIRECTION ( 'NONE',  ( -0.0000000000000000000, -0.0000000000000000000, -1.000000000000000000 ) ) ;
#51 = DIRECTION ( 'NONE',  ( -0.7071067811865490160, -8.659560562354951347E-17, -0.7071067811865460184 ) ) ;
#52 = ADVANCED_BREP_SHAPE_REPRESENTATION ( 'Micro_RNC-250-2', ( #3, #127 ), #60 ) ;
#53 = CARTESIAN_POINT ( 'NONE',  ( 0.0000000000000000000, 0.0000000000000000000, 0.0000000000000000000 ) ) ;
#54 = FACE_OUTER_BOUND ( 'NONE', #119, .T. ) ;
#55 = PRODUCT_RELATED_PRODUCT_CATEGORY ( 'part', '', ( #129 ) ) ;
#56 = CARTESIAN_POINT ( 'NONE',  ( 0.003999999999999999216, 0.0000000000000000000, 2.500000000000000000 ) ) ;
#57 = ORIENTED_EDGE ( 'NONE', *, *, #235, .T. ) ;
#58 = ORIENTED_EDGE ( 'NONE', *, *, #211, .F. ) ;
#59 = DIRECTION ( 'NONE',  ( 1.000000000000000000, 0.0000000000000000000, -0.0000000000000000000 ) ) ;
#60 =( GEOMETRIC_REPRESENTATION_CONTEXT ( 3 ) GLOBAL_UNCERTAINTY_ASSIGNED_CONTEXT ( ( #49 ) ) GLOBAL_UNIT_ASSIGNED_CONTEXT ( ( #100, #82, #189 ) ) REPRESENTATION_CONTEXT ( 'NONE', 'WORKASPACE' ) );
#61 = VERTEX_POINT ( 'NONE', #206 ) ;
#62 = DIRECTION ( 'NONE',  ( 0.7071067811865490160, 0.0000000000000000000, -0.7071067811865460184 ) ) ;
#63 = DIRECTION ( 'NONE',  ( 1.000000000000000000, 0.0000000000000000000, -0.0000000000000000000 ) ) ;
#64 = FACE_OUTER_BOUND ( 'NONE', #22, .T. ) ;
#65 = MECHANICAL_DESIGN_GEOMETRIC_PRESENTATION_REPRESENTATION (  '', ( #17 ), #96 ) ;
#66 = PRODUCT_CONTEXT ( 'NONE', #195, 'mechanical' ) ;
#67 = ADVANCED_FACE ( 'NONE', ( #54 ), #182, .T. ) ;
#68 = ORIENTED_EDGE ( 'NONE', *, *, #85, .T. ) ;
#69 = DIRECTION ( 'NONE',  ( 1.000000000000000000, 0.0000000000000000000, 0.0000000000000000000 ) ) ;
#70 = EDGE_CURVE ( 'NONE', #61, #177, #249, .T. ) ;
#71 = FACE_OUTER_BOUND ( 'NONE', #224, .T. ) ;
#72 = AXIS2_PLACEMENT_3D ( 'NONE', #16, #81, #174 ) ;
#73 = LINE ( 'NONE', #243, #141 ) ;
#74 = DIRECTION ( 'NONE',  ( 1.000000000000000000, 0.0000000000000000000, 0.0000000000000000000 ) ) ;
#75 = CARTESIAN_POINT ( 'NONE',  ( 0.0000000000000000000, 0.0000000000000000000, 2.500000000000000000 ) ) ;
#76 = AXIS2_PLACEMENT_3D ( 'NONE', #219, #91, #111 ) ;
#77 = CARTESIAN_POINT ( 'NONE',  ( 0.003999999999999999216, 0.0000000000000000000, 2.500000000000000000 ) ) ;
#78 = VERTEX_POINT ( 'NONE', #167 ) ;
#79 = LINE ( 'NONE', #159, #236 ) ;
#80 = ADVANCED_FACE ( 'NONE', ( #133 ), #94, .T. ) ;
#81 = DIRECTION ( 'NONE',  ( -0.0000000000000000000, -0.0000000000000000000, -1.000000000000000000 ) ) ;
#82 =( NAMED_UNIT ( * ) PLANE_ANGLE_UNIT ( ) SI_UNIT ( $, .RADIAN. ) );
#83 = AXIS2_PLACEMENT_3D ( 'NONE', #240, #50, #93 ) ;
#84 = ORIENTED_EDGE ( 'NONE', *, *, #202, .F. ) ;
#85 = EDGE_CURVE ( 'NONE', #61, #24, #73, .T. ) ;
#86 = SURFACE_STYLE_USAGE ( .BOTH. , #175 ) ;
#87 = AXIS2_PLACEMENT_3D ( 'NONE', #53, #48, #29 ) ;
#88 = UNCERTAINTY_MEASURE_WITH_UNIT (LENGTH_MEASURE( 1.000000000000000082E-05 ), #215, 'distance_accuracy_value', 'NONE');
#89 = VERTEX_POINT ( 'NONE', #77 ) ;
#90 = EDGE_CURVE ( 'NONE', #78, #24, #130, .T. ) ;
#91 = DIRECTION ( 'NONE',  ( 0.0000000000000000000, 0.0000000000000000000, -1.000000000000000000 ) ) ;
#92 = CONICAL_SURFACE ( 'NONE', #187, 0.003999999999999999216, 0.7853981633974503884 ) ;
#93 = DIRECTION ( 'NONE',  ( -1.000000000000000000, 0.0000000000000000000, 0.0000000000000000000 ) ) ;
#94 = CYLINDRICAL_SURFACE ( 'NONE', #231, 0.1250000000000000000 ) ;
#95 = COLOUR_RGB ( '',0.7921568627450980005, 0.8196078431372548767, 0.9333333333333333481 ) ;
#96 =( GEOMETRIC_REPRESENTATION_CONTEXT ( 3 ) GLOBAL_UNCERTAINTY_ASSIGNED_CONTEXT ( ( #104 ) ) GLOBAL_UNIT_ASSIGNED_CONTEXT ( ( #191, #25, #178 ) ) REPRESENTATION_CONTEXT ( 'NONE', 'WORKASPACE' ) );
#97 = PLANE ( 'NONE',  #43 ) ;
#98 = CIRCLE ( 'NONE', #197, 0.1250000000000000000 ) ;
#99 = CARTESIAN_POINT ( 'NONE',  ( 0.0000000000000000000, 0.0000000000000000000, 0.1209999999999995107 ) ) ;
#100 =( CONVERSION_BASED_UNIT ( 'INCH', #12 ) LENGTH_UNIT ( ) NAMED_UNIT ( #242 ) );
#101 = ORIENTED_EDGE ( 'NONE', *, *, #235, .F. ) ;
#102 =( NAMED_UNIT ( * ) SI_UNIT ( $, .STERADIAN. ) SOLID_ANGLE_UNIT ( ) );
#103 = ORIENTED_EDGE ( 'NONE', *, *, #112, .T. ) ;
#104 = UNCERTAINTY_MEASURE_WITH_UNIT (LENGTH_MEASURE( 1.000000000000000082E-05 ), #191, 'distance_accuracy_value', 'NONE');
#105 = AXIS2_PLACEMENT_3D ( 'NONE', #194, #44, #63 ) ;
#106 = FILL_AREA_STYLE ('',( #27 ) ) ;
#107 = FACE_OUTER_BOUND ( 'NONE', #200, .T. ) ;
#108 = DIRECTION ( 'NONE',  ( -1.000000000000000000, 0.0000000000000000000, 0.0000000000000000000 ) ) ;
#109 = AXIS2_PLACEMENT_3D ( 'NONE', #239, #169, #220 ) ;
#110 = DIMENSIONAL_EXPONENTS ( 1.000000000000000000, 0.0000000000000000000, 0.0000000000000000000, 0.0000000000000000000, 0.0000000000000000000, 0.0000000000000000000, 0.0000000000000000000 ) ;
#111 = DIRECTION ( 'NONE',  ( -1.000000000000000000, 0.0000000000000000000, 0.0000000000000000000 ) ) ;
#112 = EDGE_CURVE ( 'NONE', #125, #89, #145, .T. ) ;
#113 = DIRECTION ( 'NONE',  ( 0.0000000000000000000, 0.0000000000000000000, -1.000000000000000000 ) ) ;
#114 = DIRECTION ( 'NONE',  ( 0.7071067811865490160, 0.0000000000000000000, 0.7071067811865460184 ) ) ;
#115 = ORIENTED_EDGE ( 'NONE', *, *, #211, .T. ) ;
#116 = ORIENTED_EDGE ( 'NONE', *, *, #28, .F. ) ;
#117 = FILL_AREA_STYLE ('',( #245 ) ) ;
#118 = ORIENTED_EDGE ( 'NONE', *, *, #70, .T. ) ;
#119 = EDGE_LOOP ( 'NONE', ( #234, #116, #115, #57 ) ) ;
#120 = CLOSED_SHELL ( 'NONE', ( #149, #170, #80, #179, #67, #226, #237, #233 ) ) ;
#121 = LINE ( 'NONE', #56, #131 ) ;
#122 =( NAMED_UNIT ( * ) PLANE_ANGLE_UNIT ( ) SI_UNIT ( $, .RADIAN. ) );
#123 = CIRCLE ( 'NONE', #26, 0.003999999999999999216 ) ;
#124 = SHAPE_DEFINITION_REPRESENTATION ( #37, #52 ) ;
#125 = VERTEX_POINT ( 'NONE', #166 ) ;
#126 = CIRCLE ( 'NONE', #2, 0.1250000000000000000 ) ;
#127 = AXIS2_PLACEMENT_3D ( 'NONE', #1, #4, #69 ) ;
#128 = CARTESIAN_POINT ( 'NONE',  ( 0.1250000000000000000, 1.530808498934191509E-17, 0.1209999999999995107 ) ) ;
#129 = PRODUCT ( 'Micro_RNC-250-2', 'Micro_RNC-250-2', '', ( #66 ) ) ;
#130 = LINE ( 'NONE', #150, #46 ) ;
#131 = VECTOR ( 'NONE', #62, 39.37007874015748143 ) ;
#132 = CARTESIAN_POINT ( 'NONE',  ( 0.003999999999999999216, 0.0000000000000000000, 0.0000000000000000000 ) ) ;
#133 = FACE_OUTER_BOUND ( 'NONE', #198, .T. ) ;
#134 = DIRECTION ( 'NONE',  ( 1.000000000000000000, 0.0000000000000000000, 0.0000000000000000000 ) ) ;
#135 = DIRECTION ( 'NONE',  ( 0.0000000000000000000, 0.0000000000000000000, -1.000000000000000000 ) ) ;
#136 = ORIENTED_EDGE ( 'NONE', *, *, #199, .T. ) ;
#137 = EDGE_LOOP ( 'NONE', ( #185, #158 ) ) ;
#138 = ORIENTED_EDGE ( 'NONE', *, *, #31, .T. ) ;
#139 = DIRECTION ( 'NONE',  ( -1.000000000000000000, 0.0000000000000000000, 0.0000000000000000000 ) ) ;
#140 = CARTESIAN_POINT ( 'NONE',  ( 0.0000000000000000000, 0.0000000000000000000, 2.500000000000000000 ) ) ;
#141 = VECTOR ( 'NONE', #201, 39.37007874015748143 ) ;
#142 = LENGTH_MEASURE_WITH_UNIT ( LENGTH_MEASURE( 0.02539999999999999897 ), #160 );
#143 = APPLICATION_PROTOCOL_DEFINITION ( 'draft international standard', 'automotive_design', 1998, #10 ) ;
#144 = ORIENTED_EDGE ( 'NONE', *, *, #209, .F. ) ;
#145 = CIRCLE ( 'NONE', #205, 0.003999999999999999216 ) ;
#146 = EDGE_LOOP ( 'NONE', ( #20, #68, #38, #58 ) ) ;
#147 = DIRECTION ( 'NONE',  ( 1.000000000000000000, 0.0000000000000000000, 0.0000000000000000000 ) ) ;
#148 = DIRECTION ( 'NONE',  ( 0.0000000000000000000, 0.0000000000000000000, -1.000000000000000000 ) ) ;
#149 = ADVANCED_FACE ( 'NONE', ( #71 ), #23, .T. ) ;
#150 = CARTESIAN_POINT ( 'NONE',  ( -0.1250000000000000000, 0.0000000000000000000, 2.500000000000000000 ) ) ;
#151 = DIRECTION ( 'NONE',  ( -1.000000000000000000, 0.0000000000000000000, 0.0000000000000000000 ) ) ;
#152 = VECTOR ( 'NONE', #157, 39.37007874015748143 ) ;
#153 = DIRECTION ( 'NONE',  ( -1.000000000000000000, 0.0000000000000000000, 0.0000000000000000000 ) ) ;
#154 = APPLICATION_PROTOCOL_DEFINITION ( 'draft international standard', 'automotive_design', 1998, #195 ) ;
#155 = FACE_OUTER_BOUND ( 'NONE', #165, .T. ) ;
#156 = VERTEX_POINT ( 'NONE', #8 ) ;
#157 = DIRECTION ( 'NONE',  ( -0.0000000000000000000, -0.0000000000000000000, -1.000000000000000000 ) ) ;
#158 = ORIENTED_EDGE ( 'NONE', *, *, #112, .F. ) ;
#159 = CARTESIAN_POINT ( 'NONE',  ( 0.003999999999999999216, 0.0000000000000000000, 0.0000000000000000000 ) ) ;
#160 =( LENGTH_UNIT ( ) NAMED_UNIT ( * ) SI_UNIT ( $, .METRE. ) );
#161 = MECHANICAL_DESIGN_GEOMETRIC_PRESENTATION_REPRESENTATION (  '', ( #42 ), #168 ) ;
#162 = PRODUCT_DEFINITION_FORMATION_WITH_SPECIFIED_SOURCE ( 'ANY', '', #129, .NOT_KNOWN. ) ;
#163 = SURFACE_STYLE_FILL_AREA ( #106 ) ;
#164 = ORIENTED_EDGE ( 'NONE', *, *, #209, .T. ) ;
#165 = EDGE_LOOP ( 'NONE', ( #188, #118 ) ) ;
#166 = CARTESIAN_POINT ( 'NONE',  ( -0.003999999999999999216, -7.898971854500427644E-18, 2.500000000000000000 ) ) ;
#167 = CARTESIAN_POINT ( 'NONE',  ( -0.1250000000000000000, 0.0000000000000000000, 2.379000000000000448 ) ) ;
#168 =( GEOMETRIC_REPRESENTATION_CONTEXT ( 3 ) GLOBAL_UNCERTAINTY_ASSIGNED_CONTEXT ( ( #88 ) ) GLOBAL_UNIT_ASSIGNED_CONTEXT ( ( #215, #122, #102 ) ) REPRESENTATION_CONTEXT ( 'NONE', 'WORKASPACE' ) );
#169 = DIRECTION ( 'NONE',  ( -0.0000000000000000000, -0.0000000000000000000, -1.000000000000000000 ) ) ;
#170 = ADVANCED_FACE ( 'NONE', ( #221 ), #193, .T. ) ;
#171 = DIRECTION ( 'NONE',  ( -0.0000000000000000000, -0.0000000000000000000, -1.000000000000000000 ) ) ;
#172 = DIRECTION ( 'NONE',  ( 0.0000000000000000000, 0.0000000000000000000, -1.000000000000000000 ) ) ;
#173 =( LENGTH_UNIT ( ) NAMED_UNIT ( * ) SI_UNIT ( $, .METRE. ) );
#174 = DIRECTION ( 'NONE',  ( -1.000000000000000000, 0.0000000000000000000, 0.0000000000000000000 ) ) ;
#175 = SURFACE_SIDE_STYLE ('',( #163 ) ) ;
#176 = AXIS2_PLACEMENT_3D ( 'NONE', #222, #180, #74 ) ;
#177 = VERTEX_POINT ( 'NONE', #132 ) ;
#178 =( NAMED_UNIT ( * ) SI_UNIT ( $, .STERADIAN. ) SOLID_ANGLE_UNIT ( ) );
#179 = ADVANCED_FACE ( 'NONE', ( #107 ), #6, .T. ) ;
#180 = DIRECTION ( 'NONE',  ( 0.0000000000000000000, 0.0000000000000000000, 1.000000000000000000 ) ) ;
#181 = CARTESIAN_POINT ( 'NONE',  ( -0.003999999999999999216, -4.898587196589411612E-19, 2.500000000000000000 ) ) ;
#182 = CONICAL_SURFACE ( 'NONE', #176, 0.003999999999999999216, 0.7853981633974503884 ) ;
#183 = DIMENSIONAL_EXPONENTS ( 1.000000000000000000, 0.0000000000000000000, 0.0000000000000000000, 0.0000000000000000000, 0.0000000000000000000, 0.0000000000000000000, 0.0000000000000000000 ) ;
#184 = CARTESIAN_POINT ( 'NONE',  ( 0.1250000000000000000, 1.530808498934191509E-17, 2.500000000000000000 ) ) ;
#185 = ORIENTED_EDGE ( 'NONE', *, *, #248, .F. ) ;
#186 = CARTESIAN_POINT ( 'NONE',  ( 0.0000000000000000000, 0.0000000000000000000, 2.500000000000000000 ) ) ;
#187 = AXIS2_PLACEMENT_3D ( 'NONE', #18, #172, #134 ) ;
#188 = ORIENTED_EDGE ( 'NONE', *, *, #28, .T. ) ;
#189 =( NAMED_UNIT ( * ) SI_UNIT ( $, .STERADIAN. ) SOLID_ANGLE_UNIT ( ) );
#190 = ORIENTED_EDGE ( 'NONE', *, *, #90, .F. ) ;
#191 =( CONVERSION_BASED_UNIT ( 'INCH', #212 ) LENGTH_UNIT ( ) NAMED_UNIT ( #183 ) );
#192 = EDGE_CURVE ( 'NONE', #125, #78, #30, .T. ) ;
#193 = CONICAL_SURFACE ( 'NONE', #87, 0.003999999999999999216, 0.7853981633974503884 ) ;
#194 = CARTESIAN_POINT ( 'NONE',  ( 0.0000000000000000000, 0.0000000000000000000, 0.0000000000000000000 ) ) ;
#195 = APPLICATION_CONTEXT ( 'automotive_design' ) ;
#196 = CIRCLE ( 'NONE', #76, 0.1250000000000000000 ) ;
#197 = AXIS2_PLACEMENT_3D ( 'NONE', #41, #225, #228 ) ;
#198 = EDGE_LOOP ( 'NONE', ( #138, #136, #34, #190 ) ) ;
#199 = EDGE_CURVE ( 'NONE', #156, #11, #33, .T. ) ;
#200 = EDGE_LOOP ( 'NONE', ( #217, #218, #246, #101 ) ) ;
#201 = DIRECTION ( 'NONE',  ( -0.7071067811865490160, 8.659560562354951347E-17, 0.7071067811865460184 ) ) ;
#202 = EDGE_CURVE ( 'NONE', #156, #78, #98, .T. ) ;
#203 = DIRECTION ( 'NONE',  ( -0.0000000000000000000, -0.0000000000000000000, -1.000000000000000000 ) ) ;
#204 = CARTESIAN_POINT ( 'NONE',  ( 0.0000000000000000000, 0.0000000000000000000, 0.0000000000000000000 ) ) ;
#205 = AXIS2_PLACEMENT_3D ( 'NONE', #36, #113, #108 ) ;
#206 = CARTESIAN_POINT ( 'NONE',  ( -0.003999999999999999216, 7.898971854500427644E-18, 0.0000000000000000000 ) ) ;
#207 = ORIENTED_EDGE ( 'NONE', *, *, #248, .T. ) ;
#208 = DIRECTION ( 'NONE',  ( -0.0000000000000000000, -0.0000000000000000000, -1.000000000000000000 ) ) ;
#209 = EDGE_CURVE ( 'NONE', #89, #156, #121, .T. ) ;
#210 = SURFACE_STYLE_USAGE ( .BOTH. , #223 ) ;
#211 = EDGE_CURVE ( 'NONE', #177, #11, #79, .T. ) ;
#212 = LENGTH_MEASURE_WITH_UNIT ( LENGTH_MEASURE( 0.02539999999999999897 ), #15 );
#213 = ORIENTED_EDGE ( 'NONE', *, *, #192, .T. ) ;
#214 = VECTOR ( 'NONE', #51, 39.37007874015748143 ) ;
#215 =( CONVERSION_BASED_UNIT ( 'INCH', #142 ) LENGTH_UNIT ( ) NAMED_UNIT ( #110 ) );
#216 = ORIENTED_EDGE ( 'NONE', *, *, #192, .F. ) ;
#217 = ORIENTED_EDGE ( 'NONE', *, *, #199, .F. ) ;
#218 = ORIENTED_EDGE ( 'NONE', *, *, #202, .T. ) ;
#219 = CARTESIAN_POINT ( 'NONE',  ( 0.0000000000000000000, 0.0000000000000000000, 2.379000000000000448 ) ) ;
#220 = DIRECTION ( 'NONE',  ( -1.000000000000000000, 0.0000000000000000000, 0.0000000000000000000 ) ) ;
#221 = FACE_OUTER_BOUND ( 'NONE', #146, .T. ) ;
#222 = CARTESIAN_POINT ( 'NONE',  ( 0.0000000000000000000, 0.0000000000000000000, 0.0000000000000000000 ) ) ;
#223 = SURFACE_SIDE_STYLE ('',( #230 ) ) ;
#224 = EDGE_LOOP ( 'NONE', ( #207, #213, #84, #144 ) ) ;
#225 = DIRECTION ( 'NONE',  ( 0.0000000000000000000, 0.0000000000000000000, -1.000000000000000000 ) ) ;
#226 = ADVANCED_FACE ( 'NONE', ( #155 ), #247, .F. ) ;
#227 = PRESENTATION_STYLE_ASSIGNMENT (( #210 ) ) ;
#228 = DIRECTION ( 'NONE',  ( -1.000000000000000000, 0.0000000000000000000, 0.0000000000000000000 ) ) ;
#229 = ORIENTED_EDGE ( 'NONE', *, *, #31, .F. ) ;
#230 = SURFACE_STYLE_FILL_AREA ( #117 ) ;
#231 = AXIS2_PLACEMENT_3D ( 'NONE', #238, #171, #241 ) ;
#232 = PRODUCT_DEFINITION_CONTEXT ( 'detailed design', #10, 'design' ) ;
#233 = ADVANCED_FACE ( 'NONE', ( #40 ), #97, .T. ) ;
#234 = ORIENTED_EDGE ( 'NONE', *, *, #85, .F. ) ;
#235 = EDGE_CURVE ( 'NONE', #11, #24, #32, .T. ) ;
#236 = VECTOR ( 'NONE', #114, 39.37007874015748143 ) ;
#237 = ADVANCED_FACE ( 'NONE', ( #64 ), #92, .T. ) ;
#238 = CARTESIAN_POINT ( 'NONE',  ( 0.0000000000000000000, 0.0000000000000000000, 2.500000000000000000 ) ) ;
#239 = CARTESIAN_POINT ( 'NONE',  ( 0.0000000000000000000, 0.0000000000000000000, 2.500000000000000000 ) ) ;
#240 = CARTESIAN_POINT ( 'NONE',  ( 0.0000000000000000000, 0.0000000000000000000, 0.0000000000000000000 ) ) ;
#241 = DIRECTION ( 'NONE',  ( -1.000000000000000000, 0.0000000000000000000, 0.0000000000000000000 ) ) ;
#242 = DIMENSIONAL_EXPONENTS ( 1.000000000000000000, 0.0000000000000000000, 0.0000000000000000000, 0.0000000000000000000, 0.0000000000000000000, 0.0000000000000000000, 0.0000000000000000000 ) ;
#243 = CARTESIAN_POINT ( 'NONE',  ( -0.003999999999999999216, 4.898587196589411612E-19, 0.0000000000000000000 ) ) ;
#244 = COLOUR_RGB ( '',0.7921568627450980005, 0.8196078431372548767, 0.9333333333333333481 ) ;
#245 = FILL_AREA_STYLE_COLOUR ( '', #244 ) ;
#246 = ORIENTED_EDGE ( 'NONE', *, *, #90, .T. ) ;
#247 = PLANE ( 'NONE',  #105 ) ;
#248 = EDGE_CURVE ( 'NONE', #89, #125, #123, .T. ) ;
#249 = CIRCLE ( 'NONE', #83, 0.003999999999999999216 ) ;
ENDSEC;
END-ISO-10303-21;
