ISO-10303-21;
HEADER;
FILE_DESCRIPTION (( 'STEP AP214' ),
    '1' );
FILE_NAME ('Micro_BMSM-025-2X.STEP',
    '2021-09-03T16:06:46',
    ( '' ),
    ( '' ),
    'SwSTEP 2.0',
    'SolidWorks 2020',
    '' );
FILE_SCHEMA (( 'AUTOMOTIVE_DESIGN' ));
ENDSEC;

DATA;
#1 = ORIENTED_EDGE ( 'NONE', *, *, #193, .T. ) ;
#2 = ORIENTED_EDGE ( 'NONE', *, *, #107, .T. ) ;
#3 = ADVANCED_FACE ( 'NONE', ( #30 ), #162, .T. ) ;
#4 = CARTESIAN_POINT ( 'NONE',  ( 0.0000000000000000000, 0.0000000000000000000, 0.0000000000000000000 ) ) ;
#5 = CIRCLE ( 'NONE', #58, 0.04405499999999973326 ) ;
#6 = VECTOR ( 'NONE', #265, 39.37007874015748143 ) ;
#7 = CARTESIAN_POINT ( 'NONE',  ( -0.05905500000000000332, 0.0000000000000000000, 1.496062999999999921 ) ) ;
#8 = DIRECTION ( 'NONE',  ( -0.0000000000000000000, -0.0000000000000000000, -1.000000000000000000 ) ) ;
#9 = SPHERICAL_SURFACE ( 'NONE', #108, 0.04916328749999999276 ) ;
#10 = CIRCLE ( 'NONE', #147, 0.05905500000000000332 ) ;
#11 = AXIS2_PLACEMENT_3D ( 'NONE', #252, #320, #144 ) ;
#12 = CARTESIAN_POINT ( 'NONE',  ( 0.04916328750000001357, 0.0000000000000000000, 0.1496059999999999890 ) ) ;
#13 = ADVANCED_FACE ( 'NONE', ( #281 ), #181, .T. ) ;
#14 = LINE ( 'NONE', #188, #6 ) ;
#15 = CARTESIAN_POINT ( 'NONE',  ( 2.519155892793731369E-17, 0.0000000000000000000, 0.2057046892661350268 ) ) ;
#16 = CYLINDRICAL_SURFACE ( 'NONE', #84, 0.05905500000000000332 ) ;
#17 = CONICAL_SURFACE ( 'NONE', #50, 0.04405499999999973326, 0.7853981633974491672 ) ;
#18 = CARTESIAN_POINT ( 'NONE',  ( 6.020766267243607560E-18, 0.0000000000000000000, 0.04916328749999999276 ) ) ;
#19 = DIRECTION ( 'NONE',  ( 1.000000000000000000, 0.0000000000000000000, 0.0000000000000000000 ) ) ;
#20 = AXIS2_PLACEMENT_3D ( 'NONE', #180, #130, #85 ) ;
#21 = EDGE_LOOP ( 'NONE', ( #255, #277, #148, #224 ) ) ;
#22 = ORIENTED_EDGE ( 'NONE', *, *, #269, .F. ) ;
#23 = FACE_OUTER_BOUND ( 'NONE', #199, .T. ) ;
#24 = VERTEX_POINT ( 'NONE', #235 ) ;
#25 = PRODUCT_DEFINITION_SHAPE ( 'NONE', 'NONE',  #129 ) ;
#26 = LENGTH_MEASURE_WITH_UNIT ( LENGTH_MEASURE( 0.02539999999999999897 ), #49 );
#27 = ORIENTED_EDGE ( 'NONE', *, *, #257, .T. ) ;
#28 = VECTOR ( 'NONE', #8, 39.37007874015748143 ) ;
#29 = DIRECTION ( 'NONE',  ( -0.7071067811865482389, 0.0000000000000000000, -0.7071067811865469066 ) ) ;
#30 = FACE_OUTER_BOUND ( 'NONE', #177, .T. ) ;
#31 = DIRECTION ( 'NONE',  ( 1.224646799147353207E-16, 0.0000000000000000000, 1.000000000000000000 ) ) ;
#32 = DIRECTION ( 'NONE',  ( 1.224646799147353207E-16, 0.0000000000000000000, 1.000000000000000000 ) ) ;
#33 = STYLED_ITEM ( 'NONE', ( #186 ), #198 ) ;
#34 = AXIS2_PLACEMENT_3D ( 'NONE', #53, #268, #225 ) ;
#35 = CARTESIAN_POINT ( 'NONE',  ( -0.04916328749999997888, 6.020766267243607560E-18, 0.1496059999999999890 ) ) ;
#36 = PRODUCT_CONTEXT ( 'NONE', #258, 'mechanical' ) ;
#37 = DIRECTION ( 'NONE',  ( -1.224646799147353207E-16, -0.0000000000000000000, -1.000000000000000000 ) ) ;
#38 = FACE_OUTER_BOUND ( 'NONE', #95, .T. ) ;
#39 = EDGE_CURVE ( 'NONE', #119, #176, #88, .T. ) ;
#40 = CARTESIAN_POINT ( 'NONE',  ( 0.05905500000000003108, 7.232151672364698504E-18, 0.2057046892661350268 ) ) ;
#41 = SURFACE_SIDE_STYLE ('',( #239 ) ) ;
#42 = EDGE_CURVE ( 'NONE', #297, #117, #123, .T. ) ;
#43 = FACE_OUTER_BOUND ( 'NONE', #21, .T. ) ;
#44 = FACE_OUTER_BOUND ( 'NONE', #73, .T. ) ;
#45 = CARTESIAN_POINT ( 'NONE',  ( 0.05905500000000000332, 7.232151672364695422E-18, 1.496062999999999921 ) ) ;
#46 = DIRECTION ( 'NONE',  ( -1.000000000000000000, 0.0000000000000000000, 0.0000000000000000000 ) ) ;
#47 = ORIENTED_EDGE ( 'NONE', *, *, #39, .F. ) ;
#48 = PRODUCT_RELATED_PRODUCT_CATEGORY ( 'part', '', ( #126 ) ) ;
#49 =( LENGTH_UNIT ( ) NAMED_UNIT ( * ) SI_UNIT ( $, .METRE. ) );
#50 = AXIS2_PLACEMENT_3D ( 'NONE', #169, #149, #46 ) ;
#51 = ORIENTED_EDGE ( 'NONE', *, *, #257, .F. ) ;
#52 = ORIENTED_EDGE ( 'NONE', *, *, #107, .F. ) ;
#53 = CARTESIAN_POINT ( 'NONE',  ( 0.0000000000000000000, 0.0000000000000000000, 1.481062999999999574 ) ) ;
#54 = ORIENTED_EDGE ( 'NONE', *, *, #187, .F. ) ;
#55 = EDGE_CURVE ( 'NONE', #155, #323, #299, .T. ) ;
#56 = CARTESIAN_POINT ( 'NONE',  ( 0.0000000000000000000, 0.0000000000000000000, 0.0000000000000000000 ) ) ;
#57 = ORIENTED_EDGE ( 'NONE', *, *, #62, .T. ) ;
#58 = AXIS2_PLACEMENT_3D ( 'NONE', #68, #291, #19 ) ;
#59 = VECTOR ( 'NONE', #29, 39.37007874015748143 ) ;
#60 = CARTESIAN_POINT ( 'NONE',  ( 6.020766267243607560E-18, 0.0000000000000000000, 0.04916328749999999276 ) ) ;
#61 = CARTESIAN_POINT ( 'NONE',  ( 6.020766267243607560E-18, 0.0000000000000000000, 0.04916328749999999276 ) ) ;
#62 = EDGE_CURVE ( 'NONE', #176, #119, #313, .T. ) ;
#63 = DIRECTION ( 'NONE',  ( 1.000000000000000000, 0.0000000000000000000, 0.0000000000000000000 ) ) ;
#64 = PRODUCT_DEFINITION_FORMATION_WITH_SPECIFIED_SOURCE ( 'ANY', '', #126, .NOT_KNOWN. ) ;
#65 = DIRECTION ( 'NONE',  ( -1.000000000000000000, 0.0000000000000000000, 0.0000000000000000000 ) ) ;
#66 = CARTESIAN_POINT ( 'NONE',  ( 6.020766267243607560E-18, 0.0000000000000000000, 0.04916328749999999276 ) ) ;
#67 = FACE_OUTER_BOUND ( 'NONE', #302, .T. ) ;
#68 = CARTESIAN_POINT ( 'NONE',  ( 0.0000000000000000000, 0.0000000000000000000, 1.496062999999999921 ) ) ;
#69 =( GEOMETRIC_REPRESENTATION_CONTEXT ( 3 ) GLOBAL_UNCERTAINTY_ASSIGNED_CONTEXT ( ( #296 ) ) GLOBAL_UNIT_ASSIGNED_CONTEXT ( ( #194, #220, #288 ) ) REPRESENTATION_CONTEXT ( 'NONE', 'WORKASPACE' ) );
#70 = SURFACE_STYLE_USAGE ( .BOTH. , #41 ) ;
#71 = LENGTH_MEASURE_WITH_UNIT ( LENGTH_MEASURE( 0.02539999999999999897 ), #197 );
#72 = PRODUCT_DEFINITION_CONTEXT ( 'detailed design', #271, 'design' ) ;
#73 = EDGE_LOOP ( 'NONE', ( #2, #207, #322, #22 ) ) ;
#74 = ORIENTED_EDGE ( 'NONE', *, *, #137, .T. ) ;
#75 = EDGE_CURVE ( 'NONE', #172, #226, #259, .T. ) ;
#76 = ORIENTED_EDGE ( 'NONE', *, *, #137, .F. ) ;
#77 = FILL_AREA_STYLE ('',( #223 ) ) ;
#78 = EDGE_LOOP ( 'NONE', ( #248, #76, #205, #298 ) ) ;
#79 = ADVANCED_FACE ( 'NONE', ( #38 ), #236, .T. ) ;
#80 = LINE ( 'NONE', #262, #159 ) ;
#81 = CARTESIAN_POINT ( 'NONE',  ( 6.020766267243607560E-18, 0.0000000000000000000, 0.04916328749999999276 ) ) ;
#82 = CARTESIAN_POINT ( 'NONE',  ( 0.0000000000000000000, 0.0000000000000000000, 1.496062999999999921 ) ) ;
#83 = FACE_OUTER_BOUND ( 'NONE', #170, .T. ) ;
#84 = AXIS2_PLACEMENT_3D ( 'NONE', #219, #317, #86 ) ;
#85 = DIRECTION ( 'NONE',  ( -1.000000000000000000, 0.0000000000000000000, 0.0000000000000000000 ) ) ;
#86 = DIRECTION ( 'NONE',  ( -1.000000000000000000, 0.0000000000000000000, 0.0000000000000000000 ) ) ;
#87 = DIRECTION ( 'NONE',  ( 1.000000000000000000, 0.0000000000000000000, 0.0000000000000000000 ) ) ;
#88 = CIRCLE ( 'NONE', #222, 0.04916328749999999276 ) ;
#89 = STYLED_ITEM ( 'NONE', ( #94 ), #203 ) ;
#90 = DIRECTION ( 'NONE',  ( -1.224646799147353207E-16, -0.0000000000000000000, -1.000000000000000000 ) ) ;
#91 = CARTESIAN_POINT ( 'NONE',  ( 1.832145090332389117E-17, 0.0000000000000000000, 0.1496059999999999890 ) ) ;
#92 = DIRECTION ( 'NONE',  ( 1.224646799147353207E-16, 1.000000000000000000, -0.0000000000000000000 ) ) ;
#93 = AXIS2_PLACEMENT_3D ( 'NONE', #165, #142, #241 ) ;
#94 = PRESENTATION_STYLE_ASSIGNMENT (( #301 ) ) ;
#95 = EDGE_LOOP ( 'NONE', ( #100, #74, #270, #57 ) ) ;
#96 =( NAMED_UNIT ( * ) SI_UNIT ( $, .STERADIAN. ) SOLID_ANGLE_UNIT ( ) );
#97 = ORIENTED_EDGE ( 'NONE', *, *, #187, .T. ) ;
#98 = MECHANICAL_DESIGN_GEOMETRIC_PRESENTATION_REPRESENTATION (  '', ( #89 ), #274 ) ;
#99 = VERTEX_POINT ( 'NONE', #310 ) ;
#100 = ORIENTED_EDGE ( 'NONE', *, *, #178, .F. ) ;
#101 = ORIENTED_EDGE ( 'NONE', *, *, #42, .T. ) ;
#102 = DIRECTION ( 'NONE',  ( -1.224646799147353207E-16, -0.0000000000000000000, -1.000000000000000000 ) ) ;
#103 = PRESENTATION_LAYER_ASSIGNMENT (  '', '', ( #89 ) ) ;
#104 = DIRECTION ( 'NONE',  ( 1.000000000000000000, 0.0000000000000000000, 0.0000000000000000000 ) ) ;
#105 = CARTESIAN_POINT ( 'NONE',  ( 0.0000000000000000000, 0.0000000000000000000, 1.481062999999999574 ) ) ;
#106 = CARTESIAN_POINT ( 'NONE',  ( 9.031149400865411725E-18, 0.0000000000000000000, 0.0000000000000000000 ) ) ;
#107 = EDGE_CURVE ( 'NONE', #24, #172, #249, .T. ) ;
#108 = AXIS2_PLACEMENT_3D ( 'NONE', #81, #261, #63 ) ;
#109 = AXIS2_PLACEMENT_3D ( 'NONE', #105, #134, #211 ) ;
#110 = CARTESIAN_POINT ( 'NONE',  ( -0.04916328749999998582, 0.0000000000000000000, 0.04916328750000000664 ) ) ;
#111 = AXIS2_PLACEMENT_3D ( 'NONE', #82, #308, #157 ) ;
#112 = LENGTH_MEASURE_WITH_UNIT ( LENGTH_MEASURE( 0.02539999999999999897 ), #240 );
#113 = DIRECTION ( 'NONE',  ( 1.000000000000000000, 0.0000000000000000000, 0.0000000000000000000 ) ) ;
#114 = FILL_AREA_STYLE_COLOUR ( '', #189 ) ;
#115 = CONICAL_SURFACE ( 'NONE', #294, 0.04405499999999973326, 0.7853981633974491672 ) ;
#116 = UNCERTAINTY_MEASURE_WITH_UNIT (LENGTH_MEASURE( 1.000000000000000082E-05 ), #325, 'distance_accuracy_value', 'NONE');
#117 = VERTEX_POINT ( 'NONE', #234 ) ;
#118 =( NAMED_UNIT ( * ) SI_UNIT ( $, .STERADIAN. ) SOLID_ANGLE_UNIT ( ) );
#119 = VERTEX_POINT ( 'NONE', #283 ) ;
#120 = CARTESIAN_POINT ( 'NONE',  ( 0.05905500000000000332, 7.232151672364695422E-18, 1.481062999999999574 ) ) ;
#121 = ORIENTED_EDGE ( 'NONE', *, *, #132, .F. ) ;
#122 =( NAMED_UNIT ( * ) PLANE_ANGLE_UNIT ( ) SI_UNIT ( $, .RADIAN. ) );
#123 = CIRCLE ( 'NONE', #195, 0.04405499999999973326 ) ;
#124 = VERTEX_POINT ( 'NONE', #106 ) ;
#125 = ORIENTED_EDGE ( 'NONE', *, *, #206, .F. ) ;
#126 = PRODUCT ( 'Micro_BMSM-025-2X', 'Micro_BMSM-025-2X', '', ( #36 ) ) ;
#127 = ADVANCED_FACE ( 'NONE', ( #263 ), #9, .T. ) ;
#128 = CARTESIAN_POINT ( 'NONE',  ( 0.04916328750000001357, 0.0000000000000000000, 0.1496059999999999890 ) ) ;
#129 = PRODUCT_DEFINITION ( 'UNKNOWN', '', #64, #72 ) ;
#130 = DIRECTION ( 'NONE',  ( -1.224646799147353207E-16, -0.0000000000000000000, -1.000000000000000000 ) ) ;
#131 = AXIS2_PLACEMENT_3D ( 'NONE', #15, #140, #190 ) ;
#132 = EDGE_CURVE ( 'NONE', #155, #99, #209, .T. ) ;
#133 = APPLICATION_PROTOCOL_DEFINITION ( 'draft international standard', 'automotive_design', 1998, #271 ) ;
#134 = DIRECTION ( 'NONE',  ( 0.0000000000000000000, 0.0000000000000000000, -1.000000000000000000 ) ) ;
#135 = CARTESIAN_POINT ( 'NONE',  ( 1.832145090332389117E-17, 0.0000000000000000000, 0.1496059999999999890 ) ) ;
#136 = DIRECTION ( 'NONE',  ( 0.1736481776669313026, 0.0000000000000000000, 0.9848077530122077983 ) ) ;
#137 = EDGE_CURVE ( 'NONE', #172, #24, #264, .T. ) ;
#138 = DIRECTION ( 'NONE',  ( -0.0000000000000000000, -0.0000000000000000000, -1.000000000000000000 ) ) ;
#139 = EDGE_CURVE ( 'NONE', #24, #99, #158, .T. ) ;
#140 = DIRECTION ( 'NONE',  ( -1.224646799147353207E-16, -0.0000000000000000000, -1.000000000000000000 ) ) ;
#141 = AXIS2_PLACEMENT_3D ( 'NONE', #91, #192, #87 ) ;
#142 = DIRECTION ( 'NONE',  ( 0.0000000000000000000, -1.000000000000000000, 0.0000000000000000000 ) ) ;
#143 = LINE ( 'NONE', #244, #267 ) ;
#144 = DIRECTION ( 'NONE',  ( 1.000000000000000000, 0.0000000000000000000, -0.0000000000000000000 ) ) ;
#145 = EDGE_LOOP ( 'NONE', ( #150, #229, #201 ) ) ;
#146 = ADVANCED_FACE ( 'NONE', ( #83 ), #115, .T. ) ;
#147 = AXIS2_PLACEMENT_3D ( 'NONE', #212, #90, #215 ) ;
#148 = ORIENTED_EDGE ( 'NONE', *, *, #132, .T. ) ;
#149 = DIRECTION ( 'NONE',  ( 0.0000000000000000000, 0.0000000000000000000, -1.000000000000000000 ) ) ;
#150 = ORIENTED_EDGE ( 'NONE', *, *, #193, .F. ) ;
#151 = ORIENTED_EDGE ( 'NONE', *, *, #185, .T. ) ;
#152 = AXIS2_PLACEMENT_3D ( 'NONE', #135, #312, #314 ) ;
#153 = DIRECTION ( 'NONE',  ( 0.0000000000000000000, 0.0000000000000000000, 1.000000000000000000 ) ) ;
#154 = CONICAL_SURFACE ( 'NONE', #316, 0.04916328749999999276, 0.1745329251994338082 ) ;
#155 = VERTEX_POINT ( 'NONE', #161 ) ;
#156 = CARTESIAN_POINT ( 'NONE',  ( 0.0000000000000000000, 0.0000000000000000000, 1.496062999999999921 ) ) ;
#157 = DIRECTION ( 'NONE',  ( -1.000000000000000000, 0.0000000000000000000, 0.0000000000000000000 ) ) ;
#158 = LINE ( 'NONE', #35, #285 ) ;
#159 = VECTOR ( 'NONE', #37, 39.37007874015748143 ) ;
#160 = CONICAL_SURFACE ( 'NONE', #141, 0.04916328749999999276, 0.1745329251994338082 ) ;
#161 = CARTESIAN_POINT ( 'NONE',  ( -0.05905500000000000332, 0.0000000000000000000, 1.481062999999999574 ) ) ;
#162 = CYLINDRICAL_SURFACE ( 'NONE', #111, 0.05905500000000000332 ) ;
#163 = AXIS2_PLACEMENT_3D ( 'NONE', #166, #164, #290 ) ;
#164 = DIRECTION ( 'NONE',  ( -1.224646799147353207E-16, -0.0000000000000000000, -1.000000000000000000 ) ) ;
#165 = CARTESIAN_POINT ( 'NONE',  ( 6.020766267243607560E-18, 0.0000000000000000000, 0.04916328749999999276 ) ) ;
#166 = CARTESIAN_POINT ( 'NONE',  ( 0.0000000000000000000, 0.0000000000000000000, 0.0000000000000000000 ) ) ;
#167 = AXIS2_PLACEMENT_3D ( 'NONE', #66, #210, #184 ) ;
#168 = FILL_AREA_STYLE ('',( #114 ) ) ;
#169 = CARTESIAN_POINT ( 'NONE',  ( 0.0000000000000000000, 0.0000000000000000000, 1.496062999999999921 ) ) ;
#170 = EDGE_LOOP ( 'NONE', ( #51, #54, #304, #174 ) ) ;
#171 = CARTESIAN_POINT ( 'NONE',  ( 0.04405499999999973326, 6.313666573004162521E-18, 1.496062999999999921 ) ) ;
#172 = VERTEX_POINT ( 'NONE', #12 ) ;
#173 = AXIS2_PLACEMENT_3D ( 'NONE', #18, #92, #217 ) ;
#174 = ORIENTED_EDGE ( 'NONE', *, *, #279, .F. ) ;
#175 = PLANE ( 'NONE',  #11 ) ;
#176 = VERTEX_POINT ( 'NONE', #110 ) ;
#177 = EDGE_LOOP ( 'NONE', ( #230, #324, #253, #121 ) ) ;
#178 = EDGE_CURVE ( 'NONE', #172, #119, #80, .T. ) ;
#179 = DIRECTION ( 'NONE',  ( -0.1736481776669311083, 2.126576849575782084E-17, 0.9848077530122080203 ) ) ;
#180 = CARTESIAN_POINT ( 'NONE',  ( 1.832145090332389117E-17, 0.0000000000000000000, 0.1496059999999999890 ) ) ;
#181 = SPHERICAL_SURFACE ( 'NONE', #167, 0.04916328749999999276 ) ;
#182 = EDGE_CURVE ( 'NONE', #226, #99, #10, .T. ) ;
#183 = DIRECTION ( 'NONE',  ( 0.0000000000000000000, 0.0000000000000000000, -1.000000000000000000 ) ) ;
#184 = DIRECTION ( 'NONE',  ( 1.000000000000000000, 0.0000000000000000000, 0.0000000000000000000 ) ) ;
#185 = EDGE_CURVE ( 'NONE', #99, #226, #213, .T. ) ;
#186 = PRESENTATION_STYLE_ASSIGNMENT (( #70 ) ) ;
#187 = EDGE_CURVE ( 'NONE', #117, #297, #5, .T. ) ;
#188 = CARTESIAN_POINT ( 'NONE',  ( -0.04916328749999999276, 0.0000000000000000000, 6.020766267243607560E-18 ) ) ;
#189 = COLOUR_RGB ( '',0.7921568627450980005, 0.8196078431372548767, 0.9333333333333333481 ) ;
#190 = DIRECTION ( 'NONE',  ( 1.000000000000000000, 0.0000000000000000000, 0.0000000000000000000 ) ) ;
#191 = ADVANCED_FACE ( 'NONE', ( #44 ), #293, .T. ) ;
#192 = DIRECTION ( 'NONE',  ( 1.224646799147353207E-16, 0.0000000000000000000, 1.000000000000000000 ) ) ;
#193 = EDGE_CURVE ( 'NONE', #124, #176, #305, .T. ) ;
#194 =( CONVERSION_BASED_UNIT ( 'INCH', #112 ) LENGTH_UNIT ( ) NAMED_UNIT ( #282 ) );
#195 = AXIS2_PLACEMENT_3D ( 'NONE', #156, #256, #231 ) ;
#196 = AXIS2_PLACEMENT_3D ( 'NONE', #56, #153, #104 ) ;
#197 =( LENGTH_UNIT ( ) NAMED_UNIT ( * ) SI_UNIT ( $, .METRE. ) );
#198 = MANIFOLD_SOLID_BREP ( 'Fillet1', #260 ) ;
#199 = EDGE_LOOP ( 'NONE', ( #275, #27, #202, #228 ) ) ;
#200 = FACE_OUTER_BOUND ( 'NONE', #273, .T. ) ;
#201 = ORIENTED_EDGE ( 'NONE', *, *, #62, .F. ) ;
#202 = ORIENTED_EDGE ( 'NONE', *, *, #55, .F. ) ;
#203 = ADVANCED_BREP_SHAPE_REPRESENTATION ( 'Micro_BMSM-025-2X', ( #198, #196 ), #218 ) ;
#204 = LINE ( 'NONE', #221, #59 ) ;
#205 = ORIENTED_EDGE ( 'NONE', *, *, #75, .T. ) ;
#206 = EDGE_CURVE ( 'NONE', #124, #119, #306, .T. ) ;
#207 = ORIENTED_EDGE ( 'NONE', *, *, #178, .T. ) ;
#208 = PRESENTATION_LAYER_ASSIGNMENT (  '', '', ( #33 ) ) ;
#209 = LINE ( 'NONE', #7, #28 ) ;
#210 = DIRECTION ( 'NONE',  ( 0.0000000000000000000, 1.000000000000000000, 0.0000000000000000000 ) ) ;
#211 = DIRECTION ( 'NONE',  ( 1.000000000000000000, 0.0000000000000000000, 0.0000000000000000000 ) ) ;
#212 = CARTESIAN_POINT ( 'NONE',  ( 2.519155892793731369E-17, 0.0000000000000000000, 0.2057046892661350268 ) ) ;
#213 = CIRCLE ( 'NONE', #131, 0.05905500000000000332 ) ;
#214 = ADVANCED_FACE ( 'NONE', ( #43 ), #16, .T. ) ;
#215 = DIRECTION ( 'NONE',  ( 1.000000000000000000, 0.0000000000000000000, 0.0000000000000000000 ) ) ;
#216 = ADVANCED_FACE ( 'NONE', ( #243 ), #160, .T. ) ;
#217 = DIRECTION ( 'NONE',  ( -1.000000000000000000, 1.224646799147353207E-16, 0.0000000000000000000 ) ) ;
#218 =( GEOMETRIC_REPRESENTATION_CONTEXT ( 3 ) GLOBAL_UNCERTAINTY_ASSIGNED_CONTEXT ( ( #247 ) ) GLOBAL_UNIT_ASSIGNED_CONTEXT ( ( #246, #227, #118 ) ) REPRESENTATION_CONTEXT ( 'NONE', 'WORKASPACE' ) );
#219 = CARTESIAN_POINT ( 'NONE',  ( 0.0000000000000000000, 0.0000000000000000000, 1.496062999999999921 ) ) ;
#220 =( NAMED_UNIT ( * ) PLANE_ANGLE_UNIT ( ) SI_UNIT ( $, .RADIAN. ) );
#221 = CARTESIAN_POINT ( 'NONE',  ( -0.04405499999999973326, 0.0000000000000000000, 1.496062999999999921 ) ) ;
#222 = AXIS2_PLACEMENT_3D ( 'NONE', #61, #31, #286 ) ;
#223 = FILL_AREA_STYLE_COLOUR ( '', #233 ) ;
#224 = ORIENTED_EDGE ( 'NONE', *, *, #182, .F. ) ;
#225 = DIRECTION ( 'NONE',  ( 1.000000000000000000, 0.0000000000000000000, 0.0000000000000000000 ) ) ;
#226 = VERTEX_POINT ( 'NONE', #40 ) ;
#227 =( NAMED_UNIT ( * ) PLANE_ANGLE_UNIT ( ) SI_UNIT ( $, .RADIAN. ) );
#228 = ORIENTED_EDGE ( 'NONE', *, *, #311, .F. ) ;
#229 = ORIENTED_EDGE ( 'NONE', *, *, #206, .T. ) ;
#230 = ORIENTED_EDGE ( 'NONE', *, *, #55, .T. ) ;
#231 = DIRECTION ( 'NONE',  ( 1.000000000000000000, 0.0000000000000000000, 0.0000000000000000000 ) ) ;
#232 = VECTOR ( 'NONE', #136, 39.37007874015748143 ) ;
#233 = COLOUR_RGB ( '',0.7921568627450980005, 0.8196078431372548767, 0.9333333333333333481 ) ;
#234 = CARTESIAN_POINT ( 'NONE',  ( -0.04405499999999973326, 0.0000000000000000000, 1.496062999999999921 ) ) ;
#235 = CARTESIAN_POINT ( 'NONE',  ( -0.04916328749999997888, 6.626458969804151876E-18, 0.1496059999999999890 ) ) ;
#236 = CYLINDRICAL_SURFACE ( 'NONE', #237, 0.04916328749999999276 ) ;
#237 = AXIS2_PLACEMENT_3D ( 'NONE', #4, #102, #280 ) ;
#238 = CARTESIAN_POINT ( 'NONE',  ( 0.0000000000000000000, 0.0000000000000000000, 1.496062999999999921 ) ) ;
#239 = SURFACE_STYLE_FILL_AREA ( #168 ) ;
#240 =( LENGTH_UNIT ( ) NAMED_UNIT ( * ) SI_UNIT ( $, .METRE. ) );
#241 = DIRECTION ( 'NONE',  ( 0.0000000000000000000, 0.0000000000000000000, -1.000000000000000000 ) ) ;
#242 = MECHANICAL_DESIGN_GEOMETRIC_PRESENTATION_REPRESENTATION (  '', ( #33 ), #69 ) ;
#243 = FACE_OUTER_BOUND ( 'NONE', #78, .T. ) ;
#244 = CARTESIAN_POINT ( 'NONE',  ( 0.04405499999999973326, 5.395181473643630390E-18, 1.496062999999999921 ) ) ;
#245 = ADVANCED_FACE ( 'NONE', ( #67 ), #154, .T. ) ;
#246 =( CONVERSION_BASED_UNIT ( 'INCH', #71 ) LENGTH_UNIT ( ) NAMED_UNIT ( #284 ) );
#247 = UNCERTAINTY_MEASURE_WITH_UNIT (LENGTH_MEASURE( 1.000000000000000082E-05 ), #246, 'distance_accuracy_value', 'NONE');
#248 = ORIENTED_EDGE ( 'NONE', *, *, #139, .F. ) ;
#249 = CIRCLE ( 'NONE', #20, 0.04916328749999999276 ) ;
#250 = EDGE_LOOP ( 'NONE', ( #125, #1, #47 ) ) ;
#251 = EDGE_CURVE ( 'NONE', #323, #226, #318, .T. ) ;
#252 = CARTESIAN_POINT ( 'NONE',  ( 0.0000000000000000000, 0.0000000000000000000, 1.496062999999999921 ) ) ;
#253 = ORIENTED_EDGE ( 'NONE', *, *, #185, .F. ) ;
#254 = ORIENTED_EDGE ( 'NONE', *, *, #139, .T. ) ;
#255 = ORIENTED_EDGE ( 'NONE', *, *, #251, .F. ) ;
#256 = DIRECTION ( 'NONE',  ( 0.0000000000000000000, 0.0000000000000000000, 1.000000000000000000 ) ) ;
#257 = EDGE_CURVE ( 'NONE', #297, #323, #143, .T. ) ;
#258 = APPLICATION_CONTEXT ( 'automotive_design' ) ;
#259 = LINE ( 'NONE', #128, #232 ) ;
#260 = CLOSED_SHELL ( 'NONE', ( #13, #191, #245, #307, #3, #214, #319, #146, #216, #79, #127 ) ) ;
#261 = DIRECTION ( 'NONE',  ( 0.0000000000000000000, 1.000000000000000000, 0.0000000000000000000 ) ) ;
#262 = CARTESIAN_POINT ( 'NONE',  ( 0.04916328749999999276, 6.020766267243607560E-18, -6.020766267243607560E-18 ) ) ;
#263 = FACE_OUTER_BOUND ( 'NONE', #145, .T. ) ;
#264 = CIRCLE ( 'NONE', #152, 0.04916328749999999276 ) ;
#265 = DIRECTION ( 'NONE',  ( -1.224646799147353207E-16, -0.0000000000000000000, -1.000000000000000000 ) ) ;
#266 = DIRECTION ( 'NONE',  ( 1.224646799147353207E-16, 0.0000000000000000000, 1.000000000000000000 ) ) ;
#267 = VECTOR ( 'NONE', #315, 39.37007874015748143 ) ;
#268 = DIRECTION ( 'NONE',  ( 0.0000000000000000000, 0.0000000000000000000, -1.000000000000000000 ) ) ;
#269 = EDGE_CURVE ( 'NONE', #24, #176, #14, .T. ) ;
#270 = ORIENTED_EDGE ( 'NONE', *, *, #269, .T. ) ;
#271 = APPLICATION_CONTEXT ( 'automotive_design' ) ;
#272 = SURFACE_SIDE_STYLE ('',( #321 ) ) ;
#273 = EDGE_LOOP ( 'NONE', ( #97, #101 ) ) ;
#274 =( GEOMETRIC_REPRESENTATION_CONTEXT ( 3 ) GLOBAL_UNCERTAINTY_ASSIGNED_CONTEXT ( ( #116 ) ) GLOBAL_UNIT_ASSIGNED_CONTEXT ( ( #325, #122, #96 ) ) REPRESENTATION_CONTEXT ( 'NONE', 'WORKASPACE' ) );
#275 = ORIENTED_EDGE ( 'NONE', *, *, #42, .F. ) ;
#276 = APPLICATION_PROTOCOL_DEFINITION ( 'draft international standard', 'automotive_design', 1998, #258 ) ;
#277 = ORIENTED_EDGE ( 'NONE', *, *, #279, .T. ) ;
#278 = ORIENTED_EDGE ( 'NONE', *, *, #75, .F. ) ;
#279 = EDGE_CURVE ( 'NONE', #323, #155, #300, .T. ) ;
#280 = DIRECTION ( 'NONE',  ( -1.000000000000000000, 0.0000000000000000000, 1.224646799147353207E-16 ) ) ;
#281 = FACE_OUTER_BOUND ( 'NONE', #250, .T. ) ;
#282 = DIMENSIONAL_EXPONENTS ( 1.000000000000000000, 0.0000000000000000000, 0.0000000000000000000, 0.0000000000000000000, 0.0000000000000000000, 0.0000000000000000000, 0.0000000000000000000 ) ;
#283 = CARTESIAN_POINT ( 'NONE',  ( 0.04916328750000000664, 6.020766267243607560E-18, 0.04916328749999998582 ) ) ;
#284 = DIMENSIONAL_EXPONENTS ( 1.000000000000000000, 0.0000000000000000000, 0.0000000000000000000, 0.0000000000000000000, 0.0000000000000000000, 0.0000000000000000000, 0.0000000000000000000 ) ;
#285 = VECTOR ( 'NONE', #179, 39.37007874015747433 ) ;
#286 = DIRECTION ( 'NONE',  ( -1.000000000000000000, 0.0000000000000000000, 1.736463408839537879E-16 ) ) ;
#287 = DIRECTION ( 'NONE',  ( -1.000000000000000000, 0.0000000000000000000, 1.736463408839537879E-16 ) ) ;
#288 =( NAMED_UNIT ( * ) SI_UNIT ( $, .STERADIAN. ) SOLID_ANGLE_UNIT ( ) );
#289 = AXIS2_PLACEMENT_3D ( 'NONE', #60, #32, #287 ) ;
#290 = DIRECTION ( 'NONE',  ( -1.000000000000000000, 0.0000000000000000000, 1.224646799147353207E-16 ) ) ;
#291 = DIRECTION ( 'NONE',  ( 0.0000000000000000000, 0.0000000000000000000, 1.000000000000000000 ) ) ;
#292 = CARTESIAN_POINT ( 'NONE',  ( 1.832145090332389117E-17, 0.0000000000000000000, 0.1496059999999999890 ) ) ;
#293 = CYLINDRICAL_SURFACE ( 'NONE', #163, 0.04916328749999999276 ) ;
#294 = AXIS2_PLACEMENT_3D ( 'NONE', #238, #183, #65 ) ;
#295 = VECTOR ( 'NONE', #138, 39.37007874015748143 ) ;
#296 = UNCERTAINTY_MEASURE_WITH_UNIT (LENGTH_MEASURE( 1.000000000000000082E-05 ), #194, 'distance_accuracy_value', 'NONE');
#297 = VERTEX_POINT ( 'NONE', #171 ) ;
#298 = ORIENTED_EDGE ( 'NONE', *, *, #182, .T. ) ;
#299 = CIRCLE ( 'NONE', #109, 0.05905500000000000332 ) ;
#300 = CIRCLE ( 'NONE', #34, 0.05905500000000000332 ) ;
#301 = SURFACE_STYLE_USAGE ( .BOTH. , #272 ) ;
#302 = EDGE_LOOP ( 'NONE', ( #52, #254, #151, #278 ) ) ;
#303 = SHAPE_DEFINITION_REPRESENTATION ( #25, #203 ) ;
#304 = ORIENTED_EDGE ( 'NONE', *, *, #311, .T. ) ;
#305 = CIRCLE ( 'NONE', #173, 0.04916328749999999276 ) ;
#306 = CIRCLE ( 'NONE', #93, 0.04916328749999999276 ) ;
#307 = ADVANCED_FACE ( 'NONE', ( #23 ), #17, .T. ) ;
#308 = DIRECTION ( 'NONE',  ( -0.0000000000000000000, -0.0000000000000000000, -1.000000000000000000 ) ) ;
#309 = DIMENSIONAL_EXPONENTS ( 1.000000000000000000, 0.0000000000000000000, 0.0000000000000000000, 0.0000000000000000000, 0.0000000000000000000, 0.0000000000000000000, 0.0000000000000000000 ) ;
#310 = CARTESIAN_POINT ( 'NONE',  ( -0.05905499999999998251, 0.0000000000000000000, 0.2057046892661350268 ) ) ;
#311 = EDGE_CURVE ( 'NONE', #117, #155, #204, .T. ) ;
#312 = DIRECTION ( 'NONE',  ( -1.224646799147353207E-16, -0.0000000000000000000, -1.000000000000000000 ) ) ;
#313 = CIRCLE ( 'NONE', #289, 0.04916328749999999276 ) ;
#314 = DIRECTION ( 'NONE',  ( -1.000000000000000000, 0.0000000000000000000, 0.0000000000000000000 ) ) ;
#315 = DIRECTION ( 'NONE',  ( 0.7071067811865482389, 8.659560562354941486E-17, -0.7071067811865469066 ) ) ;
#316 = AXIS2_PLACEMENT_3D ( 'NONE', #292, #266, #113 ) ;
#317 = DIRECTION ( 'NONE',  ( -0.0000000000000000000, -0.0000000000000000000, -1.000000000000000000 ) ) ;
#318 = LINE ( 'NONE', #45, #295 ) ;
#319 = ADVANCED_FACE ( 'NONE', ( #200 ), #175, .T. ) ;
#320 = DIRECTION ( 'NONE',  ( 0.0000000000000000000, 0.0000000000000000000, 1.000000000000000000 ) ) ;
#321 = SURFACE_STYLE_FILL_AREA ( #77 ) ;
#322 = ORIENTED_EDGE ( 'NONE', *, *, #39, .T. ) ;
#323 = VERTEX_POINT ( 'NONE', #120 ) ;
#324 = ORIENTED_EDGE ( 'NONE', *, *, #251, .T. ) ;
#325 =( CONVERSION_BASED_UNIT ( 'INCH', #26 ) LENGTH_UNIT ( ) NAMED_UNIT ( #309 ) );
ENDSEC;
END-ISO-10303-21;
