ISO-10303-21;
HEADER;
FILE_DESCRIPTION (( 'STEP AP214' ),
    '1' );
FILE_NAME ('83302.STEP',
    '2023-06-30T23:03:54',
    ( '' ),
    ( '' ),
    'SwSTEP 2.0',
    'SolidWorks 2023',
    '' );
FILE_SCHEMA (( 'AUTOMOTIVE_DESIGN' ));
ENDSEC;

DATA;
#1 = FACE_OUTER_BOUND ( 'NONE', #219, .T. ) ;
#2 = ORIENTED_EDGE ( 'NONE', *, *, #221, .F. ) ;
#3 = ORIENTED_EDGE ( 'NONE', *, *, #282, .T. ) ;
#4 =( LENGTH_UNIT ( ) NAMED_UNIT ( * ) SI_UNIT ( $, .METRE. ) );
#5 = ORIENTED_EDGE ( 'NONE', *, *, #282, .F. ) ;
#6 = DIRECTION ( 'NONE',  ( 0.000000000000000000, 0.000000000000000000, -1.000000000000000000 ) ) ;
#7 = ORIENTED_EDGE ( 'NONE', *, *, #106, .F. ) ;
#8 = UNCERTAINTY_MEASURE_WITH_UNIT (LENGTH_MEASURE( 1.000000000000000082E-05 ), #325, 'distance_accuracy_value', 'NONE');
#9 = FACE_OUTER_BOUND ( 'NONE', #37, .T. ) ;
#10 = SURFACE_SIDE_STYLE ('',( #334 ) ) ;
#11 = LENGTH_MEASURE_WITH_UNIT ( LENGTH_MEASURE( 0.02539999999999999897 ), #155 );
#12 = EDGE_CURVE ( 'NONE', #145, #113, #83, .T. ) ;
#13 = PRESENTATION_STYLE_ASSIGNMENT (( #274 ) ) ;
#14 = VERTEX_POINT ( 'NONE', #151 ) ;
#15 = EDGE_CURVE ( 'NONE', #263, #270, #289, .T. ) ;
#16 = AXIS2_PLACEMENT_3D ( 'NONE', #175, #292, #36 ) ;
#17 = DIRECTION ( 'NONE',  ( -1.740287556683080860E-16, 1.000000000000000000, -0.000000000000000000 ) ) ;
#18 =( CONVERSION_BASED_UNIT ( 'INCH', #11 ) LENGTH_UNIT ( ) NAMED_UNIT ( #132 ) );
#19 = CARTESIAN_POINT ( 'NONE',  ( 0.3749999999999998335, 4.000000000000000000, 4.592425496802573602E-17 ) ) ;
#20 = APPLICATION_CONTEXT ( 'automotive_design' ) ;
#21 = AXIS2_PLACEMENT_3D ( 'NONE', #159, #99, #153 ) ;
#22 = DIRECTION ( 'NONE',  ( -1.740287556683080860E-16, 1.000000000000000000, 0.000000000000000000 ) ) ;
#23 = ADVANCED_FACE ( 'NONE', ( #9 ), #85, .T. ) ;
#24 =( NAMED_UNIT ( * ) PLANE_ANGLE_UNIT ( ) SI_UNIT ( $, .RADIAN. ) );
#25 = EDGE_LOOP ( 'NONE', ( #195, #188, #55, #239, #321 ) ) ;
#26 = FILL_AREA_STYLE_COLOUR ( '', #196 ) ;
#27 = UNCERTAINTY_MEASURE_WITH_UNIT (LENGTH_MEASURE( 1.000000000000000082E-05 ), #209, 'distance_accuracy_value', 'NONE');
#28 = CARTESIAN_POINT ( 'NONE',  ( 0.000000000000000000, 0.3750000000000001110, 0.000000000000000000 ) ) ;
#29 = CIRCLE ( 'NONE', #16, 0.3749999999999995559 ) ;
#30 = FILL_AREA_STYLE_COLOUR ( '', #356 ) ;
#31 = DIRECTION ( 'NONE',  ( 0.000000000000000000, 0.000000000000000000, -1.000000000000000000 ) ) ;
#32 =( NAMED_UNIT ( * ) PLANE_ANGLE_UNIT ( ) SI_UNIT ( $, .RADIAN. ) );
#33 = DIRECTION ( 'NONE',  ( 0.000000000000000000, 0.000000000000000000, -1.000000000000000000 ) ) ;
#34 = DIRECTION ( 'NONE',  ( 0.000000000000000000, 0.000000000000000000, 1.000000000000000000 ) ) ;
#35 = AXIS2_PLACEMENT_3D ( 'NONE', #53, #22, #134 ) ;
#36 = DIRECTION ( 'NONE',  ( -1.000000000000000000, 0.000000000000000000, 0.000000000000000000 ) ) ;
#37 = EDGE_LOOP ( 'NONE', ( #67, #278, #210, #51 ) ) ;
#38 = PRESENTATION_STYLE_ASSIGNMENT (( #358 ) ) ;
#39 = EDGE_CURVE ( 'NONE', #287, #14, #352, .T. ) ;
#40 = FILL_AREA_STYLE_COLOUR ( '', #350 ) ;
#41 = VECTOR ( 'NONE', #184, 39.37007874015748143 ) ;
#42 = AXIS2_PLACEMENT_3D ( 'NONE', #286, #182, #6 ) ;
#43 = DIRECTION ( 'NONE',  ( 1.000000000000000000, 0.000000000000000000, 0.000000000000000000 ) ) ;
#44 =( NAMED_UNIT ( * ) SI_UNIT ( $, .STERADIAN. ) SOLID_ANGLE_UNIT ( ) );
#45 = CARTESIAN_POINT ( 'NONE',  ( 0.000000000000000000, 0.3750000000000001110, 0.000000000000000000 ) ) ;
#46 = MECHANICAL_DESIGN_GEOMETRIC_PRESENTATION_REPRESENTATION (  '', ( #284 ), #89 ) ;
#47 = CIRCLE ( 'NONE', #181, 0.3749999999999998335 ) ;
#48 =( LENGTH_UNIT ( ) NAMED_UNIT ( * ) SI_UNIT ( $, .METRE. ) );
#49 = DIRECTION ( 'NONE',  ( -1.740287556683080860E-16, 1.000000000000000000, -0.000000000000000000 ) ) ;
#50 = AXIS2_PLACEMENT_3D ( 'NONE', #245, #93, #72 ) ;
#51 = ORIENTED_EDGE ( 'NONE', *, *, #187, .T. ) ;
#52 = DIMENSIONAL_EXPONENTS ( 1.000000000000000000, 0.000000000000000000, 0.000000000000000000, 0.000000000000000000, 0.000000000000000000, 0.000000000000000000, 0.000000000000000000 ) ;
#53 = CARTESIAN_POINT ( 'NONE',  ( 2.908536147974963713E-16, 1.625000000000000000, 0.000000000000000000 ) ) ;
#54 = CARTESIAN_POINT ( 'NONE',  ( 0.000000000000000000, 1.625000000000000000, -0.3749999999999998335 ) ) ;
#55 = ORIENTED_EDGE ( 'NONE', *, *, #80, .T. ) ;
#56 = PRODUCT_DEFINITION ( 'UNKNOWN', '', #297, #344 ) ;
#57 = COLOUR_RGB ( '',1.000000000000000000, 0.000000000000000000, 0.000000000000000000 ) ;
#58 = UNCERTAINTY_MEASURE_WITH_UNIT (LENGTH_MEASURE( 1.000000000000000082E-05 ), #158, 'distance_accuracy_value', 'NONE');
#59 = CARTESIAN_POINT ( 'NONE',  ( 0.3749999999999999445, 0.3750000000000001110, 0.000000000000000000 ) ) ;
#60 = LENGTH_MEASURE_WITH_UNIT ( LENGTH_MEASURE( 0.02539999999999999897 ), #316 );
#61 = DIRECTION ( 'NONE',  ( -0.000000000000000000, -1.000000000000000000, -0.000000000000000000 ) ) ;
#62 = DIRECTION ( 'NONE',  ( 1.224646799147353207E-16, -0.000000000000000000, 1.000000000000000000 ) ) ;
#63 = SURFACE_STYLE_USAGE ( .BOTH. , #90 ) ;
#64 = ORIENTED_EDGE ( 'NONE', *, *, #243, .F. ) ;
#65 = AXIS2_PLACEMENT_3D ( 'NONE', #268, #73, #218 ) ;
#66 = CARTESIAN_POINT ( 'NONE',  ( 4.592425496802573602E-17, 0.3750000000000001110, 0.3749999999999999445 ) ) ;
#67 = ORIENTED_EDGE ( 'NONE', *, *, #12, .F. ) ;
#68 = PRODUCT ( '83302', '83302', '', ( #264 ) ) ;
#69 = ORIENTED_EDGE ( 'NONE', *, *, #124, .T. ) ;
#70 = LINE ( 'NONE', #362, #41 ) ;
#71 = AXIS2_PLACEMENT_3D ( 'NONE', #342, #192, #77 ) ;
#72 = DIRECTION ( 'NONE',  ( 1.000000000000000000, 1.740287556683080860E-16, 0.000000000000000000 ) ) ;
#73 = DIRECTION ( 'NONE',  ( -0.000000000000000000, -1.000000000000000000, -0.000000000000000000 ) ) ;
#74 =( GEOMETRIC_REPRESENTATION_CONTEXT ( 3 ) GLOBAL_UNCERTAINTY_ASSIGNED_CONTEXT ( ( #58 ) ) GLOBAL_UNIT_ASSIGNED_CONTEXT ( ( #158, #267, #304 ) ) REPRESENTATION_CONTEXT ( 'NONE', 'WORKASPACE' ) );
#75 = FACE_OUTER_BOUND ( 'NONE', #364, .T. ) ;
#76 = COLOUR_RGB ( '',1.000000000000000000, 0.000000000000000000, 0.000000000000000000 ) ;
#77 = DIRECTION ( 'NONE',  ( -1.000000000000000000, 0.000000000000000000, 0.000000000000000000 ) ) ;
#78 = ORIENTED_EDGE ( 'NONE', *, *, #15, .T. ) ;
#79 = FACE_OUTER_BOUND ( 'NONE', #203, .T. ) ;
#80 = EDGE_CURVE ( 'NONE', #144, #198, #70, .T. ) ;
#81 = SURFACE_SIDE_STYLE ('',( #163 ) ) ;
#82 = ORIENTED_EDGE ( 'NONE', *, *, #221, .T. ) ;
#83 = CIRCLE ( 'NONE', #338, 0.3750000000000001110 ) ;
#84 = COLOUR_RGB ( '',1.000000000000000000, 0.000000000000000000, 0.000000000000000000 ) ;
#85 = SPHERICAL_SURFACE ( 'NONE', #201, 0.3750000000000001110 ) ;
#86 = DIRECTION ( 'NONE',  ( -0.000000000000000000, -1.000000000000000000, -0.000000000000000000 ) ) ;
#87 = DIMENSIONAL_EXPONENTS ( 1.000000000000000000, 0.000000000000000000, 0.000000000000000000, 0.000000000000000000, 0.000000000000000000, 0.000000000000000000, 0.000000000000000000 ) ;
#88 = PRESENTATION_STYLE_ASSIGNMENT (( #326 ) ) ;
#89 =( GEOMETRIC_REPRESENTATION_CONTEXT ( 3 ) GLOBAL_UNCERTAINTY_ASSIGNED_CONTEXT ( ( #167 ) ) GLOBAL_UNIT_ASSIGNED_CONTEXT ( ( #366, #329, #44 ) ) REPRESENTATION_CONTEXT ( 'NONE', 'WORKASPACE' ) );
#90 = SURFACE_SIDE_STYLE ('',( #204 ) ) ;
#91 = FILL_AREA_STYLE_COLOUR ( '', #76 ) ;
#92 = AXIS2_PLACEMENT_3D ( 'NONE', #45, #327, #128 ) ;
#93 = DIRECTION ( 'NONE',  ( 1.740287556683080860E-16, -1.000000000000000000, 0.000000000000000000 ) ) ;
#94 = SURFACE_SIDE_STYLE ('',( #176 ) ) ;
#95 = ADVANCED_FACE ( 'NONE', ( #363 ), #131, .T. ) ;
#96 = SURFACE_STYLE_FILL_AREA ( #242 ) ;
#97 = AXIS2_PLACEMENT_3D ( 'NONE', #123, #238, #43 ) ;
#98 = ADVANCED_FACE ( 'NONE', ( #272 ), #213, .T. ) ;
#99 = DIRECTION ( 'NONE',  ( 0.000000000000000000, 0.000000000000000000, 1.000000000000000000 ) ) ;
#100 = PRESENTATION_LAYER_ASSIGNMENT (  '', '', ( #260 ) ) ;
#101 = LENGTH_MEASURE_WITH_UNIT ( LENGTH_MEASURE( 0.02539999999999999897 ), #359 );
#102 = ORIENTED_EDGE ( 'NONE', *, *, #187, .F. ) ;
#103 = FACE_OUTER_BOUND ( 'NONE', #315, .T. ) ;
#104 = STYLED_ITEM ( 'NONE', ( #13 ), #107 ) ;
#105 = CIRCLE ( 'NONE', #309, 0.3749999999999995559 ) ;
#106 = EDGE_CURVE ( 'NONE', #198, #255, #226, .T. ) ;
#107 = ADVANCED_FACE ( 'NONE', ( #305 ), #269, .T. ) ;
#108 = DIRECTION ( 'NONE',  ( -0.000000000000000000, -1.000000000000000000, -0.000000000000000000 ) ) ;
#109 = MANIFOLD_SOLID_BREP ( 'Revolve - Cutting Edge', #190 ) ;
#110 = ORIENTED_EDGE ( 'NONE', *, *, #121, .F. ) ;
#111 = PRESENTATION_LAYER_ASSIGNMENT (  '', '', ( #104 ) ) ;
#112 = DIRECTION ( 'NONE',  ( 0.000000000000000000, 0.000000000000000000, -1.000000000000000000 ) ) ;
#113 = VERTEX_POINT ( 'NONE', #199 ) ;
#114 = PLANE ( 'NONE',  #351 ) ;
#115 =( CONVERSION_BASED_UNIT ( 'INCH', #60 ) LENGTH_UNIT ( ) NAMED_UNIT ( #244 ) );
#116 =( NAMED_UNIT ( * ) PLANE_ANGLE_UNIT ( ) SI_UNIT ( $, .RADIAN. ) );
#117 = CIRCLE ( 'NONE', #154, 0.3749999999999999445 ) ;
#118 = EDGE_CURVE ( 'NONE', #270, #145, #117, .T. ) ;
#119 = DIRECTION ( 'NONE',  ( 1.000000000000000000, 0.000000000000000000, 0.000000000000000000 ) ) ;
#120 = LENGTH_MEASURE_WITH_UNIT ( LENGTH_MEASURE( 0.02539999999999999897 ), #259 );
#121 = EDGE_CURVE ( 'NONE', #14, #147, #291, .T. ) ;
#122 = ORIENTED_EDGE ( 'NONE', *, *, #121, .T. ) ;
#123 = CARTESIAN_POINT ( 'NONE',  ( 0.000000000000000000, 0.000000000000000000, 0.000000000000000000 ) ) ;
#124 = EDGE_CURVE ( 'NONE', #180, #287, #105, .T. ) ;
#125 = DIRECTION ( 'NONE',  ( 1.000000000000000000, 0.000000000000000000, -1.224646799147353207E-16 ) ) ;
#126 = PRESENTATION_LAYER_ASSIGNMENT (  '', '', ( #228 ) ) ;
#127 = AXIS2_PLACEMENT_3D ( 'NONE', #251, #108, #313 ) ;
#128 = DIRECTION ( 'NONE',  ( 0.000000000000000000, 0.000000000000000000, -1.000000000000000000 ) ) ;
#129 = FILL_AREA_STYLE ('',( #40 ) ) ;
#130 = VECTOR ( 'NONE', #49, 39.37007874015748143 ) ;
#131 = SPHERICAL_SURFACE ( 'NONE', #21, 0.3750000000000001110 ) ;
#132 = DIMENSIONAL_EXPONENTS ( 1.000000000000000000, 0.000000000000000000, 0.000000000000000000, 0.000000000000000000, 0.000000000000000000, 0.000000000000000000, 0.000000000000000000 ) ;
#133 = SURFACE_SIDE_STYLE ('',( #96 ) ) ;
#134 = DIRECTION ( 'NONE',  ( -1.000000000000000000, -1.740287556683080860E-16, 0.000000000000000000 ) ) ;
#135 = DIRECTION ( 'NONE',  ( 0.000000000000000000, 0.000000000000000000, -1.000000000000000000 ) ) ;
#136 = CARTESIAN_POINT ( 'NONE',  ( -0.3750000000000001110, 0.3750000000000001110, 4.592425496802574219E-17 ) ) ;
#137 = ORIENTED_EDGE ( 'NONE', *, *, #39, .T. ) ;
#138 = UNCERTAINTY_MEASURE_WITH_UNIT (LENGTH_MEASURE( 1.000000000000000082E-05 ), #115, 'distance_accuracy_value', 'NONE');
#139 = SURFACE_STYLE_USAGE ( .BOTH. , #81 ) ;
#140 = PRESENTATION_LAYER_ASSIGNMENT (  '', '', ( #206 ) ) ;
#141 = DIRECTION ( 'NONE',  ( -1.740287556683080860E-16, 1.000000000000000000, -0.000000000000000000 ) ) ;
#142 = AXIS2_PLACEMENT_3D ( 'NONE', #223, #141, #368 ) ;
#143 = PRESENTATION_STYLE_ASSIGNMENT (( #233 ) ) ;
#144 = VERTEX_POINT ( 'NONE', #54 ) ;
#145 = VERTEX_POINT ( 'NONE', #136 ) ;
#146 = FILL_AREA_STYLE ('',( #30 ) ) ;
#147 = VERTEX_POINT ( 'NONE', #19 ) ;
#148 = AXIS2_PLACEMENT_3D ( 'NONE', #179, #61, #256 ) ;
#149 = ADVANCED_FACE ( 'NONE', ( #79 ), #168, .T. ) ;
#150 = CARTESIAN_POINT ( 'NONE',  ( -0.3749999999999992784, 1.625000000000000000, 0.000000000000000000 ) ) ;
#151 = CARTESIAN_POINT ( 'NONE',  ( -0.3750000000000001110, 4.000000000000000000, 0.000000000000000000 ) ) ;
#152 = DIRECTION ( 'NONE',  ( 0.000000000000000000, -0.000000000000000000, 1.000000000000000000 ) ) ;
#153 = DIRECTION ( 'NONE',  ( 1.000000000000000000, 0.000000000000000000, 0.000000000000000000 ) ) ;
#154 = AXIS2_PLACEMENT_3D ( 'NONE', #28, #165, #112 ) ;
#155 =( LENGTH_UNIT ( ) NAMED_UNIT ( * ) SI_UNIT ( $, .METRE. ) );
#156 = LENGTH_MEASURE_WITH_UNIT ( LENGTH_MEASURE( 0.02539999999999999897 ), #301 );
#157 = ORIENTED_EDGE ( 'NONE', *, *, #205, .F. ) ;
#158 =( CONVERSION_BASED_UNIT ( 'INCH', #156 ) LENGTH_UNIT ( ) NAMED_UNIT ( #365 ) );
#159 = CARTESIAN_POINT ( 'NONE',  ( -4.592425496802576068E-17, 0.3750000000000001110, 0.000000000000000000 ) ) ;
#160 = DIMENSIONAL_EXPONENTS ( 1.000000000000000000, 0.000000000000000000, 0.000000000000000000, 0.000000000000000000, 0.000000000000000000, 0.000000000000000000, 0.000000000000000000 ) ;
#161 = STYLED_ITEM ( 'NONE', ( #290 ), #225 ) ;
#162 = DIRECTION ( 'NONE',  ( -1.000000000000000000, 0.000000000000000000, 0.000000000000000000 ) ) ;
#163 = SURFACE_STYLE_FILL_AREA ( #166 ) ;
#164 = AXIS2_PLACEMENT_3D ( 'NONE', #262, #172, #31 ) ;
#165 = DIRECTION ( 'NONE',  ( -0.000000000000000000, -1.000000000000000000, -0.000000000000000000 ) ) ;
#166 = FILL_AREA_STYLE ('',( #26 ) ) ;
#167 = UNCERTAINTY_MEASURE_WITH_UNIT (LENGTH_MEASURE( 1.000000000000000082E-05 ), #366, 'distance_accuracy_value', 'NONE');
#168 = CYLINDRICAL_SURFACE ( 'NONE', #142, 0.3749999999999997780 ) ;
#169 = ORIENTED_EDGE ( 'NONE', *, *, #276, .T. ) ;
#170 = VECTOR ( 'NONE', #215, 39.37007874015748143 ) ;
#171 = ADVANCED_FACE ( 'NONE', ( #103 ), #249, .F. ) ;
#172 = DIRECTION ( 'NONE',  ( -0.000000000000000000, -1.000000000000000000, -0.000000000000000000 ) ) ;
#173 = ORIENTED_EDGE ( 'NONE', *, *, #12, .T. ) ;
#174 = ADVANCED_BREP_SHAPE_REPRESENTATION ( '83302', ( #109, #231, #97 ), #74 ) ;
#175 = CARTESIAN_POINT ( 'NONE',  ( 2.908536147974964206E-16, 1.625000000000000000, 0.000000000000000000 ) ) ;
#176 = SURFACE_STYLE_FILL_AREA ( #265 ) ;
#177 =( NAMED_UNIT ( * ) SI_UNIT ( $, .STERADIAN. ) SOLID_ANGLE_UNIT ( ) );
#178 = CARTESIAN_POINT ( 'NONE',  ( -4.592425496802576068E-17, 0.3750000000000001110, 0.000000000000000000 ) ) ;
#179 = CARTESIAN_POINT ( 'NONE',  ( 0.000000000000000000, 1.625000000000000000, 0.000000000000000000 ) ) ;
#180 = VERTEX_POINT ( 'NONE', #197 ) ;
#181 = AXIS2_PLACEMENT_3D ( 'NONE', #294, #86, #33 ) ;
#182 = DIRECTION ( 'NONE',  ( -0.000000000000000000, -1.000000000000000000, -0.000000000000000000 ) ) ;
#183 = PRESENTATION_STYLE_ASSIGNMENT (( #308 ) ) ;
#184 = DIRECTION ( 'NONE',  ( -0.000000000000000000, -1.000000000000000000, -0.000000000000000000 ) ) ;
#185 = FILL_AREA_STYLE ('',( #348 ) ) ;
#186 =( CONVERSION_BASED_UNIT ( 'INCH', #101 ) LENGTH_UNIT ( ) NAMED_UNIT ( #160 ) );
#187 = EDGE_CURVE ( 'NONE', #255, #113, #299, .T. ) ;
#188 = ORIENTED_EDGE ( 'NONE', *, *, #250, .T. ) ;
#189 = SURFACE_SIDE_STYLE ('',( #212 ) ) ;
#190 = CLOSED_SHELL ( 'NONE', ( #95, #107, #303, #225, #23 ) ) ;
#191 = MECHANICAL_DESIGN_GEOMETRIC_PRESENTATION_REPRESENTATION (  '', ( #369 ), #202 ) ;
#192 = DIRECTION ( 'NONE',  ( -1.740287556683080860E-16, 1.000000000000000000, -0.000000000000000000 ) ) ;
#193 = LINE ( 'NONE', #311, #130 ) ;
#194 = FILL_AREA_STYLE_COLOUR ( '', #331 ) ;
#195 = ORIENTED_EDGE ( 'NONE', *, *, #15, .F. ) ;
#196 = COLOUR_RGB ( '',0.7921568627450980005, 0.8196078431372548767, 0.9333333333333333481 ) ;
#197 = CARTESIAN_POINT ( 'NONE',  ( 0.3749999999999998335, 1.625000000000000000, 4.592425496802573602E-17 ) ) ;
#198 = VERTEX_POINT ( 'NONE', #222 ) ;
#199 = CARTESIAN_POINT ( 'NONE',  ( -2.296212748401288034E-17, 0.000000000000000000, 0.000000000000000000 ) ) ;
#200 =( NAMED_UNIT ( * ) SI_UNIT ( $, .STERADIAN. ) SOLID_ANGLE_UNIT ( ) );
#201 = AXIS2_PLACEMENT_3D ( 'NONE', #178, #34, #119 ) ;
#202 =( GEOMETRIC_REPRESENTATION_CONTEXT ( 3 ) GLOBAL_UNCERTAINTY_ASSIGNED_CONTEXT ( ( #8 ) ) GLOBAL_UNIT_ASSIGNED_CONTEXT ( ( #325, #319, #177 ) ) REPRESENTATION_CONTEXT ( 'NONE', 'WORKASPACE' ) );
#203 = EDGE_LOOP ( 'NONE', ( #2, #69, #137, #157 ) ) ;
#204 = SURFACE_STYLE_FILL_AREA ( #343 ) ;
#205 = EDGE_CURVE ( 'NONE', #147, #14, #324, .T. ) ;
#206 = STYLED_ITEM ( 'NONE', ( #88 ), #23 ) ;
#207 = APPLICATION_CONTEXT ( 'automotive_design' ) ;
#208 = UNCERTAINTY_MEASURE_WITH_UNIT (LENGTH_MEASURE( 1.000000000000000082E-05 ), #186, 'distance_accuracy_value', 'NONE');
#209 =( CONVERSION_BASED_UNIT ( 'INCH', #288 ) LENGTH_UNIT ( ) NAMED_UNIT ( #87 ) );
#210 = ORIENTED_EDGE ( 'NONE', *, *, #106, .T. ) ;
#211 =( GEOMETRIC_REPRESENTATION_CONTEXT ( 3 ) GLOBAL_UNCERTAINTY_ASSIGNED_CONTEXT ( ( #279 ) ) GLOBAL_UNIT_ASSIGNED_CONTEXT ( ( #280, #24, #229 ) ) REPRESENTATION_CONTEXT ( 'NONE', 'WORKASPACE' ) );
#212 = SURFACE_STYLE_FILL_AREA ( #185 ) ;
#213 = CYLINDRICAL_SURFACE ( 'NONE', #266, 0.3749999999999997780 ) ;
#214 = CARTESIAN_POINT ( 'NONE',  ( 0.000000000000000000, 1.625000000000000000, 0.000000000000000000 ) ) ;
#215 = DIRECTION ( 'NONE',  ( -1.740287556683080860E-16, 1.000000000000000000, -0.000000000000000000 ) ) ;
#216 = PRODUCT_DEFINITION_SHAPE ( 'NONE', 'NONE',  #56 ) ;
#217 =( GEOMETRIC_REPRESENTATION_CONTEXT ( 3 ) GLOBAL_UNCERTAINTY_ASSIGNED_CONTEXT ( ( #208 ) ) GLOBAL_UNIT_ASSIGNED_CONTEXT ( ( #186, #307, #330 ) ) REPRESENTATION_CONTEXT ( 'NONE', 'WORKASPACE' ) );
#218 = DIRECTION ( 'NONE',  ( 0.000000000000000000, 0.000000000000000000, -1.000000000000000000 ) ) ;
#219 = EDGE_LOOP ( 'NONE', ( #261, #372 ) ) ;
#220 = CARTESIAN_POINT ( 'NONE',  ( -1.224646799147352714E-16, 4.000000000000000000, 0.000000000000000000 ) ) ;
#221 = EDGE_CURVE ( 'NONE', #180, #147, #193, .T. ) ;
#222 = CARTESIAN_POINT ( 'NONE',  ( 0.000000000000000000, 0.3750000000000001110, -0.3749999999999999445 ) ) ;
#223 = CARTESIAN_POINT ( 'NONE',  ( -1.224646799147352714E-16, 4.000000000000000000, 0.000000000000000000 ) ) ;
#224 = CARTESIAN_POINT ( 'NONE',  ( -4.592425496802576068E-17, 0.3750000000000001110, 0.000000000000000000 ) ) ;
#225 = ADVANCED_FACE ( 'NONE', ( #248 ), #370, .T. ) ;
#226 = CIRCLE ( 'NONE', #65, 0.3749999999999999445 ) ;
#227 = DIMENSIONAL_EXPONENTS ( 1.000000000000000000, 0.000000000000000000, 0.000000000000000000, 0.000000000000000000, 0.000000000000000000, 0.000000000000000000, 0.000000000000000000 ) ;
#228 = STYLED_ITEM ( 'NONE', ( #38 ), #303 ) ;
#229 =( NAMED_UNIT ( * ) SI_UNIT ( $, .STERADIAN. ) SOLID_ANGLE_UNIT ( ) );
#230 = SURFACE_STYLE_FILL_AREA ( #146 ) ;
#231 = MANIFOLD_SOLID_BREP ( 'Revolve - Tool Body (Straight Shanked)', #252 ) ;
#232 = CARTESIAN_POINT ( 'NONE',  ( -4.592425496802576068E-17, 0.3750000000000001110, 0.000000000000000000 ) ) ;
#233 = SURFACE_STYLE_USAGE ( .BOTH. , #235 ) ;
#234 = EDGE_LOOP ( 'NONE', ( #306, #173, #102, #357 ) ) ;
#235 = SURFACE_SIDE_STYLE ('',( #230 ) ) ;
#236 =( NAMED_UNIT ( * ) SI_UNIT ( $, .STERADIAN. ) SOLID_ANGLE_UNIT ( ) );
#237 = DIRECTION ( 'NONE',  ( -0.000000000000000000, -1.000000000000000000, -0.000000000000000000 ) ) ;
#238 = DIRECTION ( 'NONE',  ( 0.000000000000000000, 0.000000000000000000, 1.000000000000000000 ) ) ;
#239 = ORIENTED_EDGE ( 'NONE', *, *, #337, .F. ) ;
#240 = MECHANICAL_DESIGN_GEOMETRIC_PRESENTATION_REPRESENTATION (  '', ( #161 ), #346 ) ;
#241 = DIRECTION ( 'NONE',  ( 0.000000000000000000, 1.000000000000000000, 0.000000000000000000 ) ) ;
#242 = FILL_AREA_STYLE ('',( #300 ) ) ;
#243 = EDGE_CURVE ( 'NONE', #255, #270, #273, .T. ) ;
#244 = DIMENSIONAL_EXPONENTS ( 1.000000000000000000, 0.000000000000000000, 0.000000000000000000, 0.000000000000000000, 0.000000000000000000, 0.000000000000000000, 0.000000000000000000 ) ;
#245 = CARTESIAN_POINT ( 'NONE',  ( 0.3749999999999998335, 4.000000000000000000, 0.000000000000000000 ) ) ;
#246 = DIRECTION ( 'NONE',  ( -1.000000000000000000, 0.000000000000000000, 0.000000000000000000 ) ) ;
#247 = CIRCLE ( 'NONE', #148, 0.3749999999999998335 ) ;
#248 = FACE_OUTER_BOUND ( 'NONE', #25, .T. ) ;
#249 = PLANE ( 'NONE',  #35 ) ;
#250 = EDGE_CURVE ( 'NONE', #263, #144, #47, .T. ) ;
#251 = CARTESIAN_POINT ( 'NONE',  ( 0.000000000000000000, 0.000000000000000000, 0.000000000000000000 ) ) ;
#252 = CLOSED_SHELL ( 'NONE', ( #98, #171, #149, #323 ) ) ;
#253 = PRESENTATION_LAYER_ASSIGNMENT (  '', '', ( #369 ) ) ;
#254 = CARTESIAN_POINT ( 'NONE',  ( 2.908536147974964206E-16, 1.625000000000000000, 0.000000000000000000 ) ) ;
#255 = VERTEX_POINT ( 'NONE', #59 ) ;
#256 = DIRECTION ( 'NONE',  ( 0.000000000000000000, 0.000000000000000000, -1.000000000000000000 ) ) ;
#257 = ORIENTED_EDGE ( 'NONE', *, *, #205, .T. ) ;
#258 = UNCERTAINTY_MEASURE_WITH_UNIT (LENGTH_MEASURE( 1.000000000000000082E-05 ), #18, 'distance_accuracy_value', 'NONE');
#259 =( LENGTH_UNIT ( ) NAMED_UNIT ( * ) SI_UNIT ( $, .METRE. ) );
#260 = STYLED_ITEM ( 'NONE', ( #310 ), #109 ) ;
#261 = ORIENTED_EDGE ( 'NONE', *, *, #276, .F. ) ;
#262 = CARTESIAN_POINT ( 'NONE',  ( 0.000000000000000000, 0.000000000000000000, 0.000000000000000000 ) ) ;
#263 = VERTEX_POINT ( 'NONE', #320 ) ;
#264 = PRODUCT_CONTEXT ( 'NONE', #20, 'mechanical' ) ;
#265 = FILL_AREA_STYLE ('',( #91 ) ) ;
#266 = AXIS2_PLACEMENT_3D ( 'NONE', #220, #17, #162 ) ;
#267 =( NAMED_UNIT ( * ) PLANE_ANGLE_UNIT ( ) SI_UNIT ( $, .RADIAN. ) );
#268 = CARTESIAN_POINT ( 'NONE',  ( 0.000000000000000000, 0.3750000000000001110, 0.000000000000000000 ) ) ;
#269 = CYLINDRICAL_SURFACE ( 'NONE', #127, 0.3749999999999998890 ) ;
#270 = VERTEX_POINT ( 'NONE', #66 ) ;
#271 = PRESENTATION_LAYER_ASSIGNMENT (  '', '', ( #284 ) ) ;
#272 = FACE_OUTER_BOUND ( 'NONE', #353, .T. ) ;
#273 = CIRCLE ( 'NONE', #42, 0.3749999999999999445 ) ;
#274 = SURFACE_STYLE_USAGE ( .BOTH. , #133 ) ;
#275 = DIRECTION ( 'NONE',  ( -1.740287556683080860E-16, 1.000000000000000000, -0.000000000000000000 ) ) ;
#276 = EDGE_CURVE ( 'NONE', #144, #263, #247, .T. ) ;
#277 = DIRECTION ( 'NONE',  ( -1.740287556683080860E-16, 1.000000000000000000, -0.000000000000000000 ) ) ;
#278 = ORIENTED_EDGE ( 'NONE', *, *, #337, .T. ) ;
#279 = UNCERTAINTY_MEASURE_WITH_UNIT (LENGTH_MEASURE( 1.000000000000000082E-05 ), #280, 'distance_accuracy_value', 'NONE');
#280 =( CONVERSION_BASED_UNIT ( 'INCH', #339 ) LENGTH_UNIT ( ) NAMED_UNIT ( #281 ) );
#281 = DIMENSIONAL_EXPONENTS ( 1.000000000000000000, 0.000000000000000000, 0.000000000000000000, 0.000000000000000000, 0.000000000000000000, 0.000000000000000000, 0.000000000000000000 ) ;
#282 = EDGE_CURVE ( 'NONE', #287, #180, #29, .T. ) ;
#283 = CARTESIAN_POINT ( 'NONE',  ( -1.224646799147352468E-16, 4.000000000000000000, 0.000000000000000000 ) ) ;
#284 = STYLED_ITEM ( 'NONE', ( #183 ), #95 ) ;
#285 =( GEOMETRIC_REPRESENTATION_CONTEXT ( 3 ) GLOBAL_UNCERTAINTY_ASSIGNED_CONTEXT ( ( #258 ) ) GLOBAL_UNIT_ASSIGNED_CONTEXT ( ( #18, #302, #360 ) ) REPRESENTATION_CONTEXT ( 'NONE', 'WORKASPACE' ) );
#286 = CARTESIAN_POINT ( 'NONE',  ( 0.000000000000000000, 0.3750000000000001110, 0.000000000000000000 ) ) ;
#287 = VERTEX_POINT ( 'NONE', #150 ) ;
#288 = LENGTH_MEASURE_WITH_UNIT ( LENGTH_MEASURE( 0.02539999999999999897 ), #4 );
#289 = LINE ( 'NONE', #318, #367 ) ;
#290 = PRESENTATION_STYLE_ASSIGNMENT (( #63 ) ) ;
#291 = CIRCLE ( 'NONE', #341, 0.3749999999999999445 ) ;
#292 = DIRECTION ( 'NONE',  ( -1.740287556683080860E-16, 1.000000000000000000, -0.000000000000000000 ) ) ;
#293 = ORIENTED_EDGE ( 'NONE', *, *, #39, .F. ) ;
#294 = CARTESIAN_POINT ( 'NONE',  ( 0.000000000000000000, 1.625000000000000000, 0.000000000000000000 ) ) ;
#295 = EDGE_LOOP ( 'NONE', ( #169, #78, #64, #7, #349 ) ) ;
#296 = SHAPE_DEFINITION_REPRESENTATION ( #216, #174 ) ;
#297 = PRODUCT_DEFINITION_FORMATION_WITH_SPECIFIED_SOURCE ( 'ANY', '', #68, .NOT_KNOWN. ) ;
#298 = MECHANICAL_DESIGN_GEOMETRIC_PRESENTATION_REPRESENTATION (  '', ( #206 ), #355 ) ;
#299 = CIRCLE ( 'NONE', #312, 0.3750000000000001110 ) ;
#300 = FILL_AREA_STYLE_COLOUR ( '', #57 ) ;
#301 =( LENGTH_UNIT ( ) NAMED_UNIT ( * ) SI_UNIT ( $, .METRE. ) );
#302 =( NAMED_UNIT ( * ) PLANE_ANGLE_UNIT ( ) SI_UNIT ( $, .RADIAN. ) );
#303 = ADVANCED_FACE ( 'NONE', ( #1 ), #114, .T. ) ;
#304 =( NAMED_UNIT ( * ) SI_UNIT ( $, .STERADIAN. ) SOLID_ANGLE_UNIT ( ) );
#305 = FACE_OUTER_BOUND ( 'NONE', #295, .T. ) ;
#306 = ORIENTED_EDGE ( 'NONE', *, *, #118, .T. ) ;
#307 =( NAMED_UNIT ( * ) PLANE_ANGLE_UNIT ( ) SI_UNIT ( $, .RADIAN. ) );
#308 = SURFACE_STYLE_USAGE ( .BOTH. , #10 ) ;
#309 = AXIS2_PLACEMENT_3D ( 'NONE', #254, #277, #347 ) ;
#310 = PRESENTATION_STYLE_ASSIGNMENT (( #139 ) ) ;
#311 = CARTESIAN_POINT ( 'NONE',  ( 0.3749999999999996114, 4.000000000000000000, 4.592425496802571754E-17 ) ) ;
#312 = AXIS2_PLACEMENT_3D ( 'NONE', #224, #135, #371 ) ;
#313 = DIRECTION ( 'NONE',  ( 0.000000000000000000, 0.000000000000000000, -1.000000000000000000 ) ) ;
#314 =( LENGTH_UNIT ( ) NAMED_UNIT ( * ) SI_UNIT ( $, .METRE. ) );
#315 = EDGE_LOOP ( 'NONE', ( #5, #354 ) ) ;
#316 =( LENGTH_UNIT ( ) NAMED_UNIT ( * ) SI_UNIT ( $, .METRE. ) );
#317 = MECHANICAL_DESIGN_GEOMETRIC_PRESENTATION_REPRESENTATION (  '', ( #260 ), #211 ) ;
#318 = CARTESIAN_POINT ( 'NONE',  ( 4.592425496802572986E-17, 0.000000000000000000, 0.3749999999999998890 ) ) ;
#319 =( NAMED_UNIT ( * ) PLANE_ANGLE_UNIT ( ) SI_UNIT ( $, .RADIAN. ) );
#320 = CARTESIAN_POINT ( 'NONE',  ( 4.592425496802572986E-17, 1.625000000000000000, 0.3749999999999998335 ) ) ;
#321 = ORIENTED_EDGE ( 'NONE', *, *, #118, .F. ) ;
#322 = MECHANICAL_DESIGN_GEOMETRIC_PRESENTATION_REPRESENTATION (  '', ( #104 ), #285 ) ;
#323 = ADVANCED_FACE ( 'NONE', ( #75 ), #333, .F. ) ;
#324 = CIRCLE ( 'NONE', #71, 0.3749999999999999445 ) ;
#325 =( CONVERSION_BASED_UNIT ( 'INCH', #120 ) LENGTH_UNIT ( ) NAMED_UNIT ( #52 ) );
#326 = SURFACE_STYLE_USAGE ( .BOTH. , #94 ) ;
#327 = DIRECTION ( 'NONE',  ( -0.000000000000000000, -1.000000000000000000, -0.000000000000000000 ) ) ;
#328 = APPLICATION_PROTOCOL_DEFINITION ( 'draft international standard', 'automotive_design', 1998, #207 ) ;
#329 =( NAMED_UNIT ( * ) PLANE_ANGLE_UNIT ( ) SI_UNIT ( $, .RADIAN. ) );
#330 =( NAMED_UNIT ( * ) SI_UNIT ( $, .STERADIAN. ) SOLID_ANGLE_UNIT ( ) );
#331 = COLOUR_RGB ( '',1.000000000000000000, 0.000000000000000000, 0.000000000000000000 ) ;
#332 = LENGTH_MEASURE_WITH_UNIT ( LENGTH_MEASURE( 0.02539999999999999897 ), #48 );
#333 = PLANE ( 'NONE',  #50 ) ;
#334 = SURFACE_STYLE_FILL_AREA ( #129 ) ;
#335 = APPLICATION_PROTOCOL_DEFINITION ( 'draft international standard', 'automotive_design', 1998, #20 ) ;
#336 = CARTESIAN_POINT ( 'NONE',  ( -0.3749999999999998890, 4.000000000000000000, 0.000000000000000000 ) ) ;
#337 = EDGE_CURVE ( 'NONE', #145, #198, #361, .T. ) ;
#338 = AXIS2_PLACEMENT_3D ( 'NONE', #232, #62, #125 ) ;
#339 = LENGTH_MEASURE_WITH_UNIT ( LENGTH_MEASURE( 0.02539999999999999897 ), #314 );
#340 = MECHANICAL_DESIGN_GEOMETRIC_PRESENTATION_REPRESENTATION (  '', ( #228 ), #217 ) ;
#341 = AXIS2_PLACEMENT_3D ( 'NONE', #283, #275, #246 ) ;
#342 = CARTESIAN_POINT ( 'NONE',  ( -1.224646799147352468E-16, 4.000000000000000000, 0.000000000000000000 ) ) ;
#343 = FILL_AREA_STYLE ('',( #194 ) ) ;
#344 = PRODUCT_DEFINITION_CONTEXT ( 'detailed design', #207, 'design' ) ;
#345 = PRODUCT_RELATED_PRODUCT_CATEGORY ( 'part', '', ( #68 ) ) ;
#346 =( GEOMETRIC_REPRESENTATION_CONTEXT ( 3 ) GLOBAL_UNCERTAINTY_ASSIGNED_CONTEXT ( ( #27 ) ) GLOBAL_UNIT_ASSIGNED_CONTEXT ( ( #209, #116, #200 ) ) REPRESENTATION_CONTEXT ( 'NONE', 'WORKASPACE' ) );
#347 = DIRECTION ( 'NONE',  ( -1.000000000000000000, 0.000000000000000000, 0.000000000000000000 ) ) ;
#348 = FILL_AREA_STYLE_COLOUR ( '', #84 ) ;
#349 = ORIENTED_EDGE ( 'NONE', *, *, #80, .F. ) ;
#350 = COLOUR_RGB ( '',1.000000000000000000, 0.000000000000000000, 0.000000000000000000 ) ;
#351 = AXIS2_PLACEMENT_3D ( 'NONE', #214, #241, #152 ) ;
#352 = LINE ( 'NONE', #336, #170 ) ;
#353 = EDGE_LOOP ( 'NONE', ( #3, #82, #110, #293 ) ) ;
#354 = ORIENTED_EDGE ( 'NONE', *, *, #124, .F. ) ;
#355 =( GEOMETRIC_REPRESENTATION_CONTEXT ( 3 ) GLOBAL_UNCERTAINTY_ASSIGNED_CONTEXT ( ( #138 ) ) GLOBAL_UNIT_ASSIGNED_CONTEXT ( ( #115, #32, #236 ) ) REPRESENTATION_CONTEXT ( 'NONE', 'WORKASPACE' ) );
#356 = COLOUR_RGB ( '',0.7921568627450980005, 0.8196078431372548767, 0.9333333333333333481 ) ;
#357 = ORIENTED_EDGE ( 'NONE', *, *, #243, .T. ) ;
#358 = SURFACE_STYLE_USAGE ( .BOTH. , #189 ) ;
#359 =( LENGTH_UNIT ( ) NAMED_UNIT ( * ) SI_UNIT ( $, .METRE. ) );
#360 =( NAMED_UNIT ( * ) SI_UNIT ( $, .STERADIAN. ) SOLID_ANGLE_UNIT ( ) );
#361 = CIRCLE ( 'NONE', #92, 0.3749999999999999445 ) ;
#362 = CARTESIAN_POINT ( 'NONE',  ( 0.000000000000000000, 0.000000000000000000, -0.3749999999999998890 ) ) ;
#363 = FACE_OUTER_BOUND ( 'NONE', #234, .T. ) ;
#364 = EDGE_LOOP ( 'NONE', ( #122, #257 ) ) ;
#365 = DIMENSIONAL_EXPONENTS ( 1.000000000000000000, 0.000000000000000000, 0.000000000000000000, 0.000000000000000000, 0.000000000000000000, 0.000000000000000000, 0.000000000000000000 ) ;
#366 =( CONVERSION_BASED_UNIT ( 'INCH', #332 ) LENGTH_UNIT ( ) NAMED_UNIT ( #227 ) );
#367 = VECTOR ( 'NONE', #237, 39.37007874015748143 ) ;
#368 = DIRECTION ( 'NONE',  ( -1.000000000000000000, 0.000000000000000000, 0.000000000000000000 ) ) ;
#369 = STYLED_ITEM ( 'NONE', ( #143 ), #231 ) ;
#370 = CYLINDRICAL_SURFACE ( 'NONE', #164, 0.3749999999999998890 ) ;
#371 = DIRECTION ( 'NONE',  ( -1.000000000000000000, 0.000000000000000000, 0.000000000000000000 ) ) ;
#372 = ORIENTED_EDGE ( 'NONE', *, *, #250, .F. ) ;
#373 = PRESENTATION_LAYER_ASSIGNMENT (  '', '', ( #161 ) ) ;
ENDSEC;
END-ISO-10303-21;
