ISO-10303-21;
HEADER;
FILE_DESCRIPTION (( 'STEP AP214' ),
    '1' );
FILE_NAME ('Micro_KC-125-375-093.STEP',
    '2021-09-03T19:11:56',
    ( '' ),
    ( '' ),
    'SwSTEP 2.0',
    'SolidWorks 2020',
    '' );
FILE_SCHEMA (( 'AUTOMOTIVE_DESIGN' ));
ENDSEC;

DATA;
#1 = EDGE_CURVE ( 'NONE', #22, #342, #172, .T. ) ;
#2 = EDGE_CURVE ( 'NONE', #57, #229, #93, .T. ) ;
#3 = DIRECTION ( 'NONE',  ( -1.000000000000000000, 0.0000000000000000000, 0.0000000000000000000 ) ) ;
#4 = AXIS2_PLACEMENT_3D ( 'NONE', #20, #253, #372 ) ;
#5 = CARTESIAN_POINT ( 'NONE',  ( 0.0000000000000000000, 0.0000000000000000000, 0.09299999999999999933 ) ) ;
#6 = AXIS2_PLACEMENT_3D ( 'NONE', #197, #88, #139 ) ;
#7 = EDGE_LOOP ( 'NONE', ( #108, #44, #312, #127 ) ) ;
#8 = EDGE_CURVE ( 'NONE', #229, #255, #30, .T. ) ;
#9 = CYLINDRICAL_SURFACE ( 'NONE', #6, 0.06250000000000000000 ) ;
#10 = DIRECTION ( 'NONE',  ( -0.0000000000000000000, -0.0000000000000000000, -1.000000000000000000 ) ) ;
#11 = SHAPE_DEFINITION_REPRESENTATION ( #168, #320 ) ;
#12 = FACE_OUTER_BOUND ( 'NONE', #39, .T. ) ;
#13 = CIRCLE ( 'NONE', #340, 0.06250000000000000000 ) ;
#14 = ADVANCED_FACE ( 'NONE', ( #121 ), #167, .T. ) ;
#15 = EDGE_CURVE ( 'NONE', #288, #165, #109, .T. ) ;
#16 = FACE_OUTER_BOUND ( 'NONE', #124, .T. ) ;
#17 = FACE_OUTER_BOUND ( 'NONE', #7, .T. ) ;
#18 = DIRECTION ( 'NONE',  ( 0.0000000000000000000, 0.0000000000000000000, 1.000000000000000000 ) ) ;
#19 = CARTESIAN_POINT ( 'NONE',  ( 0.0000000000000000000, 0.0000000000000000000, 1.500000000000000222 ) ) ;
#20 = CARTESIAN_POINT ( 'NONE',  ( 0.0000000000000000000, 0.0000000000000000000, 1.500000000000000222 ) ) ;
#21 = DIRECTION ( 'NONE',  ( -0.0000000000000000000, -0.0000000000000000000, -1.000000000000000000 ) ) ;
#22 = VERTEX_POINT ( 'NONE', #200 ) ;
#23 = AXIS2_PLACEMENT_3D ( 'NONE', #43, #370, #187 ) ;
#24 = EDGE_LOOP ( 'NONE', ( #356, #297, #224, #191 ) ) ;
#25 =( CONVERSION_BASED_UNIT ( 'INCH', #331 ) LENGTH_UNIT ( ) NAMED_UNIT ( #254 ) );
#26 = ORIENTED_EDGE ( 'NONE', *, *, #51, .F. ) ;
#27 = VECTOR ( 'NONE', #303, 39.37007874015748143 ) ;
#28 = ORIENTED_EDGE ( 'NONE', *, *, #252, .T. ) ;
#29 = FACE_OUTER_BOUND ( 'NONE', #379, .T. ) ;
#30 = LINE ( 'NONE', #115, #270 ) ;
#31 = LINE ( 'NONE', #143, #171 ) ;
#32 = DIRECTION ( 'NONE',  ( 0.0000000000000000000, 0.0000000000000000000, -1.000000000000000000 ) ) ;
#33 = PRODUCT_RELATED_PRODUCT_CATEGORY ( 'part', '', ( #233 ) ) ;
#34 = DIRECTION ( 'NONE',  ( 0.0000000000000000000, 0.0000000000000000000, 1.000000000000000000 ) ) ;
#35 = CIRCLE ( 'NONE', #260, 0.04750000000000064587 ) ;
#36 = CARTESIAN_POINT ( 'NONE',  ( 0.0000000000000000000, 0.0000000000000000000, 0.0000000000000000000 ) ) ;
#37 = EDGE_LOOP ( 'NONE', ( #186, #157 ) ) ;
#38 = CARTESIAN_POINT ( 'NONE',  ( 0.06250000000000000000, 7.654042494670956004E-18, 0.4064999999999998059 ) ) ;
#39 = EDGE_LOOP ( 'NONE', ( #184, #132 ) ) ;
#40 = DIRECTION ( 'NONE',  ( -1.000000000000000000, 0.0000000000000000000, 0.0000000000000000000 ) ) ;
#41 = AXIS2_PLACEMENT_3D ( 'NONE', #338, #245, #175 ) ;
#42 = EDGE_LOOP ( 'NONE', ( #159, #211, #371, #261 ) ) ;
#43 = CARTESIAN_POINT ( 'NONE',  ( 0.0000000000000000000, 0.0000000000000000000, 1.500000000000000222 ) ) ;
#44 = ORIENTED_EDGE ( 'NONE', *, *, #1, .T. ) ;
#45 = DIRECTION ( 'NONE',  ( -1.000000000000000000, 0.0000000000000000000, 0.0000000000000000000 ) ) ;
#46 = ORIENTED_EDGE ( 'NONE', *, *, #262, .T. ) ;
#47 = CARTESIAN_POINT ( 'NONE',  ( 0.0000000000000000000, 0.0000000000000000000, 1.500000000000000222 ) ) ;
#48 = AXIS2_PLACEMENT_3D ( 'NONE', #326, #118, #333 ) ;
#49 = APPLICATION_CONTEXT ( 'automotive_design' ) ;
#50 = ORIENTED_EDGE ( 'NONE', *, *, #289, .T. ) ;
#51 = EDGE_CURVE ( 'NONE', #169, #189, #237, .T. ) ;
#52 = DIRECTION ( 'NONE',  ( 1.000000000000000000, 0.0000000000000000000, 0.0000000000000000000 ) ) ;
#53 =( CONVERSION_BASED_UNIT ( 'INCH', #199 ) LENGTH_UNIT ( ) NAMED_UNIT ( #309 ) );
#54 = DIRECTION ( 'NONE',  ( 1.000000000000000000, 0.0000000000000000000, 0.0000000000000000000 ) ) ;
#55 =( LENGTH_UNIT ( ) NAMED_UNIT ( * ) SI_UNIT ( $, .METRE. ) );
#56 = CIRCLE ( 'NONE', #376, 0.03100000000000005182 ) ;
#57 = VERTEX_POINT ( 'NONE', #177 ) ;
#58 =( NAMED_UNIT ( * ) PLANE_ANGLE_UNIT ( ) SI_UNIT ( $, .RADIAN. ) );
#59 = CARTESIAN_POINT ( 'NONE',  ( 0.03100000000000001019, 3.796405077356797321E-18, 0.09299999999999999933 ) ) ;
#60 =( CONVERSION_BASED_UNIT ( 'INCH', #68 ) LENGTH_UNIT ( ) NAMED_UNIT ( #149 ) );
#61 = EDGE_LOOP ( 'NONE', ( #80, #217, #193, #50 ) ) ;
#62 = DIRECTION ( 'NONE',  ( 0.0000000000000000000, 0.0000000000000000000, 1.000000000000000000 ) ) ;
#63 =( NAMED_UNIT ( * ) SI_UNIT ( $, .STERADIAN. ) SOLID_ANGLE_UNIT ( ) );
#64 = DIRECTION ( 'NONE',  ( 0.0000000000000000000, 0.0000000000000000000, 1.000000000000000000 ) ) ;
#65 = VECTOR ( 'NONE', #330, 39.37007874015748143 ) ;
#66 = AXIS2_PLACEMENT_3D ( 'NONE', #346, #234, #52 ) ;
#67 = DIRECTION ( 'NONE',  ( -0.0000000000000000000, -0.0000000000000000000, -1.000000000000000000 ) ) ;
#68 = LENGTH_MEASURE_WITH_UNIT ( LENGTH_MEASURE( 0.02539999999999999897 ), #215 );
#69 = VERTEX_POINT ( 'NONE', #241 ) ;
#70 = DIRECTION ( 'NONE',  ( 0.0000000000000000000, 0.0000000000000000000, -1.000000000000000000 ) ) ;
#71 = CONICAL_SURFACE ( 'NONE', #231, 0.04750000000000064587, 0.7853981633974457255 ) ;
#72 = ORIENTED_EDGE ( 'NONE', *, *, #2, .T. ) ;
#73 = EDGE_CURVE ( 'NONE', #69, #162, #85, .T. ) ;
#74 = LINE ( 'NONE', #154, #188 ) ;
#75 = EDGE_CURVE ( 'NONE', #229, #69, #263, .T. ) ;
#76 = EDGE_LOOP ( 'NONE', ( #155, #375, #101, #293 ) ) ;
#77 = DIRECTION ( 'NONE',  ( 0.0000000000000000000, 0.0000000000000000000, 1.000000000000000000 ) ) ;
#78 = ORIENTED_EDGE ( 'NONE', *, *, #258, .F. ) ;
#79 = FILL_AREA_STYLE_COLOUR ( '', #264 ) ;
#80 = ORIENTED_EDGE ( 'NONE', *, *, #196, .F. ) ;
#81 = CIRCLE ( 'NONE', #41, 0.06250000000000001388 ) ;
#82 = STYLED_ITEM ( 'NONE', ( #292 ), #369 ) ;
#83 = AXIS2_PLACEMENT_3D ( 'NONE', #221, #67, #106 ) ;
#84 = ORIENTED_EDGE ( 'NONE', *, *, #86, .F. ) ;
#85 = LINE ( 'NONE', #145, #65 ) ;
#86 = EDGE_CURVE ( 'NONE', #165, #288, #81, .T. ) ;
#87 = DIRECTION ( 'NONE',  ( -0.0000000000000000000, -0.0000000000000000000, -1.000000000000000000 ) ) ;
#88 = DIRECTION ( 'NONE',  ( -0.0000000000000000000, -0.0000000000000000000, -1.000000000000000000 ) ) ;
#89 = AXIS2_PLACEMENT_3D ( 'NONE', #299, #357, #305 ) ;
#90 = CARTESIAN_POINT ( 'NONE',  ( 0.03100000000000005182, 0.0000000000000000000, 0.3749999999999999445 ) ) ;
#91 = SURFACE_STYLE_FILL_AREA ( #123 ) ;
#92 = ORIENTED_EDGE ( 'NONE', *, *, #164, .T. ) ;
#93 = LINE ( 'NONE', #268, #195 ) ;
#94 = DIRECTION ( 'NONE',  ( -0.0000000000000000000, -0.0000000000000000000, -1.000000000000000000 ) ) ;
#95 = ORIENTED_EDGE ( 'NONE', *, *, #244, .F. ) ;
#96 = PLANE ( 'NONE',  #339 ) ;
#97 = AXIS2_PLACEMENT_3D ( 'NONE', #308, #120, #114 ) ;
#98 = ORIENTED_EDGE ( 'NONE', *, *, #73, .F. ) ;
#99 = CARTESIAN_POINT ( 'NONE',  ( 0.03100000000000003447, 3.796405077356798862E-18, 0.0000000000000000000 ) ) ;
#100 = CARTESIAN_POINT ( 'NONE',  ( -0.06250000000000001388, 0.0000000000000000000, 0.09299999999999999933 ) ) ;
#101 = ORIENTED_EDGE ( 'NONE', *, *, #73, .T. ) ;
#102 = PRODUCT_DEFINITION ( 'UNKNOWN', '', #135, #365 ) ;
#103 = UNCERTAINTY_MEASURE_WITH_UNIT (LENGTH_MEASURE( 1.000000000000000082E-05 ), #53, 'distance_accuracy_value', 'NONE');
#104 = DIRECTION ( 'NONE',  ( -1.000000000000000000, 0.0000000000000000000, 0.0000000000000000000 ) ) ;
#105 = CLOSED_SHELL ( 'NONE', ( #325, #208, #117, #201, #235, #239, #113, #14, #136, #228, #226, #152, #378 ) ) ;
#106 = DIRECTION ( 'NONE',  ( -1.000000000000000000, 0.0000000000000000000, 0.0000000000000000000 ) ) ;
#107 = SURFACE_SIDE_STYLE ('',( #194 ) ) ;
#108 = ORIENTED_EDGE ( 'NONE', *, *, #271, .F. ) ;
#109 = CIRCLE ( 'NONE', #354, 0.06250000000000001388 ) ;
#110 = ORIENTED_EDGE ( 'NONE', *, *, #252, .F. ) ;
#111 = SURFACE_STYLE_USAGE ( .BOTH. , #107 ) ;
#112 = AXIS2_PLACEMENT_3D ( 'NONE', #36, #347, #104 ) ;
#113 = ADVANCED_FACE ( 'NONE', ( #12 ), #238, .T. ) ;
#114 = DIRECTION ( 'NONE',  ( 1.000000000000000000, 0.0000000000000000000, 0.0000000000000000000 ) ) ;
#115 = CARTESIAN_POINT ( 'NONE',  ( 0.06250000000000000000, 7.654042494670956004E-18, 1.500000000000000222 ) ) ;
#116 = DIRECTION ( 'NONE',  ( -0.0000000000000000000, -0.0000000000000000000, -1.000000000000000000 ) ) ;
#117 = ADVANCED_FACE ( 'NONE', ( #16 ), #126, .T. ) ;
#118 = DIRECTION ( 'NONE',  ( -0.0000000000000000000, -0.0000000000000000000, -1.000000000000000000 ) ) ;
#119 = CARTESIAN_POINT ( 'NONE',  ( 0.06250000000000001388, 7.654042494670957545E-18, 0.09299999999999999933 ) ) ;
#120 = DIRECTION ( 'NONE',  ( 0.0000000000000000000, 0.0000000000000000000, 1.000000000000000000 ) ) ;
#121 = FACE_OUTER_BOUND ( 'NONE', #345, .T. ) ;
#122 = FACE_OUTER_BOUND ( 'NONE', #286, .T. ) ;
#123 = FILL_AREA_STYLE ('',( #79 ) ) ;
#124 = EDGE_LOOP ( 'NONE', ( #315, #321, #28, #236 ) ) ;
#125 = DIRECTION ( 'NONE',  ( -0.0000000000000000000, -0.0000000000000000000, -1.000000000000000000 ) ) ;
#126 = CONICAL_SURFACE ( 'NONE', #97, 0.03100000000000005182, 0.7853981633974496113 ) ;
#127 = ORIENTED_EDGE ( 'NONE', *, *, #334, .F. ) ;
#128 = CYLINDRICAL_SURFACE ( 'NONE', #294, 0.03100000000000003447 ) ;
#129 = CARTESIAN_POINT ( 'NONE',  ( 0.06250000000000000000, 7.654042494670956004E-18, 1.485000000000000764 ) ) ;
#130 = VECTOR ( 'NONE', #284, 39.37007874015748143 ) ;
#131 =( GEOMETRIC_REPRESENTATION_CONTEXT ( 3 ) GLOBAL_UNCERTAINTY_ASSIGNED_CONTEXT ( ( #160 ) ) GLOBAL_UNIT_ASSIGNED_CONTEXT ( ( #25, #58, #174 ) ) REPRESENTATION_CONTEXT ( 'NONE', 'WORKASPACE' ) );
#132 = ORIENTED_EDGE ( 'NONE', *, *, #275, .T. ) ;
#133 =( NAMED_UNIT ( * ) PLANE_ANGLE_UNIT ( ) SI_UNIT ( $, .RADIAN. ) );
#134 = EDGE_LOOP ( 'NONE', ( #310, #84 ) ) ;
#135 = PRODUCT_DEFINITION_FORMATION_WITH_SPECIFIED_SOURCE ( 'ANY', '', #233, .NOT_KNOWN. ) ;
#136 = ADVANCED_FACE ( 'NONE', ( #276 ), #290, .T. ) ;
#137 = DIRECTION ( 'NONE',  ( -1.000000000000000000, 0.0000000000000000000, 0.0000000000000000000 ) ) ;
#138 = CARTESIAN_POINT ( 'NONE',  ( 0.0000000000000000000, 0.0000000000000000000, 0.3749999999999999445 ) ) ;
#139 = DIRECTION ( 'NONE',  ( -1.000000000000000000, 0.0000000000000000000, 0.0000000000000000000 ) ) ;
#140 = MECHANICAL_DESIGN_GEOMETRIC_PRESENTATION_REPRESENTATION (  '', ( #213 ), #283 ) ;
#141 = DIRECTION ( 'NONE',  ( -1.000000000000000000, 0.0000000000000000000, 0.0000000000000000000 ) ) ;
#142 = DIRECTION ( 'NONE',  ( 1.000000000000000000, 0.0000000000000000000, 0.0000000000000000000 ) ) ;
#143 = CARTESIAN_POINT ( 'NONE',  ( -0.06250000000000000000, 0.0000000000000000000, 1.500000000000000222 ) ) ;
#144 = APPLICATION_PROTOCOL_DEFINITION ( 'draft international standard', 'automotive_design', 1998, #49 ) ;
#145 = CARTESIAN_POINT ( 'NONE',  ( -0.06250000000000000000, 0.0000000000000000000, 1.500000000000000222 ) ) ;
#146 = VECTOR ( 'NONE', #182, 39.37007874015748143 ) ;
#147 = AXIS2_PLACEMENT_3D ( 'NONE', #47, #352, #137 ) ;
#148 = PLANE ( 'NONE',  #353 ) ;
#149 = DIMENSIONAL_EXPONENTS ( 1.000000000000000000, 0.0000000000000000000, 0.0000000000000000000, 0.0000000000000000000, 0.0000000000000000000, 0.0000000000000000000, 0.0000000000000000000 ) ;
#150 = DIRECTION ( 'NONE',  ( 1.000000000000000000, 0.0000000000000000000, 0.0000000000000000000 ) ) ;
#151 = DIRECTION ( 'NONE',  ( 1.000000000000000000, 0.0000000000000000000, 0.0000000000000000000 ) ) ;
#152 = ADVANCED_FACE ( 'NONE', ( #209 ), #148, .F. ) ;
#153 = LINE ( 'NONE', #99, #130 ) ;
#154 = CARTESIAN_POINT ( 'NONE',  ( -0.03100000000000005182, 3.796405077356801173E-18, 0.3749999999999999445 ) ) ;
#155 = ORIENTED_EDGE ( 'NONE', *, *, #8, .F. ) ;
#156 = CARTESIAN_POINT ( 'NONE',  ( 0.0000000000000000000, 0.0000000000000000000, 0.3749999999999999445 ) ) ;
#157 = ORIENTED_EDGE ( 'NONE', *, *, #334, .T. ) ;
#158 = CARTESIAN_POINT ( 'NONE',  ( 0.0000000000000000000, 0.0000000000000000000, 0.0000000000000000000 ) ) ;
#159 = ORIENTED_EDGE ( 'NONE', *, *, #246, .T. ) ;
#160 = UNCERTAINTY_MEASURE_WITH_UNIT (LENGTH_MEASURE( 1.000000000000000082E-05 ), #25, 'distance_accuracy_value', 'NONE');
#161 = CIRCLE ( 'NONE', #83, 0.03100000000000001019 ) ;
#162 = VERTEX_POINT ( 'NONE', #278 ) ;
#163 = LINE ( 'NONE', #269, #27 ) ;
#164 = EDGE_CURVE ( 'NONE', #288, #189, #31, .T. ) ;
#165 = VERTEX_POINT ( 'NONE', #119 ) ;
#166 = EDGE_CURVE ( 'NONE', #22, #255, #361, .T. ) ;
#167 = CONICAL_SURFACE ( 'NONE', #222, 0.04750000000000064587, 0.7853981633974457255 ) ;
#168 = PRODUCT_DEFINITION_SHAPE ( 'NONE', 'NONE',  #102 ) ;
#169 = VERTEX_POINT ( 'NONE', #336 ) ;
#170 = FILL_AREA_STYLE_COLOUR ( '', #295 ) ;
#171 = VECTOR ( 'NONE', #10, 39.37007874015748143 ) ;
#172 = CIRCLE ( 'NONE', #204, 0.03100000000000005182 ) ;
#173 = DIRECTION ( 'NONE',  ( 1.000000000000000000, 0.0000000000000000000, -0.0000000000000000000 ) ) ;
#174 =( NAMED_UNIT ( * ) SI_UNIT ( $, .STERADIAN. ) SOLID_ANGLE_UNIT ( ) );
#175 = DIRECTION ( 'NONE',  ( -1.000000000000000000, 0.0000000000000000000, 0.0000000000000000000 ) ) ;
#176 = VERTEX_POINT ( 'NONE', #59 ) ;
#177 = CARTESIAN_POINT ( 'NONE',  ( 0.04750000000000064587, 6.735557395310482421E-18, 1.500000000000000222 ) ) ;
#178 = CARTESIAN_POINT ( 'NONE',  ( 0.0000000000000000000, 0.0000000000000000000, 0.0000000000000000000 ) ) ;
#179 = CIRCLE ( 'NONE', #4, 0.04750000000000064587 ) ;
#180 = CARTESIAN_POINT ( 'NONE',  ( 0.0000000000000000000, 0.0000000000000000000, 0.0000000000000000000 ) ) ;
#181 = ORIENTED_EDGE ( 'NONE', *, *, #360, .T. ) ;
#182 = DIRECTION ( 'NONE',  ( -0.0000000000000000000, -0.0000000000000000000, -1.000000000000000000 ) ) ;
#183 = PRESENTATION_STYLE_ASSIGNMENT (( #306 ) ) ;
#184 = ORIENTED_EDGE ( 'NONE', *, *, #258, .T. ) ;
#185 = DIRECTION ( 'NONE',  ( -0.0000000000000000000, -0.0000000000000000000, -1.000000000000000000 ) ) ;
#186 = ORIENTED_EDGE ( 'NONE', *, *, #265, .T. ) ;
#187 = DIRECTION ( 'NONE',  ( -1.000000000000000000, 0.0000000000000000000, 0.0000000000000000000 ) ) ;
#188 = VECTOR ( 'NONE', #281, 39.37007874015748143 ) ;
#189 = VERTEX_POINT ( 'NONE', #304 ) ;
#190 = FACE_OUTER_BOUND ( 'NONE', #134, .T. ) ;
#191 = ORIENTED_EDGE ( 'NONE', *, *, #164, .F. ) ;
#192 = FACE_OUTER_BOUND ( 'NONE', #328, .T. ) ;
#193 = ORIENTED_EDGE ( 'NONE', *, *, #166, .T. ) ;
#194 = SURFACE_STYLE_FILL_AREA ( #359 ) ;
#195 = VECTOR ( 'NONE', #202, 39.37007874015748143 ) ;
#196 = EDGE_CURVE ( 'NONE', #342, #162, #74, .T. ) ;
#197 = CARTESIAN_POINT ( 'NONE',  ( 0.0000000000000000000, 0.0000000000000000000, 1.500000000000000222 ) ) ;
#198 = CIRCLE ( 'NONE', #367, 0.06250000000000000000 ) ;
#199 = LENGTH_MEASURE_WITH_UNIT ( LENGTH_MEASURE( 0.02539999999999999897 ), #55 );
#200 = CARTESIAN_POINT ( 'NONE',  ( 0.03100000000000005182, 0.0000000000000000000, 0.3749999999999999445 ) ) ;
#201 = ADVANCED_FACE ( 'NONE', ( #192 ), #71, .T. ) ;
#202 = DIRECTION ( 'NONE',  ( 0.7071067811865456854, 8.659560562354911904E-17, -0.7071067811865493491 ) ) ;
#203 =( LENGTH_UNIT ( ) NAMED_UNIT ( * ) SI_UNIT ( $, .METRE. ) );
#204 = AXIS2_PLACEMENT_3D ( 'NONE', #242, #337, #332 ) ;
#205 = AXIS2_PLACEMENT_3D ( 'NONE', #180, #62, #210 ) ;
#206 = DIRECTION ( 'NONE',  ( 0.7071067811865484609, 0.0000000000000000000, 0.7071067811865465735 ) ) ;
#207 = EDGE_LOOP ( 'NONE', ( #227, #26 ) ) ;
#208 = ADVANCED_FACE ( 'NONE', ( #279 ), #344, .T. ) ;
#209 = FACE_OUTER_BOUND ( 'NONE', #207, .T. ) ;
#210 = DIRECTION ( 'NONE',  ( 1.000000000000000000, 0.0000000000000000000, 0.0000000000000000000 ) ) ;
#211 = ORIENTED_EDGE ( 'NONE', *, *, #271, .T. ) ;
#212 = CIRCLE ( 'NONE', #48, 0.06250000000000000000 ) ;
#213 = STYLED_ITEM ( 'NONE', ( #183 ), #320 ) ;
#214 = LINE ( 'NONE', #341, #230 ) ;
#215 =( LENGTH_UNIT ( ) NAMED_UNIT ( * ) SI_UNIT ( $, .METRE. ) );
#216 = CARTESIAN_POINT ( 'NONE',  ( 0.0000000000000000000, 0.0000000000000000000, 1.500000000000000222 ) ) ;
#217 = ORIENTED_EDGE ( 'NONE', *, *, #1, .F. ) ;
#218 = DIRECTION ( 'NONE',  ( -1.000000000000000000, 0.0000000000000000000, 0.0000000000000000000 ) ) ;
#219 = CYLINDRICAL_SURFACE ( 'NONE', #147, 0.06250000000000000000 ) ;
#220 = ORIENTED_EDGE ( 'NONE', *, *, #8, .T. ) ;
#221 = CARTESIAN_POINT ( 'NONE',  ( 0.0000000000000000000, 0.0000000000000000000, 0.09299999999999999933 ) ) ;
#222 = AXIS2_PLACEMENT_3D ( 'NONE', #248, #32, #141 ) ;
#223 = MECHANICAL_DESIGN_GEOMETRIC_PRESENTATION_REPRESENTATION (  '', ( #82 ), #324 ) ;
#224 = ORIENTED_EDGE ( 'NONE', *, *, #51, .T. ) ;
#225 = LINE ( 'NONE', #250, #146 ) ;
#226 = ADVANCED_FACE ( 'NONE', ( #377, #190 ), #96, .T. ) ;
#227 = ORIENTED_EDGE ( 'NONE', *, *, #360, .F. ) ;
#228 = ADVANCED_FACE ( 'NONE', ( #17 ), #128, .T. ) ;
#229 = VERTEX_POINT ( 'NONE', #129 ) ;
#230 = VECTOR ( 'NONE', #251, 39.37007874015748143 ) ;
#231 = AXIS2_PLACEMENT_3D ( 'NONE', #19, #70, #218 ) ;
#232 = CIRCLE ( 'NONE', #66, 0.06250000000000000000 ) ;
#233 = PRODUCT ( 'Micro_KC-125-375-093', 'Micro_KC-125-375-093', '', ( #280 ) ) ;
#234 = DIRECTION ( 'NONE',  ( 0.0000000000000000000, 0.0000000000000000000, -1.000000000000000000 ) ) ;
#235 = ADVANCED_FACE ( 'NONE', ( #122 ), #316, .T. ) ;
#236 = ORIENTED_EDGE ( 'NONE', *, *, #166, .F. ) ;
#237 = CIRCLE ( 'NONE', #205, 0.06250000000000000000 ) ;
#238 = PLANE ( 'NONE',  #300 ) ;
#239 = ADVANCED_FACE ( 'NONE', ( #287 ), #285, .T. ) ;
#240 = CARTESIAN_POINT ( 'NONE',  ( -0.03100000000000005182, 5.725223786013878974E-18, 0.3749999999999999445 ) ) ;
#241 = CARTESIAN_POINT ( 'NONE',  ( -0.06250000000000000000, 0.0000000000000000000, 1.485000000000000764 ) ) ;
#242 = CARTESIAN_POINT ( 'NONE',  ( 0.0000000000000000000, 0.0000000000000000000, 0.3749999999999999445 ) ) ;
#243 = PRESENTATION_LAYER_ASSIGNMENT (  '', '', ( #213 ) ) ;
#244 = EDGE_CURVE ( 'NONE', #165, #169, #225, .T. ) ;
#245 = DIRECTION ( 'NONE',  ( -0.0000000000000000000, -0.0000000000000000000, -1.000000000000000000 ) ) ;
#246 = EDGE_CURVE ( 'NONE', #342, #22, #56, .T. ) ;
#247 = UNCERTAINTY_MEASURE_WITH_UNIT (LENGTH_MEASURE( 1.000000000000000082E-05 ), #60, 'distance_accuracy_value', 'NONE');
#248 = CARTESIAN_POINT ( 'NONE',  ( 0.0000000000000000000, 0.0000000000000000000, 1.500000000000000222 ) ) ;
#249 = VERTEX_POINT ( 'NONE', #366 ) ;
#250 = CARTESIAN_POINT ( 'NONE',  ( 0.06250000000000000000, 7.654042494670956004E-18, 1.500000000000000222 ) ) ;
#251 = DIRECTION ( 'NONE',  ( -0.7071067811865456854, 0.0000000000000000000, -0.7071067811865493491 ) ) ;
#252 = EDGE_CURVE ( 'NONE', #162, #255, #198, .T. ) ;
#253 = DIRECTION ( 'NONE',  ( 0.0000000000000000000, 0.0000000000000000000, 1.000000000000000000 ) ) ;
#254 = DIMENSIONAL_EXPONENTS ( 1.000000000000000000, 0.0000000000000000000, 0.0000000000000000000, 0.0000000000000000000, 0.0000000000000000000, 0.0000000000000000000, 0.0000000000000000000 ) ;
#255 = VERTEX_POINT ( 'NONE', #38 ) ;
#256 = DIRECTION ( 'NONE',  ( 1.000000000000000000, 0.0000000000000000000, 0.0000000000000000000 ) ) ;
#257 = ORIENTED_EDGE ( 'NONE', *, *, #262, .F. ) ;
#258 = EDGE_CURVE ( 'NONE', #249, #57, #35, .T. ) ;
#259 = CARTESIAN_POINT ( 'NONE',  ( 0.0000000000000000000, 0.0000000000000000000, 1.500000000000000222 ) ) ;
#260 = AXIS2_PLACEMENT_3D ( 'NONE', #259, #374, #150 ) ;
#261 = ORIENTED_EDGE ( 'NONE', *, *, #355, .F. ) ;
#262 = EDGE_CURVE ( 'NONE', #249, #69, #214, .T. ) ;
#263 = CIRCLE ( 'NONE', #89, 0.06250000000000000000 ) ;
#264 = COLOUR_RGB ( '',0.7921568627450980005, 0.8196078431372548767, 0.9333333333333333481 ) ;
#265 = EDGE_CURVE ( 'NONE', #348, #176, #161, .T. ) ;
#266 = ORIENTED_EDGE ( 'NONE', *, *, #275, .F. ) ;
#267 = FACE_OUTER_BOUND ( 'NONE', #24, .T. ) ;
#268 = CARTESIAN_POINT ( 'NONE',  ( 0.04750000000000064587, 5.817072295950006528E-18, 1.500000000000000222 ) ) ;
#269 = CARTESIAN_POINT ( 'NONE',  ( -0.03100000000000003447, 0.0000000000000000000, 0.0000000000000000000 ) ) ;
#270 = VECTOR ( 'NONE', #87, 39.37007874015748143 ) ;
#271 = EDGE_CURVE ( 'NONE', #22, #176, #153, .T. ) ;
#272 = CARTESIAN_POINT ( 'NONE',  ( 0.0000000000000000000, 0.0000000000000000000, 0.0000000000000000000 ) ) ;
#273 =( NAMED_UNIT ( * ) SI_UNIT ( $, .STERADIAN. ) SOLID_ANGLE_UNIT ( ) );
#274 = DIRECTION ( 'NONE',  ( 0.0000000000000000000, 0.0000000000000000000, 1.000000000000000000 ) ) ;
#275 = EDGE_CURVE ( 'NONE', #57, #249, #179, .T. ) ;
#276 = FACE_OUTER_BOUND ( 'NONE', #61, .T. ) ;
#277 = AXIS2_PLACEMENT_3D ( 'NONE', #216, #185, #313 ) ;
#278 = CARTESIAN_POINT ( 'NONE',  ( -0.06250000000000000000, 0.0000000000000000000, 0.4064999999999998059 ) ) ;
#279 = FACE_OUTER_BOUND ( 'NONE', #42, .T. ) ;
#280 = PRODUCT_CONTEXT ( 'NONE', #335, 'mechanical' ) ;
#281 = DIRECTION ( 'NONE',  ( -0.7071067811865484609, 8.659560562354943952E-17, 0.7071067811865465735 ) ) ;
#282 = SURFACE_SIDE_STYLE ('',( #91 ) ) ;
#283 =( GEOMETRIC_REPRESENTATION_CONTEXT ( 3 ) GLOBAL_UNCERTAINTY_ASSIGNED_CONTEXT ( ( #247 ) ) GLOBAL_UNIT_ASSIGNED_CONTEXT ( ( #60, #314, #63 ) ) REPRESENTATION_CONTEXT ( 'NONE', 'WORKASPACE' ) );
#284 = DIRECTION ( 'NONE',  ( -0.0000000000000000000, -0.0000000000000000000, -1.000000000000000000 ) ) ;
#285 = CYLINDRICAL_SURFACE ( 'NONE', #23, 0.06250000000000000000 ) ;
#286 = EDGE_LOOP ( 'NONE', ( #364, #220, #110, #98 ) ) ;
#287 = FACE_OUTER_BOUND ( 'NONE', #76, .T. ) ;
#288 = VERTEX_POINT ( 'NONE', #100 ) ;
#289 = EDGE_CURVE ( 'NONE', #255, #162, #212, .T. ) ;
#290 = CONICAL_SURFACE ( 'NONE', #362, 0.03100000000000005182, 0.7853981633974496113 ) ;
#291 = AXIS2_PLACEMENT_3D ( 'NONE', #327, #116, #3 ) ;
#292 = PRESENTATION_STYLE_ASSIGNMENT (( #111 ) ) ;
#293 = ORIENTED_EDGE ( 'NONE', *, *, #289, .F. ) ;
#294 = AXIS2_PLACEMENT_3D ( 'NONE', #158, #125, #45 ) ;
#295 = COLOUR_RGB ( '',0.7921568627450980005, 0.8196078431372548767, 0.9333333333333333481 ) ;
#296 = DIRECTION ( 'NONE',  ( 0.0000000000000000000, 0.0000000000000000000, 1.000000000000000000 ) ) ;
#297 = ORIENTED_EDGE ( 'NONE', *, *, #244, .T. ) ;
#298 = APPLICATION_PROTOCOL_DEFINITION ( 'draft international standard', 'automotive_design', 1998, #335 ) ;
#299 = CARTESIAN_POINT ( 'NONE',  ( 0.0000000000000000000, 0.0000000000000000000, 1.485000000000000764 ) ) ;
#300 = AXIS2_PLACEMENT_3D ( 'NONE', #358, #64, #173 ) ;
#301 = CIRCLE ( 'NONE', #291, 0.03100000000000001019 ) ;
#302 = DIRECTION ( 'NONE',  ( 1.000000000000000000, 0.0000000000000000000, -0.0000000000000000000 ) ) ;
#303 = DIRECTION ( 'NONE',  ( -0.0000000000000000000, -0.0000000000000000000, -1.000000000000000000 ) ) ;
#304 = CARTESIAN_POINT ( 'NONE',  ( -0.06250000000000000000, 0.0000000000000000000, 0.0000000000000000000 ) ) ;
#305 = DIRECTION ( 'NONE',  ( 1.000000000000000000, 0.0000000000000000000, 0.0000000000000000000 ) ) ;
#306 = SURFACE_STYLE_USAGE ( .BOTH. , #282 ) ;
#307 = PRESENTATION_LAYER_ASSIGNMENT (  '', '', ( #82 ) ) ;
#308 = CARTESIAN_POINT ( 'NONE',  ( 0.0000000000000000000, 0.0000000000000000000, 0.3749999999999999445 ) ) ;
#309 = DIMENSIONAL_EXPONENTS ( 1.000000000000000000, 0.0000000000000000000, 0.0000000000000000000, 0.0000000000000000000, 0.0000000000000000000, 0.0000000000000000000, 0.0000000000000000000 ) ;
#310 = ORIENTED_EDGE ( 'NONE', *, *, #15, .F. ) ;
#311 = DIRECTION ( 'NONE',  ( 1.000000000000000000, 0.0000000000000000000, -0.0000000000000000000 ) ) ;
#312 = ORIENTED_EDGE ( 'NONE', *, *, #355, .T. ) ;
#313 = DIRECTION ( 'NONE',  ( -1.000000000000000000, 0.0000000000000000000, 0.0000000000000000000 ) ) ;
#314 =( NAMED_UNIT ( * ) PLANE_ANGLE_UNIT ( ) SI_UNIT ( $, .RADIAN. ) );
#315 = ORIENTED_EDGE ( 'NONE', *, *, #246, .F. ) ;
#316 = CYLINDRICAL_SURFACE ( 'NONE', #277, 0.06250000000000000000 ) ;
#317 = CARTESIAN_POINT ( 'NONE',  ( 0.06250000000000001388, 0.0000000000000000000, 0.09299999999999999933 ) ) ;
#318 = EDGE_CURVE ( 'NONE', #69, #229, #232, .T. ) ;
#319 = ORIENTED_EDGE ( 'NONE', *, *, #86, .T. ) ;
#320 = ADVANCED_BREP_SHAPE_REPRESENTATION ( 'Micro_KC-125-375-093', ( #369, #368 ), #131 ) ;
#321 = ORIENTED_EDGE ( 'NONE', *, *, #196, .T. ) ;
#322 = CARTESIAN_POINT ( 'NONE',  ( -0.03100000000000001019, 0.0000000000000000000, 0.09299999999999999933 ) ) ;
#323 = VECTOR ( 'NONE', #206, 39.37007874015748143 ) ;
#324 =( GEOMETRIC_REPRESENTATION_CONTEXT ( 3 ) GLOBAL_UNCERTAINTY_ASSIGNED_CONTEXT ( ( #103 ) ) GLOBAL_UNIT_ASSIGNED_CONTEXT ( ( #53, #133, #273 ) ) REPRESENTATION_CONTEXT ( 'NONE', 'WORKASPACE' ) );
#325 = ADVANCED_FACE ( 'NONE', ( #267 ), #219, .T. ) ;
#326 = CARTESIAN_POINT ( 'NONE',  ( 0.0000000000000000000, 0.0000000000000000000, 0.4064999999999998059 ) ) ;
#327 = CARTESIAN_POINT ( 'NONE',  ( 0.0000000000000000000, 0.0000000000000000000, 0.09299999999999999933 ) ) ;
#328 = EDGE_LOOP ( 'NONE', ( #266, #72, #373, #257 ) ) ;
#329 = CARTESIAN_POINT ( 'NONE',  ( 0.0000000000000000000, 0.0000000000000000000, 0.0000000000000000000 ) ) ;
#330 = DIRECTION ( 'NONE',  ( -0.0000000000000000000, -0.0000000000000000000, -1.000000000000000000 ) ) ;
#331 = LENGTH_MEASURE_WITH_UNIT ( LENGTH_MEASURE( 0.02539999999999999897 ), #203 );
#332 = DIRECTION ( 'NONE',  ( -1.000000000000000000, 0.0000000000000000000, 0.0000000000000000000 ) ) ;
#333 = DIRECTION ( 'NONE',  ( 1.000000000000000000, 0.0000000000000000000, 0.0000000000000000000 ) ) ;
#334 = EDGE_CURVE ( 'NONE', #176, #348, #301, .T. ) ;
#335 = APPLICATION_CONTEXT ( 'automotive_design' ) ;
#336 = CARTESIAN_POINT ( 'NONE',  ( 0.06250000000000000000, 7.654042494670956004E-18, 0.0000000000000000000 ) ) ;
#337 = DIRECTION ( 'NONE',  ( -0.0000000000000000000, -0.0000000000000000000, -1.000000000000000000 ) ) ;
#338 = CARTESIAN_POINT ( 'NONE',  ( 0.0000000000000000000, 0.0000000000000000000, 0.09299999999999999933 ) ) ;
#339 = AXIS2_PLACEMENT_3D ( 'NONE', #317, #77, #311 ) ;
#340 = AXIS2_PLACEMENT_3D ( 'NONE', #329, #296, #142 ) ;
#341 = CARTESIAN_POINT ( 'NONE',  ( -0.04750000000000064587, 0.0000000000000000000, 1.500000000000000222 ) ) ;
#342 = VERTEX_POINT ( 'NONE', #240 ) ;
#343 = CARTESIAN_POINT ( 'NONE',  ( 0.0000000000000000000, 0.0000000000000000000, 0.4064999999999998059 ) ) ;
#344 = CYLINDRICAL_SURFACE ( 'NONE', #112, 0.03100000000000003447 ) ;
#345 = EDGE_LOOP ( 'NONE', ( #351, #78, #46, #350 ) ) ;
#346 = CARTESIAN_POINT ( 'NONE',  ( 0.0000000000000000000, 0.0000000000000000000, 1.485000000000000764 ) ) ;
#347 = DIRECTION ( 'NONE',  ( -0.0000000000000000000, -0.0000000000000000000, -1.000000000000000000 ) ) ;
#348 = VERTEX_POINT ( 'NONE', #322 ) ;
#349 = DIRECTION ( 'NONE',  ( -0.0000000000000000000, -0.0000000000000000000, -1.000000000000000000 ) ) ;
#350 = ORIENTED_EDGE ( 'NONE', *, *, #75, .F. ) ;
#351 = ORIENTED_EDGE ( 'NONE', *, *, #2, .F. ) ;
#352 = DIRECTION ( 'NONE',  ( -0.0000000000000000000, -0.0000000000000000000, -1.000000000000000000 ) ) ;
#353 = AXIS2_PLACEMENT_3D ( 'NONE', #272, #274, #302 ) ;
#354 = AXIS2_PLACEMENT_3D ( 'NONE', #5, #94, #363 ) ;
#355 = EDGE_CURVE ( 'NONE', #342, #348, #163, .T. ) ;
#356 = ORIENTED_EDGE ( 'NONE', *, *, #15, .T. ) ;
#357 = DIRECTION ( 'NONE',  ( 0.0000000000000000000, 0.0000000000000000000, -1.000000000000000000 ) ) ;
#358 = CARTESIAN_POINT ( 'NONE',  ( 0.0000000000000000000, 0.0000000000000000000, 1.500000000000000222 ) ) ;
#359 = FILL_AREA_STYLE ('',( #170 ) ) ;
#360 = EDGE_CURVE ( 'NONE', #189, #169, #13, .T. ) ;
#361 = LINE ( 'NONE', #90, #323 ) ;
#362 = AXIS2_PLACEMENT_3D ( 'NONE', #138, #34, #54 ) ;
#363 = DIRECTION ( 'NONE',  ( -1.000000000000000000, 0.0000000000000000000, 0.0000000000000000000 ) ) ;
#364 = ORIENTED_EDGE ( 'NONE', *, *, #318, .T. ) ;
#365 = PRODUCT_DEFINITION_CONTEXT ( 'detailed design', #49, 'design' ) ;
#366 = CARTESIAN_POINT ( 'NONE',  ( -0.04750000000000064587, 0.0000000000000000000, 1.500000000000000222 ) ) ;
#367 = AXIS2_PLACEMENT_3D ( 'NONE', #343, #21, #256 ) ;
#368 = AXIS2_PLACEMENT_3D ( 'NONE', #178, #18, #151 ) ;
#369 = MANIFOLD_SOLID_BREP ( 'Cut-Revolve1', #105 ) ;
#370 = DIRECTION ( 'NONE',  ( -0.0000000000000000000, -0.0000000000000000000, -1.000000000000000000 ) ) ;
#371 = ORIENTED_EDGE ( 'NONE', *, *, #265, .F. ) ;
#372 = DIRECTION ( 'NONE',  ( 1.000000000000000000, 0.0000000000000000000, 0.0000000000000000000 ) ) ;
#373 = ORIENTED_EDGE ( 'NONE', *, *, #318, .F. ) ;
#374 = DIRECTION ( 'NONE',  ( 0.0000000000000000000, 0.0000000000000000000, 1.000000000000000000 ) ) ;
#375 = ORIENTED_EDGE ( 'NONE', *, *, #75, .T. ) ;
#376 = AXIS2_PLACEMENT_3D ( 'NONE', #156, #349, #40 ) ;
#377 = FACE_BOUND ( 'NONE', #37, .T. ) ;
#378 = ADVANCED_FACE ( 'NONE', ( #29 ), #9, .T. ) ;
#379 = EDGE_LOOP ( 'NONE', ( #95, #319, #92, #181 ) ) ;
ENDSEC;
END-ISO-10303-21;
