ISO-10303-21;
HEADER;
FILE_DESCRIPTION (( 'STEP AP214' ),
    '1' );
FILE_NAME ('Micro_GEC-093-2-010.STEP',
    '2021-09-03T17:04:45',
    ( '' ),
    ( '' ),
    'SwSTEP 2.0',
    'SolidWorks 2020',
    '' );
FILE_SCHEMA (( 'AUTOMOTIVE_DESIGN' ));
ENDSEC;

DATA;
#1 = ORIENTED_EDGE ( 'NONE', *, *, #49, .F. ) ;
#2 = DIRECTION ( 'NONE',  ( 1.000000000000000000, 0.0000000000000000000, 0.0000000000000000000 ) ) ;
#3 = CIRCLE ( 'NONE', #200, 0.01000000000000000021 ) ;
#4 = PRODUCT_CONTEXT ( 'NONE', #243, 'mechanical' ) ;
#5 =( GEOMETRIC_REPRESENTATION_CONTEXT ( 3 ) GLOBAL_UNCERTAINTY_ASSIGNED_CONTEXT ( ( #248 ) ) GLOBAL_UNIT_ASSIGNED_CONTEXT ( ( #340, #99, #255 ) ) REPRESENTATION_CONTEXT ( 'NONE', 'WORKASPACE' ) );
#6 = ORIENTED_EDGE ( 'NONE', *, *, #313, .F. ) ;
#7 = FACE_OUTER_BOUND ( 'NONE', #10, .T. ) ;
#8 = DIRECTION ( 'NONE',  ( 0.7071067811865462405, 8.659560562354916834E-17, -0.7071067811865486830 ) ) ;
#9 = CARTESIAN_POINT ( 'NONE',  ( 0.06250000000000008327, 7.654042494670966789E-18, 0.4637379795033760299 ) ) ;
#10 = EDGE_LOOP ( 'NONE', ( #276, #324, #114, #33 ) ) ;
#11 = DIRECTION ( 'NONE',  ( -1.224646799147353700E-16, -0.0000000000000000000, -1.000000000000000000 ) ) ;
#12 = EDGE_CURVE ( 'NONE', #238, #219, #269, .T. ) ;
#13 = AXIS2_PLACEMENT_3D ( 'NONE', #350, #327, #315 ) ;
#14 = EDGE_LOOP ( 'NONE', ( #181, #1, #138, #153 ) ) ;
#15 = DIRECTION ( 'NONE',  ( -1.224646799147353700E-16, -0.0000000000000000000, -1.000000000000000000 ) ) ;
#16 = ORIENTED_EDGE ( 'NONE', *, *, #177, .F. ) ;
#17 = DIRECTION ( 'NONE',  ( 1.000000000000000000, 0.0000000000000000000, 0.0000000000000000000 ) ) ;
#18 = TOROIDAL_SURFACE ( 'NONE', #180, 0.03685309999999999975, 0.01000000000000000021 ) ;
#19 = PRODUCT_DEFINITION_FORMATION_WITH_SPECIFIED_SOURCE ( 'ANY', '', #224, .NOT_KNOWN. ) ;
#20 = CARTESIAN_POINT ( 'NONE',  ( 0.0000000000000000000, 0.0000000000000000000, 1.500000000000000222 ) ) ;
#21 = DIRECTION ( 'NONE',  ( 0.0000000000000000000, -1.000000000000000000, 0.0000000000000000000 ) ) ;
#22 = AXIS2_PLACEMENT_3D ( 'NONE', #209, #32, #218 ) ;
#23 = AXIS2_PLACEMENT_3D ( 'NONE', #178, #283, #17 ) ;
#24 = APPLICATION_PROTOCOL_DEFINITION ( 'draft international standard', 'automotive_design', 1998, #243 ) ;
#25 = SURFACE_STYLE_USAGE ( .BOTH. , #320 ) ;
#26 = DIRECTION ( 'NONE',  ( -1.224646799147353700E-16, -0.0000000000000000000, -1.000000000000000000 ) ) ;
#27 = ORIENTED_EDGE ( 'NONE', *, *, #137, .T. ) ;
#28 = CIRCLE ( 'NONE', #311, 0.04750000000000064587 ) ;
#29 = DIMENSIONAL_EXPONENTS ( 1.000000000000000000, 0.0000000000000000000, 0.0000000000000000000, 0.0000000000000000000, 0.0000000000000000000, 0.0000000000000000000, 0.0000000000000000000 ) ;
#30 = CARTESIAN_POINT ( 'NONE',  ( -0.06250000000000002776, 0.0000000000000000000, 1.485000000000000764 ) ) ;
#31 = EDGE_CURVE ( 'NONE', #67, #332, #192, .T. ) ;
#32 = DIRECTION ( 'NONE',  ( -1.224646799147353700E-16, -0.0000000000000000000, -1.000000000000000000 ) ) ;
#33 = ORIENTED_EDGE ( 'NONE', *, *, #122, .F. ) ;
#34 = LINE ( 'NONE', #139, #79 ) ;
#35 = AXIS2_PLACEMENT_3D ( 'NONE', #325, #135, #92 ) ;
#36 = EDGE_LOOP ( 'NONE', ( #164, #190, #60, #214 ) ) ;
#37 = CARTESIAN_POINT ( 'NONE',  ( 5.679152322418704750E-17, 0.0000000000000000000, 0.4637379795033760299 ) ) ;
#38 = ADVANCED_FACE ( 'NONE', ( #39 ), #335, .T. ) ;
#39 = FACE_OUTER_BOUND ( 'NONE', #106, .T. ) ;
#40 = DIRECTION ( 'NONE',  ( 1.000000000000000000, 0.0000000000000000000, 0.0000000000000000000 ) ) ;
#41 = ORIENTED_EDGE ( 'NONE', *, *, #279, .F. ) ;
#42 = DIRECTION ( 'NONE',  ( 0.0000000000000000000, 0.0000000000000000000, -1.000000000000000000 ) ) ;
#43 =( GEOMETRIC_REPRESENTATION_CONTEXT ( 3 ) GLOBAL_UNCERTAINTY_ASSIGNED_CONTEXT ( ( #47 ) ) GLOBAL_UNIT_ASSIGNED_CONTEXT ( ( #210, #346, #103 ) ) REPRESENTATION_CONTEXT ( 'NONE', 'WORKASPACE' ) );
#44 = ORIENTED_EDGE ( 'NONE', *, *, #345, .F. ) ;
#45 = CARTESIAN_POINT ( 'NONE',  ( 0.03685309999999999975, 0.0000000000000000000, 0.01000000000000000021 ) ) ;
#46 = PLANE ( 'NONE',  #316 ) ;
#47 = UNCERTAINTY_MEASURE_WITH_UNIT (LENGTH_MEASURE( 1.000000000000000082E-05 ), #210, 'distance_accuracy_value', 'NONE');
#48 = CONICAL_SURFACE ( 'NONE', #267, 0.04685310000000000863, 0.1745329251994338637 ) ;
#49 = EDGE_CURVE ( 'NONE', #130, #67, #341, .T. ) ;
#50 = FACE_OUTER_BOUND ( 'NONE', #245, .T. ) ;
#51 = SURFACE_SIDE_STYLE ('',( #305 ) ) ;
#52 = VECTOR ( 'NONE', #215, 39.37007874015748143 ) ;
#53 = ORIENTED_EDGE ( 'NONE', *, *, #122, .T. ) ;
#54 = DIRECTION ( 'NONE',  ( 0.0000000000000000000, 0.0000000000000000000, 1.000000000000000000 ) ) ;
#55 = CARTESIAN_POINT ( 'NONE',  ( -0.04750000000000064587, 0.0000000000000000000, 1.500000000000000222 ) ) ;
#56 = ADVANCED_FACE ( 'NONE', ( #198 ), #254, .T. ) ;
#57 = COLOUR_RGB ( '',0.7921568627450980005, 0.8196078431372548767, 0.9333333333333333481 ) ;
#58 = CARTESIAN_POINT ( 'NONE',  ( 0.03685309999999999975, 0.0000000000000000000, 0.0000000000000000000 ) ) ;
#59 = ADVANCED_FACE ( 'NONE', ( #242 ), #259, .T. ) ;
#60 = ORIENTED_EDGE ( 'NONE', *, *, #119, .T. ) ;
#61 = CARTESIAN_POINT ( 'NONE',  ( -0.04685309999999996700, 6.695946194592023262E-18, 0.3750000000000000555 ) ) ;
#62 = EDGE_LOOP ( 'NONE', ( #330, #44, #86, #27 ) ) ;
#63 = DIRECTION ( 'NONE',  ( 1.000000000000000000, 0.0000000000000000000, 0.0000000000000000000 ) ) ;
#64 = ADVANCED_FACE ( 'NONE', ( #292 ), #89, .T. ) ;
#65 = EDGE_LOOP ( 'NONE', ( #171, #302 ) ) ;
#66 = DIRECTION ( 'NONE',  ( 1.224646799147353700E-16, 0.0000000000000000000, 1.000000000000000000 ) ) ;
#67 = VERTEX_POINT ( 'NONE', #351 ) ;
#68 = CARTESIAN_POINT ( 'NONE',  ( 0.04685310000000000169, 5.737849894513085128E-18, 0.01000000000000000194 ) ) ;
#69 = CARTESIAN_POINT ( 'NONE',  ( 1.224646799147353770E-18, 0.0000000000000000000, 0.01000000000000000021 ) ) ;
#70 = EDGE_LOOP ( 'NONE', ( #41, #333, #314, #141 ) ) ;
#71 = LINE ( 'NONE', #277, #85 ) ;
#72 = COLOUR_RGB ( '',0.7921568627450980005, 0.8196078431372548767, 0.9333333333333333481 ) ;
#73 = ADVANCED_BREP_SHAPE_REPRESENTATION ( 'Micro_GEC-093-2-010', ( #304, #110 ), #194 ) ;
#74 = FILL_AREA_STYLE ('',( #308 ) ) ;
#75 = AXIS2_PLACEMENT_3D ( 'NONE', #105, #26, #186 ) ;
#76 = DIRECTION ( 'NONE',  ( 1.000000000000000000, 0.0000000000000000000, 0.0000000000000000000 ) ) ;
#77 = VERTEX_POINT ( 'NONE', #9 ) ;
#78 =( LENGTH_UNIT ( ) NAMED_UNIT ( * ) SI_UNIT ( $, .METRE. ) );
#79 = VECTOR ( 'NONE', #239, 39.37007874015748854 ) ;
#80 = FACE_OUTER_BOUND ( 'NONE', #117, .T. ) ;
#81 = CARTESIAN_POINT ( 'NONE',  ( -0.04685310000000000169, 0.0000000000000000000, 0.01000000000000000194 ) ) ;
#82 = CARTESIAN_POINT ( 'NONE',  ( 0.06250000000000002776, 7.654042494670959086E-18, 1.500000000000000222 ) ) ;
#83 = DIRECTION ( 'NONE',  ( 1.000000000000000000, 0.0000000000000000000, 0.0000000000000000000 ) ) ;
#84 = AXIS2_PLACEMENT_3D ( 'NONE', #69, #331, #83 ) ;
#85 = VECTOR ( 'NONE', #208, 39.37007874015748143 ) ;
#86 = ORIENTED_EDGE ( 'NONE', *, *, #202, .T. ) ;
#87 = DIRECTION ( 'NONE',  ( 0.0000000000000000000, 0.0000000000000000000, 1.000000000000000000 ) ) ;
#88 = ORIENTED_EDGE ( 'NONE', *, *, #345, .T. ) ;
#89 = CYLINDRICAL_SURFACE ( 'NONE', #22, 0.04685310000000000169 ) ;
#90 = ADVANCED_FACE ( 'NONE', ( #163 ), #48, .T. ) ;
#91 = ORIENTED_EDGE ( 'NONE', *, *, #205, .F. ) ;
#92 = DIRECTION ( 'NONE',  ( 1.000000000000000000, 0.0000000000000000000, 0.0000000000000000000 ) ) ;
#93 = CIRCLE ( 'NONE', #244, 0.06250000000000002776 ) ;
#94 = ORIENTED_EDGE ( 'NONE', *, *, #319, .T. ) ;
#95 = PRESENTATION_STYLE_ASSIGNMENT (( #253 ) ) ;
#96 = CARTESIAN_POINT ( 'NONE',  ( 0.0000000000000000000, 0.0000000000000000000, 1.500000000000000222 ) ) ;
#97 = DIRECTION ( 'NONE',  ( 0.0000000000000000000, 0.0000000000000000000, -1.000000000000000000 ) ) ;
#98 = CARTESIAN_POINT ( 'NONE',  ( -0.06249999999999996531, 0.0000000000000000000, 0.4637379795033760299 ) ) ;
#99 =( NAMED_UNIT ( * ) PLANE_ANGLE_UNIT ( ) SI_UNIT ( $, .RADIAN. ) );
#100 = AXIS2_PLACEMENT_3D ( 'NONE', #165, #263, #109 ) ;
#101 = ORIENTED_EDGE ( 'NONE', *, *, #156, .T. ) ;
#102 = AXIS2_PLACEMENT_3D ( 'NONE', #275, #258, #134 ) ;
#103 =( NAMED_UNIT ( * ) SI_UNIT ( $, .STERADIAN. ) SOLID_ANGLE_UNIT ( ) );
#104 = EDGE_CURVE ( 'NONE', #67, #130, #28, .T. ) ;
#105 = CARTESIAN_POINT ( 'NONE',  ( 4.592425496802576684E-17, 0.0000000000000000000, 0.3750000000000000555 ) ) ;
#106 = EDGE_LOOP ( 'NONE', ( #94, #232, #349, #6 ) ) ;
#107 = DIRECTION ( 'NONE',  ( 1.000000000000000000, 0.0000000000000000000, 0.0000000000000000000 ) ) ;
#108 = LENGTH_MEASURE_WITH_UNIT ( LENGTH_MEASURE( 0.02539999999999999897 ), #127 );
#109 = DIRECTION ( 'NONE',  ( -1.000000000000000000, 0.0000000000000000000, 0.0000000000000000000 ) ) ;
#110 = AXIS2_PLACEMENT_3D ( 'NONE', #288, #54, #233 ) ;
#111 = SHAPE_DEFINITION_REPRESENTATION ( #310, #73 ) ;
#112 = ORIENTED_EDGE ( 'NONE', *, *, #321, .F. ) ;
#113 = CARTESIAN_POINT ( 'NONE',  ( 5.679152322418704750E-17, 0.0000000000000000000, 0.4637379795033760299 ) ) ;
#114 = ORIENTED_EDGE ( 'NONE', *, *, #251, .T. ) ;
#115 = CARTESIAN_POINT ( 'NONE',  ( -0.04685309999999996700, 5.737849894513086668E-18, 0.3750000000000000555 ) ) ;
#116 = PRESENTATION_LAYER_ASSIGNMENT (  '', '', ( #291 ) ) ;
#117 = EDGE_LOOP ( 'NONE', ( #297, #167, #101, #16 ) ) ;
#118 = CARTESIAN_POINT ( 'NONE',  ( 0.04685310000000005026, 0.0000000000000000000, 0.3750000000000000555 ) ) ;
#119 = EDGE_CURVE ( 'NONE', #294, #77, #123, .T. ) ;
#120 = ADVANCED_FACE ( 'NONE', ( #7 ), #18, .T. ) ;
#121 = CIRCLE ( 'NONE', #129, 0.06250000000000002776 ) ;
#122 = EDGE_CURVE ( 'NONE', #146, #219, #231, .T. ) ;
#123 = CIRCLE ( 'NONE', #173, 0.06250000000000002776 ) ;
#124 = AXIS2_PLACEMENT_3D ( 'NONE', #149, #150, #76 ) ;
#125 =( CONVERSION_BASED_UNIT ( 'INCH', #343 ) LENGTH_UNIT ( ) NAMED_UNIT ( #185 ) );
#126 = ORIENTED_EDGE ( 'NONE', *, *, #319, .F. ) ;
#127 =( LENGTH_UNIT ( ) NAMED_UNIT ( * ) SI_UNIT ( $, .METRE. ) );
#128 = AXIS2_PLACEMENT_3D ( 'NONE', #96, #212, #328 ) ;
#129 = AXIS2_PLACEMENT_3D ( 'NONE', #342, #201, #312 ) ;
#130 = VERTEX_POINT ( 'NONE', #55 ) ;
#131 = CIRCLE ( 'NONE', #75, 0.04685310000000000863 ) ;
#132 = EDGE_CURVE ( 'NONE', #143, #294, #213, .T. ) ;
#133 = LINE ( 'NONE', #234, #237 ) ;
#134 = DIRECTION ( 'NONE',  ( 1.000000000000000000, 0.0000000000000000000, 0.0000000000000000000 ) ) ;
#135 = DIRECTION ( 'NONE',  ( 0.0000000000000000000, 0.0000000000000000000, 1.000000000000000000 ) ) ;
#136 = DIMENSIONAL_EXPONENTS ( 1.000000000000000000, 0.0000000000000000000, 0.0000000000000000000, 0.0000000000000000000, 0.0000000000000000000, 0.0000000000000000000, 0.0000000000000000000 ) ;
#137 = EDGE_CURVE ( 'NONE', #77, #294, #93, .T. ) ;
#138 = ORIENTED_EDGE ( 'NONE', *, *, #205, .T. ) ;
#139 = CARTESIAN_POINT ( 'NONE',  ( -0.04750000000000064587, 0.0000000000000000000, 1.500000000000000222 ) ) ;
#140 = CARTESIAN_POINT ( 'NONE',  ( 0.04750000000000064587, 5.817072295950006528E-18, 1.500000000000000222 ) ) ;
#141 = ORIENTED_EDGE ( 'NONE', *, *, #251, .F. ) ;
#142 = CARTESIAN_POINT ( 'NONE',  ( -0.03685309999999999975, 4.513203095365732321E-18, 0.01000000000000000021 ) ) ;
#143 = VERTEX_POINT ( 'NONE', #61 ) ;
#144 = CARTESIAN_POINT ( 'NONE',  ( -0.03685309999999999975, 5.125526494939408339E-18, 0.0000000000000000000 ) ) ;
#145 = STYLED_ITEM ( 'NONE', ( #95 ), #304 ) ;
#146 = VERTEX_POINT ( 'NONE', #81 ) ;
#147 = CONICAL_SURFACE ( 'NONE', #152, 0.04750000000000064587, 0.7853981633974466137 ) ;
#148 = CYLINDRICAL_SURFACE ( 'NONE', #249, 0.06250000000000002776 ) ;
#149 = CARTESIAN_POINT ( 'NONE',  ( 4.592425496802576684E-17, 0.0000000000000000000, 0.3750000000000000555 ) ) ;
#150 = DIRECTION ( 'NONE',  ( 1.224646799147353700E-16, 0.0000000000000000000, 1.000000000000000000 ) ) ;
#151 = AXIS2_PLACEMENT_3D ( 'NONE', #273, #184, #40 ) ;
#152 = AXIS2_PLACEMENT_3D ( 'NONE', #175, #42, #223 ) ;
#153 = ORIENTED_EDGE ( 'NONE', *, *, #227, .F. ) ;
#154 = CARTESIAN_POINT ( 'NONE',  ( 0.06250000000000002776, 7.654042494670959086E-18, 1.485000000000000764 ) ) ;
#155 = FILL_AREA_STYLE ('',( #290 ) ) ;
#156 = EDGE_CURVE ( 'NONE', #219, #146, #226, .T. ) ;
#157 = VECTOR ( 'NONE', #193, 39.37007874015747433 ) ;
#158 = VECTOR ( 'NONE', #230, 39.37007874015748143 ) ;
#159 = ORIENTED_EDGE ( 'NONE', *, *, #227, .T. ) ;
#160 = LINE ( 'NONE', #191, #52 ) ;
#161 = DIRECTION ( 'NONE',  ( 0.0000000000000000000, 0.0000000000000000000, 1.000000000000000000 ) ) ;
#162 = VERTEX_POINT ( 'NONE', #58 ) ;
#163 = FACE_OUTER_BOUND ( 'NONE', #36, .T. ) ;
#164 = ORIENTED_EDGE ( 'NONE', *, *, #296, .F. ) ;
#165 = CARTESIAN_POINT ( 'NONE',  ( 0.0000000000000000000, 0.0000000000000000000, 1.500000000000000222 ) ) ;
#166 = AXIS2_PLACEMENT_3D ( 'NONE', #170, #15, #247 ) ;
#167 = ORIENTED_EDGE ( 'NONE', *, *, #12, .T. ) ;
#168 = DIRECTION ( 'NONE',  ( 1.000000000000000000, 0.0000000000000000000, 0.0000000000000000000 ) ) ;
#169 = DIRECTION ( 'NONE',  ( -1.000000000000000000, 0.0000000000000000000, 0.0000000000000000000 ) ) ;
#170 = CARTESIAN_POINT ( 'NONE',  ( 4.592425496802576684E-17, 0.0000000000000000000, 0.3750000000000000555 ) ) ;
#171 = ORIENTED_EDGE ( 'NONE', *, *, #257, .T. ) ;
#172 = CARTESIAN_POINT ( 'NONE',  ( 1.224646799147353770E-18, 0.0000000000000000000, 0.0000000000000000000 ) ) ;
#173 = AXIS2_PLACEMENT_3D ( 'NONE', #37, #11, #168 ) ;
#174 = CONICAL_SURFACE ( 'NONE', #124, 0.04685310000000000863, 0.1745329251994338637 ) ;
#175 = CARTESIAN_POINT ( 'NONE',  ( 0.0000000000000000000, 0.0000000000000000000, 1.500000000000000222 ) ) ;
#176 = EDGE_CURVE ( 'NONE', #217, #146, #3, .T. ) ;
#177 = EDGE_CURVE ( 'NONE', #143, #146, #160, .T. ) ;
#178 = CARTESIAN_POINT ( 'NONE',  ( 1.224646799147353770E-18, 0.0000000000000000000, 0.0000000000000000000 ) ) ;
#179 = CARTESIAN_POINT ( 'NONE',  ( 0.0000000000000000000, 0.0000000000000000000, 1.500000000000000222 ) ) ;
#180 = AXIS2_PLACEMENT_3D ( 'NONE', #301, #87, #2 ) ;
#181 = ORIENTED_EDGE ( 'NONE', *, *, #31, .F. ) ;
#182 = PRESENTATION_STYLE_ASSIGNMENT (( #25 ) ) ;
#183 = VERTEX_POINT ( 'NONE', #30 ) ;
#184 = DIRECTION ( 'NONE',  ( 0.0000000000000000000, 0.0000000000000000000, 1.000000000000000000 ) ) ;
#185 = DIMENSIONAL_EXPONENTS ( 1.000000000000000000, 0.0000000000000000000, 0.0000000000000000000, 0.0000000000000000000, 0.0000000000000000000, 0.0000000000000000000, 0.0000000000000000000 ) ;
#186 = DIRECTION ( 'NONE',  ( -1.000000000000000000, 0.0000000000000000000, 0.0000000000000000000 ) ) ;
#187 = CARTESIAN_POINT ( 'NONE',  ( 4.592425496802576684E-17, 0.0000000000000000000, 0.3750000000000000555 ) ) ;
#188 = ORIENTED_EDGE ( 'NONE', *, *, #49, .T. ) ;
#189 = DIRECTION ( 'NONE',  ( 1.000000000000000000, 0.0000000000000000000, -0.0000000000000000000 ) ) ;
#190 = ORIENTED_EDGE ( 'NONE', *, *, #132, .T. ) ;
#191 = CARTESIAN_POINT ( 'NONE',  ( -0.04685310000000000169, 0.0000000000000000000, 5.737849894513087439E-18 ) ) ;
#192 = LINE ( 'NONE', #140, #326 ) ;
#193 = DIRECTION ( 'NONE',  ( -0.1736481776669311639, 2.126576849575783008E-17, 0.9848077530122080203 ) ) ;
#194 =( GEOMETRIC_REPRESENTATION_CONTEXT ( 3 ) GLOBAL_UNCERTAINTY_ASSIGNED_CONTEXT ( ( #309 ) ) GLOBAL_UNIT_ASSIGNED_CONTEXT ( ( #125, #204, #203 ) ) REPRESENTATION_CONTEXT ( 'NONE', 'WORKASPACE' ) );
#195 = DIRECTION ( 'NONE',  ( -0.0000000000000000000, -0.0000000000000000000, -1.000000000000000000 ) ) ;
#196 = ADVANCED_FACE ( 'NONE', ( #266 ), #261, .F. ) ;
#197 = ORIENTED_EDGE ( 'NONE', *, *, #313, .T. ) ;
#198 = FACE_OUTER_BOUND ( 'NONE', #70, .T. ) ;
#199 = DIRECTION ( 'NONE',  ( -1.000000000000000000, 0.0000000000000000000, 0.0000000000000000000 ) ) ;
#200 = AXIS2_PLACEMENT_3D ( 'NONE', #142, #329, #289 ) ;
#201 = DIRECTION ( 'NONE',  ( 0.0000000000000000000, 0.0000000000000000000, -1.000000000000000000 ) ) ;
#202 = EDGE_CURVE ( 'NONE', #238, #77, #133, .T. ) ;
#203 =( NAMED_UNIT ( * ) SI_UNIT ( $, .STERADIAN. ) SOLID_ANGLE_UNIT ( ) );
#204 =( NAMED_UNIT ( * ) PLANE_ANGLE_UNIT ( ) SI_UNIT ( $, .RADIAN. ) );
#205 = EDGE_CURVE ( 'NONE', #130, #183, #34, .T. ) ;
#206 = CIRCLE ( 'NONE', #211, 0.03685309999999999975 ) ;
#207 = DIRECTION ( 'NONE',  ( -1.224646799147353700E-16, -0.0000000000000000000, -1.000000000000000000 ) ) ;
#208 = DIRECTION ( 'NONE',  ( -0.0000000000000000000, -0.0000000000000000000, -1.000000000000000000 ) ) ;
#209 = CARTESIAN_POINT ( 'NONE',  ( 0.0000000000000000000, 0.0000000000000000000, 0.0000000000000000000 ) ) ;
#210 =( CONVERSION_BASED_UNIT ( 'INCH', #108 ) LENGTH_UNIT ( ) NAMED_UNIT ( #29 ) );
#211 = AXIS2_PLACEMENT_3D ( 'NONE', #172, #220, #285 ) ;
#212 = DIRECTION ( 'NONE',  ( 0.0000000000000000000, 0.0000000000000000000, 1.000000000000000000 ) ) ;
#213 = LINE ( 'NONE', #115, #157 ) ;
#214 = ORIENTED_EDGE ( 'NONE', *, *, #202, .F. ) ;
#215 = DIRECTION ( 'NONE',  ( -1.224646799147353700E-16, -0.0000000000000000000, -1.000000000000000000 ) ) ;
#216 = PRODUCT_RELATED_PRODUCT_CATEGORY ( 'part', '', ( #224 ) ) ;
#217 = VERTEX_POINT ( 'NONE', #144 ) ;
#218 = DIRECTION ( 'NONE',  ( -1.000000000000000000, 0.0000000000000000000, 1.224646799147353700E-16 ) ) ;
#219 = VERTEX_POINT ( 'NONE', #68 ) ;
#220 = DIRECTION ( 'NONE',  ( -0.0000000000000000000, -0.0000000000000000000, -1.000000000000000000 ) ) ;
#221 = MECHANICAL_DESIGN_GEOMETRIC_PRESENTATION_REPRESENTATION (  '', ( #145 ), #5 ) ;
#222 = CARTESIAN_POINT ( 'NONE',  ( 0.04685310000000000169, 5.737849894513085128E-18, -5.737849894513087439E-18 ) ) ;
#223 = DIRECTION ( 'NONE',  ( -1.000000000000000000, 0.0000000000000000000, 0.0000000000000000000 ) ) ;
#224 = PRODUCT ( 'Micro_GEC-093-2-010', 'Micro_GEC-093-2-010', '', ( #4 ) ) ;
#225 = DIRECTION ( 'NONE',  ( 1.000000000000000000, 0.0000000000000000000, -0.0000000000000000000 ) ) ;
#226 = CIRCLE ( 'NONE', #151, 0.04685310000000000169 ) ;
#227 = EDGE_CURVE ( 'NONE', #332, #183, #121, .T. ) ;
#228 = FACE_OUTER_BOUND ( 'NONE', #287, .T. ) ;
#229 = PRESENTATION_LAYER_ASSIGNMENT (  '', '', ( #145 ) ) ;
#230 = DIRECTION ( 'NONE',  ( -0.0000000000000000000, -0.0000000000000000000, -1.000000000000000000 ) ) ;
#231 = CIRCLE ( 'NONE', #35, 0.04685310000000000169 ) ;
#232 = ORIENTED_EDGE ( 'NONE', *, *, #321, .T. ) ;
#233 = DIRECTION ( 'NONE',  ( 1.000000000000000000, 0.0000000000000000000, 0.0000000000000000000 ) ) ;
#234 = CARTESIAN_POINT ( 'NONE',  ( 0.04685310000000005026, 0.0000000000000000000, 0.3750000000000000555 ) ) ;
#235 = ORIENTED_EDGE ( 'NONE', *, *, #104, .T. ) ;
#236 = CARTESIAN_POINT ( 'NONE',  ( 0.0000000000000000000, 0.0000000000000000000, 0.0000000000000000000 ) ) ;
#237 = VECTOR ( 'NONE', #298, 39.37007874015748143 ) ;
#238 = VERTEX_POINT ( 'NONE', #118 ) ;
#239 = DIRECTION ( 'NONE',  ( -0.7071067811865462405, 0.0000000000000000000, -0.7071067811865486830 ) ) ;
#240 = DIRECTION ( 'NONE',  ( -1.224646799147353700E-16, -0.0000000000000000000, -1.000000000000000000 ) ) ;
#241 = CARTESIAN_POINT ( 'NONE',  ( 0.0000000000000000000, 0.0000000000000000000, 1.500000000000000222 ) ) ;
#242 = FACE_OUTER_BOUND ( 'NONE', #14, .T. ) ;
#243 = APPLICATION_CONTEXT ( 'automotive_design' ) ;
#244 = AXIS2_PLACEMENT_3D ( 'NONE', #113, #207, #322 ) ;
#245 = EDGE_LOOP ( 'NONE', ( #112, #159, #197, #274 ) ) ;
#246 = EDGE_LOOP ( 'NONE', ( #344, #265, #126, #91 ) ) ;
#247 = DIRECTION ( 'NONE',  ( -1.000000000000000000, 0.0000000000000000000, 0.0000000000000000000 ) ) ;
#248 = UNCERTAINTY_MEASURE_WITH_UNIT (LENGTH_MEASURE( 1.000000000000000082E-05 ), #340, 'distance_accuracy_value', 'NONE');
#249 = AXIS2_PLACEMENT_3D ( 'NONE', #179, #334, #199 ) ;
#250 = ADVANCED_FACE ( 'NONE', ( #228 ), #46, .T. ) ;
#251 = EDGE_CURVE ( 'NONE', #162, #219, #280, .T. ) ;
#252 = LENGTH_MEASURE_WITH_UNIT ( LENGTH_MEASURE( 0.02539999999999999897 ), #278 );
#253 = SURFACE_STYLE_USAGE ( .BOTH. , #51 ) ;
#254 = TOROIDAL_SURFACE ( 'NONE', #84, 0.03685309999999999975, 0.01000000000000000021 ) ;
#255 =( NAMED_UNIT ( * ) SI_UNIT ( $, .STERADIAN. ) SOLID_ANGLE_UNIT ( ) );
#256 = SURFACE_STYLE_FILL_AREA ( #155 ) ;
#257 = EDGE_CURVE ( 'NONE', #162, #217, #348, .T. ) ;
#258 = DIRECTION ( 'NONE',  ( 0.0000000000000000000, 0.0000000000000000000, -1.000000000000000000 ) ) ;
#259 = CONICAL_SURFACE ( 'NONE', #100, 0.04750000000000064587, 0.7853981633974466137 ) ;
#260 = APPLICATION_CONTEXT ( 'automotive_design' ) ;
#261 = PLANE ( 'NONE',  #281 ) ;
#262 = ADVANCED_FACE ( 'NONE', ( #50 ), #148, .T. ) ;
#263 = DIRECTION ( 'NONE',  ( 0.0000000000000000000, 0.0000000000000000000, -1.000000000000000000 ) ) ;
#264 = APPLICATION_PROTOCOL_DEFINITION ( 'draft international standard', 'automotive_design', 1998, #260 ) ;
#265 = ORIENTED_EDGE ( 'NONE', *, *, #31, .T. ) ;
#266 = FACE_OUTER_BOUND ( 'NONE', #65, .T. ) ;
#267 = AXIS2_PLACEMENT_3D ( 'NONE', #187, #66, #63 ) ;
#268 = CIRCLE ( 'NONE', #166, 0.04685310000000000863 ) ;
#269 = LINE ( 'NONE', #222, #306 ) ;
#270 = DIRECTION ( 'NONE',  ( 0.0000000000000000000, 0.0000000000000000000, 1.000000000000000000 ) ) ;
#271 = ADVANCED_FACE ( 'NONE', ( #337 ), #174, .T. ) ;
#272 = ORIENTED_EDGE ( 'NONE', *, *, #177, .T. ) ;
#273 = CARTESIAN_POINT ( 'NONE',  ( 1.224646799147353962E-18, 0.0000000000000000000, 0.01000000000000000194 ) ) ;
#274 = ORIENTED_EDGE ( 'NONE', *, *, #137, .F. ) ;
#275 = CARTESIAN_POINT ( 'NONE',  ( 0.0000000000000000000, 0.0000000000000000000, 1.485000000000000764 ) ) ;
#276 = ORIENTED_EDGE ( 'NONE', *, *, #176, .F. ) ;
#277 = CARTESIAN_POINT ( 'NONE',  ( -0.06250000000000002776, 0.0000000000000000000, 1.500000000000000222 ) ) ;
#278 =( LENGTH_UNIT ( ) NAMED_UNIT ( * ) SI_UNIT ( $, .METRE. ) );
#279 = EDGE_CURVE ( 'NONE', #217, #162, #206, .T. ) ;
#280 = CIRCLE ( 'NONE', #282, 0.01000000000000000021 ) ;
#281 = AXIS2_PLACEMENT_3D ( 'NONE', #236, #161, #189 ) ;
#282 = AXIS2_PLACEMENT_3D ( 'NONE', #45, #21, #97 ) ;
#283 = DIRECTION ( 'NONE',  ( -0.0000000000000000000, -0.0000000000000000000, -1.000000000000000000 ) ) ;
#284 = ADVANCED_FACE ( 'NONE', ( #303 ), #147, .T. ) ;
#285 = DIRECTION ( 'NONE',  ( 1.000000000000000000, 0.0000000000000000000, 0.0000000000000000000 ) ) ;
#286 = MECHANICAL_DESIGN_GEOMETRIC_PRESENTATION_REPRESENTATION (  '', ( #291 ), #43 ) ;
#287 = EDGE_LOOP ( 'NONE', ( #188, #235 ) ) ;
#288 = CARTESIAN_POINT ( 'NONE',  ( 0.0000000000000000000, 0.0000000000000000000, 0.0000000000000000000 ) ) ;
#289 = DIRECTION ( 'NONE',  ( -1.000000000000000000, 1.224646799147353454E-16, 0.0000000000000000000 ) ) ;
#290 = FILL_AREA_STYLE_COLOUR ( '', #57 ) ;
#291 = STYLED_ITEM ( 'NONE', ( #182 ), #73 ) ;
#292 = FACE_OUTER_BOUND ( 'NONE', #300, .T. ) ;
#293 = CYLINDRICAL_SURFACE ( 'NONE', #13, 0.04685310000000000169 ) ;
#294 = VERTEX_POINT ( 'NONE', #98 ) ;
#295 = CARTESIAN_POINT ( 'NONE',  ( 0.0000000000000000000, 0.0000000000000000000, 1.500000000000000222 ) ) ;
#296 = EDGE_CURVE ( 'NONE', #143, #238, #268, .T. ) ;
#297 = ORIENTED_EDGE ( 'NONE', *, *, #296, .T. ) ;
#298 = DIRECTION ( 'NONE',  ( 0.1736481776669313581, 0.0000000000000000000, 0.9848077530122077983 ) ) ;
#299 = CLOSED_SHELL ( 'NONE', ( #56, #338, #90, #284, #38, #262, #250, #59, #271, #64, #196, #120 ) ) ;
#300 = EDGE_LOOP ( 'NONE', ( #347, #88, #272, #53 ) ) ;
#301 = CARTESIAN_POINT ( 'NONE',  ( 1.224646799147353770E-18, 0.0000000000000000000, 0.01000000000000000021 ) ) ;
#302 = ORIENTED_EDGE ( 'NONE', *, *, #279, .T. ) ;
#303 = FACE_OUTER_BOUND ( 'NONE', #246, .T. ) ;
#304 = MANIFOLD_SOLID_BREP ( 'Fillet1', #299 ) ;
#305 = SURFACE_STYLE_FILL_AREA ( #74 ) ;
#306 = VECTOR ( 'NONE', #240, 39.37007874015748143 ) ;
#307 = AXIS2_PLACEMENT_3D ( 'NONE', #241, #195, #169 ) ;
#308 = FILL_AREA_STYLE_COLOUR ( '', #72 ) ;
#309 = UNCERTAINTY_MEASURE_WITH_UNIT (LENGTH_MEASURE( 1.000000000000000082E-05 ), #125, 'distance_accuracy_value', 'NONE');
#310 = PRODUCT_DEFINITION_SHAPE ( 'NONE', 'NONE',  #318 ) ;
#311 = AXIS2_PLACEMENT_3D ( 'NONE', #295, #270, #107 ) ;
#312 = DIRECTION ( 'NONE',  ( 1.000000000000000000, 0.0000000000000000000, 0.0000000000000000000 ) ) ;
#313 = EDGE_CURVE ( 'NONE', #183, #294, #71, .T. ) ;
#314 = ORIENTED_EDGE ( 'NONE', *, *, #156, .F. ) ;
#315 = DIRECTION ( 'NONE',  ( -1.000000000000000000, 0.0000000000000000000, 1.224646799147353700E-16 ) ) ;
#316 = AXIS2_PLACEMENT_3D ( 'NONE', #20, #336, #225 ) ;
#317 = CIRCLE ( 'NONE', #102, 0.06250000000000002776 ) ;
#318 = PRODUCT_DEFINITION ( 'UNKNOWN', '', #19, #339 ) ;
#319 = EDGE_CURVE ( 'NONE', #183, #332, #317, .T. ) ;
#320 = SURFACE_SIDE_STYLE ('',( #256 ) ) ;
#321 = EDGE_CURVE ( 'NONE', #332, #77, #323, .T. ) ;
#322 = DIRECTION ( 'NONE',  ( 1.000000000000000000, 0.0000000000000000000, 0.0000000000000000000 ) ) ;
#323 = LINE ( 'NONE', #82, #158 ) ;
#324 = ORIENTED_EDGE ( 'NONE', *, *, #257, .F. ) ;
#325 = CARTESIAN_POINT ( 'NONE',  ( 1.224646799147353962E-18, 0.0000000000000000000, 0.01000000000000000194 ) ) ;
#326 = VECTOR ( 'NONE', #8, 39.37007874015748854 ) ;
#327 = DIRECTION ( 'NONE',  ( -1.224646799147353700E-16, -0.0000000000000000000, -1.000000000000000000 ) ) ;
#328 = DIRECTION ( 'NONE',  ( 1.000000000000000000, 0.0000000000000000000, 0.0000000000000000000 ) ) ;
#329 = DIRECTION ( 'NONE',  ( 1.224646799147353207E-16, 1.000000000000000000, -0.0000000000000000000 ) ) ;
#330 = ORIENTED_EDGE ( 'NONE', *, *, #132, .F. ) ;
#331 = DIRECTION ( 'NONE',  ( 0.0000000000000000000, 0.0000000000000000000, 1.000000000000000000 ) ) ;
#332 = VERTEX_POINT ( 'NONE', #154 ) ;
#333 = ORIENTED_EDGE ( 'NONE', *, *, #176, .T. ) ;
#334 = DIRECTION ( 'NONE',  ( -0.0000000000000000000, -0.0000000000000000000, -1.000000000000000000 ) ) ;
#335 = CYLINDRICAL_SURFACE ( 'NONE', #307, 0.06250000000000002776 ) ;
#336 = DIRECTION ( 'NONE',  ( 0.0000000000000000000, 0.0000000000000000000, 1.000000000000000000 ) ) ;
#337 = FACE_OUTER_BOUND ( 'NONE', #62, .T. ) ;
#338 = ADVANCED_FACE ( 'NONE', ( #80 ), #293, .T. ) ;
#339 = PRODUCT_DEFINITION_CONTEXT ( 'detailed design', #260, 'design' ) ;
#340 =( CONVERSION_BASED_UNIT ( 'INCH', #252 ) LENGTH_UNIT ( ) NAMED_UNIT ( #136 ) );
#341 = CIRCLE ( 'NONE', #128, 0.04750000000000064587 ) ;
#342 = CARTESIAN_POINT ( 'NONE',  ( 0.0000000000000000000, 0.0000000000000000000, 1.485000000000000764 ) ) ;
#343 = LENGTH_MEASURE_WITH_UNIT ( LENGTH_MEASURE( 0.02539999999999999897 ), #78 );
#344 = ORIENTED_EDGE ( 'NONE', *, *, #104, .F. ) ;
#345 = EDGE_CURVE ( 'NONE', #238, #143, #131, .T. ) ;
#346 =( NAMED_UNIT ( * ) PLANE_ANGLE_UNIT ( ) SI_UNIT ( $, .RADIAN. ) );
#347 = ORIENTED_EDGE ( 'NONE', *, *, #12, .F. ) ;
#348 = CIRCLE ( 'NONE', #23, 0.03685309999999999975 ) ;
#349 = ORIENTED_EDGE ( 'NONE', *, *, #119, .F. ) ;
#350 = CARTESIAN_POINT ( 'NONE',  ( 0.0000000000000000000, 0.0000000000000000000, 0.0000000000000000000 ) ) ;
#351 = CARTESIAN_POINT ( 'NONE',  ( 0.04750000000000064587, 6.735557395310483192E-18, 1.500000000000000222 ) ) ;
ENDSEC;
END-ISO-10303-21;
