ISO-10303-21;
HEADER;
FILE_DESCRIPTION (( 'STEP AP214' ),
    '1' );
FILE_NAME ('86067.STEP',
    '2023-06-23T16:18:52',
    ( '' ),
    ( '' ),
    'SwSTEP 2.0',
    'SolidWorks 2023',
    '' );
FILE_SCHEMA (( 'AUTOMOTIVE_DESIGN' ));
ENDSEC;

DATA;
#1 = DIRECTION ( 'NONE',  ( -1.000000000000000000, 0.000000000000000000, 0.000000000000000000 ) ) ;
#2 = EDGE_LOOP ( 'NONE', ( #53, #59, #85, #268 ) ) ;
#3 = EDGE_CURVE ( 'NONE', #199, #79, #288, .T. ) ;
#4 = APPLICATION_CONTEXT ( 'automotive_design' ) ;
#5 = ORIENTED_EDGE ( 'NONE', *, *, #29, .F. ) ;
#6 = LENGTH_MEASURE_WITH_UNIT ( LENGTH_MEASURE( 0.02539999999999999897 ), #222 );
#7 = DIRECTION ( 'NONE',  ( -0.000000000000000000, -1.000000000000000000, -0.000000000000000000 ) ) ;
#8 =( GEOMETRIC_REPRESENTATION_CONTEXT ( 3 ) GLOBAL_UNCERTAINTY_ASSIGNED_CONTEXT ( ( #69 ) ) GLOBAL_UNIT_ASSIGNED_CONTEXT ( ( #162, #40, #232 ) ) REPRESENTATION_CONTEXT ( 'NONE', 'WORKASPACE' ) );
#9 = EDGE_CURVE ( 'NONE', #245, #273, #100, .T. ) ;
#10 = DIRECTION ( 'NONE',  ( 0.000000000000000000, 0.000000000000000000, -1.000000000000000000 ) ) ;
#11 = EDGE_LOOP ( 'NONE', ( #203, #83 ) ) ;
#12 = CARTESIAN_POINT ( 'NONE',  ( 0.1562500000000000000, 1.562500000000000000, 1.913510623667738847E-17 ) ) ;
#13 = DIRECTION ( 'NONE',  ( 5.024191996501961812E-17, 1.000000000000000000, -0.000000000000000000 ) ) ;
#14 = ADVANCED_FACE ( 'NONE', ( #231 ), #108, .T. ) ;
#15 =( NAMED_UNIT ( * ) SI_UNIT ( $, .STERADIAN. ) SOLID_ANGLE_UNIT ( ) );
#16 =( GEOMETRIC_REPRESENTATION_CONTEXT ( 3 ) GLOBAL_UNCERTAINTY_ASSIGNED_CONTEXT ( ( #276 ) ) GLOBAL_UNIT_ASSIGNED_CONTEXT ( ( #305, #235, #144 ) ) REPRESENTATION_CONTEXT ( 'NONE', 'WORKASPACE' ) );
#17 = LENGTH_MEASURE_WITH_UNIT ( LENGTH_MEASURE( 0.02539999999999999897 ), #259 );
#18 = DIRECTION ( 'NONE',  ( 0.000000000000000000, -0.000000000000000000, 1.000000000000000000 ) ) ;
#19 =( LENGTH_UNIT ( ) NAMED_UNIT ( * ) SI_UNIT ( $, .METRE. ) );
#20 = CARTESIAN_POINT ( 'NONE',  ( 0.000000000000000000, 0.000000000000000000, 0.000000000000000000 ) ) ;
#21 = SURFACE_STYLE_FILL_AREA ( #45 ) ;
#22 = AXIS2_PLACEMENT_3D ( 'NONE', #20, #62, #137 ) ;
#23 =( NAMED_UNIT ( * ) SI_UNIT ( $, .STERADIAN. ) SOLID_ANGLE_UNIT ( ) );
#24 = DIRECTION ( 'NONE',  ( 0.000000000000000000, 0.000000000000000000, 1.000000000000000000 ) ) ;
#25 = STYLED_ITEM ( 'NONE', ( #114 ), #88 ) ;
#26 = PRODUCT_CONTEXT ( 'NONE', #65, 'mechanical' ) ;
#27 = PRODUCT_RELATED_PRODUCT_CATEGORY ( 'part', '', ( #48 ) ) ;
#28 = CYLINDRICAL_SURFACE ( 'NONE', #125, 0.1562500000000000000 ) ;
#29 = EDGE_CURVE ( 'NONE', #273, #245, #229, .T. ) ;
#30 = ORIENTED_EDGE ( 'NONE', *, *, #29, .T. ) ;
#31 = FILL_AREA_STYLE_COLOUR ( '', #196 ) ;
#32 = EDGE_CURVE ( 'NONE', #251, #205, #39, .T. ) ;
#33 = UNCERTAINTY_MEASURE_WITH_UNIT (LENGTH_MEASURE( 1.000000000000000082E-05 ), #296, 'distance_accuracy_value', 'NONE');
#34 = DIMENSIONAL_EXPONENTS ( 1.000000000000000000, 0.000000000000000000, 0.000000000000000000, 0.000000000000000000, 0.000000000000000000, 0.000000000000000000, 0.000000000000000000 ) ;
#35 = FACE_OUTER_BOUND ( 'NONE', #75, .T. ) ;
#36 = CARTESIAN_POINT ( 'NONE',  ( 1.224646799147353207E-16, 4.000000000000000000, 0.000000000000000000 ) ) ;
#37 = PRESENTATION_LAYER_ASSIGNMENT (  '', '', ( #303 ) ) ;
#38 = ORIENTED_EDGE ( 'NONE', *, *, #261, .T. ) ;
#39 = CIRCLE ( 'NONE', #241, 0.1562500000000000000 ) ;
#40 =( NAMED_UNIT ( * ) PLANE_ANGLE_UNIT ( ) SI_UNIT ( $, .RADIAN. ) );
#41 = DIRECTION ( 'NONE',  ( 5.024191996501961812E-17, 1.000000000000000000, -0.000000000000000000 ) ) ;
#42 =( NAMED_UNIT ( * ) SI_UNIT ( $, .STERADIAN. ) SOLID_ANGLE_UNIT ( ) );
#43 = LENGTH_MEASURE_WITH_UNIT ( LENGTH_MEASURE( 0.02539999999999999897 ), #160 );
#44 =( LENGTH_UNIT ( ) NAMED_UNIT ( * ) SI_UNIT ( $, .METRE. ) );
#45 = FILL_AREA_STYLE ('',( #210 ) ) ;
#46 = PRESENTATION_LAYER_ASSIGNMENT (  '', '', ( #25 ) ) ;
#47 = DIRECTION ( 'NONE',  ( 5.024191996501961812E-17, 1.000000000000000000, -0.000000000000000000 ) ) ;
#48 = PRODUCT ( '86067', '86067', '', ( #26 ) ) ;
#49 =( GEOMETRIC_REPRESENTATION_CONTEXT ( 3 ) GLOBAL_UNCERTAINTY_ASSIGNED_CONTEXT ( ( #106 ) ) GLOBAL_UNIT_ASSIGNED_CONTEXT ( ( #284, #217, #147 ) ) REPRESENTATION_CONTEXT ( 'NONE', 'WORKASPACE' ) );
#50 = PRODUCT_DEFINITION_SHAPE ( 'NONE', 'NONE',  #128 ) ;
#51 = DIRECTION ( 'NONE',  ( 5.024191996501961812E-17, 1.000000000000000000, -0.000000000000000000 ) ) ;
#52 = PRESENTATION_STYLE_ASSIGNMENT (( #308 ) ) ;
#53 = ORIENTED_EDGE ( 'NONE', *, *, #9, .T. ) ;
#54 = FACE_OUTER_BOUND ( 'NONE', #11, .T. ) ;
#55 = SURFACE_SIDE_STYLE ('',( #225 ) ) ;
#56 = AXIS2_PLACEMENT_3D ( 'NONE', #212, #41, #68 ) ;
#57 = ORIENTED_EDGE ( 'NONE', *, *, #3, .T. ) ;
#58 = ADVANCED_FACE ( 'NONE', ( #35 ), #132, .T. ) ;
#59 = ORIENTED_EDGE ( 'NONE', *, *, #127, .T. ) ;
#60 = DIRECTION ( 'NONE',  ( 0.000000000000000000, 0.000000000000000000, -1.000000000000000000 ) ) ;
#61 = ORIENTED_EDGE ( 'NONE', *, *, #32, .F. ) ;
#62 = DIRECTION ( 'NONE',  ( -0.000000000000000000, -1.000000000000000000, -0.000000000000000000 ) ) ;
#63 = PRESENTATION_LAYER_ASSIGNMENT (  '', '', ( #82 ) ) ;
#64 = CARTESIAN_POINT ( 'NONE',  ( 1.224646799147353207E-16, 4.000000000000000000, 0.000000000000000000 ) ) ;
#65 = APPLICATION_CONTEXT ( 'automotive_design' ) ;
#66 = CARTESIAN_POINT ( 'NONE',  ( 0.000000000000000000, 0.000000000000000000, -0.1562500000000000000 ) ) ;
#67 = FACE_OUTER_BOUND ( 'NONE', #2, .T. ) ;
#68 = DIRECTION ( 'NONE',  ( -1.000000000000000000, 0.000000000000000000, 0.000000000000000000 ) ) ;
#69 = UNCERTAINTY_MEASURE_WITH_UNIT (LENGTH_MEASURE( 1.000000000000000082E-05 ), #162, 'distance_accuracy_value', 'NONE');
#70 = CARTESIAN_POINT ( 'NONE',  ( 0.1562500000000000000, 4.000000000000000000, 1.913510623667738847E-17 ) ) ;
#71 = COLOUR_RGB ( '',0.7921568627450980005, 0.8196078431372548767, 0.9333333333333333481 ) ;
#72 = DIRECTION ( 'NONE',  ( 0.000000000000000000, 1.000000000000000000, 0.000000000000000000 ) ) ;
#73 = LINE ( 'NONE', #138, #243 ) ;
#74 = LENGTH_MEASURE_WITH_UNIT ( LENGTH_MEASURE( 0.02539999999999999897 ), #263 );
#75 = EDGE_LOOP ( 'NONE', ( #57, #78 ) ) ;
#76 = MECHANICAL_DESIGN_GEOMETRIC_PRESENTATION_REPRESENTATION (  '', ( #207 ), #265 ) ;
#77 = UNCERTAINTY_MEASURE_WITH_UNIT (LENGTH_MEASURE( 1.000000000000000082E-05 ), #187, 'distance_accuracy_value', 'NONE');
#78 = ORIENTED_EDGE ( 'NONE', *, *, #307, .T. ) ;
#79 = VERTEX_POINT ( 'NONE', #92 ) ;
#80 = AXIS2_PLACEMENT_3D ( 'NONE', #36, #148, #1 ) ;
#81 = PRESENTATION_STYLE_ASSIGNMENT (( #292 ) ) ;
#82 = STYLED_ITEM ( 'NONE', ( #52 ), #175 ) ;
#83 = ORIENTED_EDGE ( 'NONE', *, *, #194, .T. ) ;
#84 = SURFACE_SIDE_STYLE ('',( #91 ) ) ;
#85 = ORIENTED_EDGE ( 'NONE', *, *, #3, .F. ) ;
#86 = DIRECTION ( 'NONE',  ( -0.000000000000000000, -1.000000000000000000, -0.000000000000000000 ) ) ;
#87 = DIRECTION ( 'NONE',  ( 0.000000000000000000, -1.000000000000000000, -0.000000000000000000 ) ) ;
#88 = MANIFOLD_SOLID_BREP ( 'Revolve - Cutting Edge', #122 ) ;
#89 = CLOSED_SHELL ( 'NONE', ( #151, #116, #14, #189 ) ) ;
#90 = ADVANCED_BREP_SHAPE_REPRESENTATION ( '86067', ( #88, #291, #165 ), #49 ) ;
#91 = SURFACE_STYLE_FILL_AREA ( #215 ) ;
#92 = CARTESIAN_POINT ( 'NONE',  ( 1.913510623667739463E-17, 0.000000000000000000, 0.1562500000000000000 ) ) ;
#93 = PRODUCT_DEFINITION_CONTEXT ( 'detailed design', #4, 'design' ) ;
#94 = PRESENTATION_STYLE_ASSIGNMENT (( #280 ) ) ;
#95 = CARTESIAN_POINT ( 'NONE',  ( 0.000000000000000000, 0.000000000000000000, 0.000000000000000000 ) ) ;
#96 = AXIS2_PLACEMENT_3D ( 'NONE', #64, #109, #289 ) ;
#97 = CYLINDRICAL_SURFACE ( 'NONE', #264, 0.1562499999999999445 ) ;
#98 = CARTESIAN_POINT ( 'NONE',  ( 0.000000000000000000, 0.000000000000000000, 0.000000000000000000 ) ) ;
#99 = COLOUR_RGB ( '',1.000000000000000000, 0.000000000000000000, 0.000000000000000000 ) ;
#100 = CIRCLE ( 'NONE', #142, 0.1562500000000000000 ) ;
#101 = EDGE_CURVE ( 'NONE', #205, #251, #164, .T. ) ;
#102 = PRESENTATION_LAYER_ASSIGNMENT (  '', '', ( #207 ) ) ;
#103 = VECTOR ( 'NONE', #51, 39.37007874015748143 ) ;
#104 = FILL_AREA_STYLE ('',( #244 ) ) ;
#105 = CARTESIAN_POINT ( 'NONE',  ( 0.000000000000000000, 1.562500000000000000, 0.000000000000000000 ) ) ;
#106 = UNCERTAINTY_MEASURE_WITH_UNIT (LENGTH_MEASURE( 1.000000000000000082E-05 ), #284, 'distance_accuracy_value', 'NONE');
#107 = VERTEX_POINT ( 'NONE', #117 ) ;
#108 = CYLINDRICAL_SURFACE ( 'NONE', #96, 0.1562499999999999445 ) ;
#109 = DIRECTION ( 'NONE',  ( 5.024191996501961812E-17, 1.000000000000000000, -0.000000000000000000 ) ) ;
#110 = EDGE_LOOP ( 'NONE', ( #177, #61 ) ) ;
#111 = FILL_AREA_STYLE ('',( #118 ) ) ;
#112 =( NAMED_UNIT ( * ) PLANE_ANGLE_UNIT ( ) SI_UNIT ( $, .RADIAN. ) );
#113 = AXIS2_PLACEMENT_3D ( 'NONE', #166, #13, #299 ) ;
#114 = PRESENTATION_STYLE_ASSIGNMENT (( #239 ) ) ;
#115 = PRESENTATION_STYLE_ASSIGNMENT (( #246 ) ) ;
#116 = ADVANCED_FACE ( 'NONE', ( #260 ), #121, .F. ) ;
#117 = CARTESIAN_POINT ( 'NONE',  ( -0.1562499999999997224, 4.000000000000000000, 0.000000000000000000 ) ) ;
#118 = FILL_AREA_STYLE_COLOUR ( '', #168 ) ;
#119 = DIRECTION ( 'NONE',  ( -1.000000000000000000, 5.024191996501961812E-17, 0.000000000000000000 ) ) ;
#120 = CARTESIAN_POINT ( 'NONE',  ( 0.000000000000000000, 0.000000000000000000, 0.000000000000000000 ) ) ;
#121 = PLANE ( 'NONE',  #221 ) ;
#122 = CLOSED_SHELL ( 'NONE', ( #175, #233, #262, #58 ) ) ;
#123 = FILL_AREA_STYLE ('',( #309 ) ) ;
#124 = LENGTH_MEASURE_WITH_UNIT ( LENGTH_MEASURE( 0.02539999999999999897 ), #44 );
#125 = AXIS2_PLACEMENT_3D ( 'NONE', #174, #149, #60 ) ;
#126 = SHAPE_DEFINITION_REPRESENTATION ( #50, #90 ) ;
#127 = EDGE_CURVE ( 'NONE', #273, #79, #213, .T. ) ;
#128 = PRODUCT_DEFINITION ( 'UNKNOWN', '', #140, #93 ) ;
#129 = CARTESIAN_POINT ( 'NONE',  ( 0.1562500000000000000, 4.000000000000000000, 0.000000000000000000 ) ) ;
#130 = ORIENTED_EDGE ( 'NONE', *, *, #32, .T. ) ;
#131 = FILL_AREA_STYLE ('',( #31 ) ) ;
#132 = PLANE ( 'NONE',  #143 ) ;
#133 = VECTOR ( 'NONE', #86, 39.37007874015748143 ) ;
#134 = CARTESIAN_POINT ( 'NONE',  ( 0.000000000000000000, 0.000000000000000000, -0.1562500000000000000 ) ) ;
#135 = ORIENTED_EDGE ( 'NONE', *, *, #127, .F. ) ;
#136 = DIRECTION ( 'NONE',  ( 5.024191996501961812E-17, 1.000000000000000000, -0.000000000000000000 ) ) ;
#137 = DIRECTION ( 'NONE',  ( 0.000000000000000000, 0.000000000000000000, -1.000000000000000000 ) ) ;
#138 = CARTESIAN_POINT ( 'NONE',  ( -0.1562499999999998057, 4.000000000000000000, 0.000000000000000000 ) ) ;
#139 = MECHANICAL_DESIGN_GEOMETRIC_PRESENTATION_REPRESENTATION (  '', ( #269 ), #8 ) ;
#140 = PRODUCT_DEFINITION_FORMATION_WITH_SPECIFIED_SOURCE ( 'ANY', '', #48, .NOT_KNOWN. ) ;
#141 = SURFACE_SIDE_STYLE ('',( #21 ) ) ;
#142 = AXIS2_PLACEMENT_3D ( 'NONE', #253, #7, #10 ) ;
#143 = AXIS2_PLACEMENT_3D ( 'NONE', #95, #87, #240 ) ;
#144 =( NAMED_UNIT ( * ) SI_UNIT ( $, .STERADIAN. ) SOLID_ANGLE_UNIT ( ) );
#145 = EDGE_CURVE ( 'NONE', #205, #107, #73, .T. ) ;
#146 = CYLINDRICAL_SURFACE ( 'NONE', #22, 0.1562500000000000000 ) ;
#147 =( NAMED_UNIT ( * ) SI_UNIT ( $, .STERADIAN. ) SOLID_ANGLE_UNIT ( ) );
#148 = DIRECTION ( 'NONE',  ( 5.024191996501961812E-17, 1.000000000000000000, -0.000000000000000000 ) ) ;
#149 = DIRECTION ( 'NONE',  ( -0.000000000000000000, -1.000000000000000000, -0.000000000000000000 ) ) ;
#150 = ORIENTED_EDGE ( 'NONE', *, *, #295, .F. ) ;
#151 = ADVANCED_FACE ( 'NONE', ( #257 ), #97, .T. ) ;
#152 = DIRECTION ( 'NONE',  ( 0.000000000000000000, 0.000000000000000000, -1.000000000000000000 ) ) ;
#153 = DIRECTION ( 'NONE',  ( -5.024191996501961812E-17, -1.000000000000000000, 0.000000000000000000 ) ) ;
#154 = EDGE_LOOP ( 'NONE', ( #223, #183, #198, #277 ) ) ;
#155 = PLANE ( 'NONE',  #281 ) ;
#156 = DIRECTION ( 'NONE',  ( -0.000000000000000000, -1.000000000000000000, -0.000000000000000000 ) ) ;
#157 = COLOUR_RGB ( '',0.7921568627450980005, 0.8196078431372548767, 0.9333333333333333481 ) ;
#158 = PRESENTATION_STYLE_ASSIGNMENT (( #184 ) ) ;
#159 =( LENGTH_UNIT ( ) NAMED_UNIT ( * ) SI_UNIT ( $, .METRE. ) );
#160 =( LENGTH_UNIT ( ) NAMED_UNIT ( * ) SI_UNIT ( $, .METRE. ) );
#161 = EDGE_CURVE ( 'NONE', #107, #290, #178, .T. ) ;
#162 =( CONVERSION_BASED_UNIT ( 'INCH', #298 ) LENGTH_UNIT ( ) NAMED_UNIT ( #250 ) );
#163 = CARTESIAN_POINT ( 'NONE',  ( 1.972070720133934954E-34, 1.562500000000000000, 0.000000000000000000 ) ) ;
#164 = CIRCLE ( 'NONE', #56, 0.1562500000000000000 ) ;
#165 = AXIS2_PLACEMENT_3D ( 'NONE', #98, #24, #171 ) ;
#166 = CARTESIAN_POINT ( 'NONE',  ( 1.224646799147353207E-16, 4.000000000000000000, 0.000000000000000000 ) ) ;
#167 =( CONVERSION_BASED_UNIT ( 'INCH', #124 ) LENGTH_UNIT ( ) NAMED_UNIT ( #293 ) );
#168 = COLOUR_RGB ( '',1.000000000000000000, 0.000000000000000000, 0.000000000000000000 ) ;
#169 = CIRCLE ( 'NONE', #282, 0.1562500000000000000 ) ;
#170 = DIRECTION ( 'NONE',  ( -0.000000000000000000, -1.000000000000000000, -0.000000000000000000 ) ) ;
#171 = DIRECTION ( 'NONE',  ( 1.000000000000000000, 0.000000000000000000, 0.000000000000000000 ) ) ;
#172 = COLOUR_RGB ( '',1.000000000000000000, 0.000000000000000000, 0.000000000000000000 ) ;
#173 = AXIS2_PLACEMENT_3D ( 'NONE', #105, #255, #201 ) ;
#174 = CARTESIAN_POINT ( 'NONE',  ( 0.000000000000000000, 0.000000000000000000, 0.000000000000000000 ) ) ;
#175 = ADVANCED_FACE ( 'NONE', ( #67 ), #28, .T. ) ;
#176 = SURFACE_STYLE_FILL_AREA ( #104 ) ;
#177 = ORIENTED_EDGE ( 'NONE', *, *, #101, .F. ) ;
#178 = CIRCLE ( 'NONE', #113, 0.1562499999999998612 ) ;
#179 = DIMENSIONAL_EXPONENTS ( 1.000000000000000000, 0.000000000000000000, 0.000000000000000000, 0.000000000000000000, 0.000000000000000000, 0.000000000000000000, 0.000000000000000000 ) ;
#180 =( GEOMETRIC_REPRESENTATION_CONTEXT ( 3 ) GLOBAL_UNCERTAINTY_ASSIGNED_CONTEXT ( ( #77 ) ) GLOBAL_UNIT_ASSIGNED_CONTEXT ( ( #187, #112, #15 ) ) REPRESENTATION_CONTEXT ( 'NONE', 'WORKASPACE' ) );
#181 = DIRECTION ( 'NONE',  ( -1.000000000000000000, 0.000000000000000000, 0.000000000000000000 ) ) ;
#182 =( NAMED_UNIT ( * ) PLANE_ANGLE_UNIT ( ) SI_UNIT ( $, .RADIAN. ) );
#183 = ORIENTED_EDGE ( 'NONE', *, *, #295, .T. ) ;
#184 = SURFACE_STYLE_USAGE ( .BOTH. , #84 ) ;
#185 = EDGE_LOOP ( 'NONE', ( #135, #30, #38, #191 ) ) ;
#186 = LINE ( 'NONE', #66, #133 ) ;
#187 =( CONVERSION_BASED_UNIT ( 'INCH', #300 ) LENGTH_UNIT ( ) NAMED_UNIT ( #200 ) );
#188 = CARTESIAN_POINT ( 'NONE',  ( 1.913510623667739463E-17, 1.562500000000000000, 0.1562500000000000000 ) ) ;
#189 = ADVANCED_FACE ( 'NONE', ( #54 ), #155, .F. ) ;
#190 = DIRECTION ( 'NONE',  ( -1.000000000000000000, 0.000000000000000000, 0.000000000000000000 ) ) ;
#191 = ORIENTED_EDGE ( 'NONE', *, *, #307, .F. ) ;
#192 =( NAMED_UNIT ( * ) PLANE_ANGLE_UNIT ( ) SI_UNIT ( $, .RADIAN. ) );
#193 = CIRCLE ( 'NONE', #80, 0.1562499999999998612 ) ;
#194 = EDGE_CURVE ( 'NONE', #290, #107, #193, .T. ) ;
#195 = SURFACE_STYLE_FILL_AREA ( #123 ) ;
#196 = COLOUR_RGB ( '',1.000000000000000000, 0.000000000000000000, 0.000000000000000000 ) ;
#197 = UNCERTAINTY_MEASURE_WITH_UNIT (LENGTH_MEASURE( 1.000000000000000082E-05 ), #167, 'distance_accuracy_value', 'NONE');
#198 = ORIENTED_EDGE ( 'NONE', *, *, #161, .F. ) ;
#199 = VERTEX_POINT ( 'NONE', #134 ) ;
#200 = DIMENSIONAL_EXPONENTS ( 1.000000000000000000, 0.000000000000000000, 0.000000000000000000, 0.000000000000000000, 0.000000000000000000, 0.000000000000000000, 0.000000000000000000 ) ;
#201 = DIRECTION ( 'NONE',  ( 0.000000000000000000, 0.000000000000000000, -1.000000000000000000 ) ) ;
#202 = PRESENTATION_LAYER_ASSIGNMENT (  '', '', ( #269 ) ) ;
#203 = ORIENTED_EDGE ( 'NONE', *, *, #161, .T. ) ;
#204 = FACE_OUTER_BOUND ( 'NONE', #227, .T. ) ;
#205 = VERTEX_POINT ( 'NONE', #230 ) ;
#206 =( NAMED_UNIT ( * ) PLANE_ANGLE_UNIT ( ) SI_UNIT ( $, .RADIAN. ) );
#207 = STYLED_ITEM ( 'NONE', ( #158 ), #291 ) ;
#208 = UNCERTAINTY_MEASURE_WITH_UNIT (LENGTH_MEASURE( 1.000000000000000082E-05 ), #209, 'distance_accuracy_value', 'NONE');
#209 =( CONVERSION_BASED_UNIT ( 'INCH', #17 ) LENGTH_UNIT ( ) NAMED_UNIT ( #272 ) );
#210 = FILL_AREA_STYLE_COLOUR ( '', #71 ) ;
#211 = FACE_OUTER_BOUND ( 'NONE', #185, .T. ) ;
#212 = CARTESIAN_POINT ( 'NONE',  ( 0.000000000000000000, 1.562500000000000000, 0.000000000000000000 ) ) ;
#213 = LINE ( 'NONE', #301, #247 ) ;
#214 = MECHANICAL_DESIGN_GEOMETRIC_PRESENTATION_REPRESENTATION (  '', ( #303 ), #287 ) ;
#215 = FILL_AREA_STYLE ('',( #234 ) ) ;
#216 = DIRECTION ( 'NONE',  ( 5.024191996501961812E-17, 1.000000000000000000, -0.000000000000000000 ) ) ;
#217 =( NAMED_UNIT ( * ) PLANE_ANGLE_UNIT ( ) SI_UNIT ( $, .RADIAN. ) );
#218 = CARTESIAN_POINT ( 'NONE',  ( 0.1562500000000000833, 4.000000000000000000, 1.913510623667738539E-17 ) ) ;
#219 = LINE ( 'NONE', #218, #103 ) ;
#220 =( GEOMETRIC_REPRESENTATION_CONTEXT ( 3 ) GLOBAL_UNCERTAINTY_ASSIGNED_CONTEXT ( ( #33 ) ) GLOBAL_UNIT_ASSIGNED_CONTEXT ( ( #296, #182, #274 ) ) REPRESENTATION_CONTEXT ( 'NONE', 'WORKASPACE' ) );
#221 = AXIS2_PLACEMENT_3D ( 'NONE', #163, #216, #119 ) ;
#222 =( LENGTH_UNIT ( ) NAMED_UNIT ( * ) SI_UNIT ( $, .METRE. ) );
#223 = ORIENTED_EDGE ( 'NONE', *, *, #101, .T. ) ;
#224 = ORIENTED_EDGE ( 'NONE', *, *, #145, .T. ) ;
#225 = SURFACE_STYLE_FILL_AREA ( #131 ) ;
#226 = DIMENSIONAL_EXPONENTS ( 1.000000000000000000, 0.000000000000000000, 0.000000000000000000, 0.000000000000000000, 0.000000000000000000, 0.000000000000000000, 0.000000000000000000 ) ;
#227 = EDGE_LOOP ( 'NONE', ( #275, #5 ) ) ;
#228 = MECHANICAL_DESIGN_GEOMETRIC_PRESENTATION_REPRESENTATION (  '', ( #278 ), #16 ) ;
#229 = CIRCLE ( 'NONE', #173, 0.1562500000000000000 ) ;
#230 = CARTESIAN_POINT ( 'NONE',  ( -0.1562500000000000000, 1.562500000000000000, 0.000000000000000000 ) ) ;
#231 = FACE_OUTER_BOUND ( 'NONE', #248, .T. ) ;
#232 =( NAMED_UNIT ( * ) SI_UNIT ( $, .STERADIAN. ) SOLID_ANGLE_UNIT ( ) );
#233 = ADVANCED_FACE ( 'NONE', ( #204 ), #266, .T. ) ;
#234 = FILL_AREA_STYLE_COLOUR ( '', #157 ) ;
#235 =( NAMED_UNIT ( * ) PLANE_ANGLE_UNIT ( ) SI_UNIT ( $, .RADIAN. ) );
#236 = AXIS2_PLACEMENT_3D ( 'NONE', #297, #156, #152 ) ;
#237 = CARTESIAN_POINT ( 'NONE',  ( 0.000000000000000000, 1.562500000000000000, 0.000000000000000000 ) ) ;
#238 = CARTESIAN_POINT ( 'NONE',  ( 1.224646799147353207E-16, 4.000000000000000000, 0.000000000000000000 ) ) ;
#239 = SURFACE_STYLE_USAGE ( .BOTH. , #141 ) ;
#240 = DIRECTION ( 'NONE',  ( 0.000000000000000000, 0.000000000000000000, -1.000000000000000000 ) ) ;
#241 = AXIS2_PLACEMENT_3D ( 'NONE', #294, #249, #181 ) ;
#242 = APPLICATION_PROTOCOL_DEFINITION ( 'draft international standard', 'automotive_design', 1998, #65 ) ;
#243 = VECTOR ( 'NONE', #136, 39.37007874015748143 ) ;
#244 = FILL_AREA_STYLE_COLOUR ( '', #172 ) ;
#245 = VERTEX_POINT ( 'NONE', #302 ) ;
#246 = SURFACE_STYLE_USAGE ( .BOTH. , #267 ) ;
#247 = VECTOR ( 'NONE', #256, 39.37007874015748143 ) ;
#248 = EDGE_LOOP ( 'NONE', ( #150, #130, #224, #270 ) ) ;
#249 = DIRECTION ( 'NONE',  ( 5.024191996501961812E-17, 1.000000000000000000, -0.000000000000000000 ) ) ;
#250 = DIMENSIONAL_EXPONENTS ( 1.000000000000000000, 0.000000000000000000, 0.000000000000000000, 0.000000000000000000, 0.000000000000000000, 0.000000000000000000, 0.000000000000000000 ) ;
#251 = VERTEX_POINT ( 'NONE', #12 ) ;
#252 = DIRECTION ( 'NONE',  ( 1.000000000000000000, -5.024191996501961812E-17, 0.000000000000000000 ) ) ;
#253 = CARTESIAN_POINT ( 'NONE',  ( 0.000000000000000000, 1.562500000000000000, 0.000000000000000000 ) ) ;
#254 = SURFACE_SIDE_STYLE ('',( #279 ) ) ;
#255 = DIRECTION ( 'NONE',  ( -0.000000000000000000, -1.000000000000000000, -0.000000000000000000 ) ) ;
#256 = DIRECTION ( 'NONE',  ( -0.000000000000000000, -1.000000000000000000, -0.000000000000000000 ) ) ;
#257 = FACE_OUTER_BOUND ( 'NONE', #154, .T. ) ;
#258 = MECHANICAL_DESIGN_GEOMETRIC_PRESENTATION_REPRESENTATION (  '', ( #25 ), #180 ) ;
#259 =( LENGTH_UNIT ( ) NAMED_UNIT ( * ) SI_UNIT ( $, .METRE. ) );
#260 = FACE_OUTER_BOUND ( 'NONE', #110, .T. ) ;
#261 = EDGE_CURVE ( 'NONE', #245, #199, #186, .T. ) ;
#262 = ADVANCED_FACE ( 'NONE', ( #211 ), #146, .T. ) ;
#263 =( LENGTH_UNIT ( ) NAMED_UNIT ( * ) SI_UNIT ( $, .METRE. ) );
#264 = AXIS2_PLACEMENT_3D ( 'NONE', #238, #47, #190 ) ;
#265 =( GEOMETRIC_REPRESENTATION_CONTEXT ( 3 ) GLOBAL_UNCERTAINTY_ASSIGNED_CONTEXT ( ( #197 ) ) GLOBAL_UNIT_ASSIGNED_CONTEXT ( ( #167, #192, #23 ) ) REPRESENTATION_CONTEXT ( 'NONE', 'WORKASPACE' ) );
#266 = PLANE ( 'NONE',  #306 ) ;
#267 = SURFACE_SIDE_STYLE ('',( #176 ) ) ;
#268 = ORIENTED_EDGE ( 'NONE', *, *, #261, .F. ) ;
#269 = STYLED_ITEM ( 'NONE', ( #115 ), #233 ) ;
#270 = ORIENTED_EDGE ( 'NONE', *, *, #194, .F. ) ;
#271 = PRESENTATION_LAYER_ASSIGNMENT (  '', '', ( #278 ) ) ;
#272 = DIMENSIONAL_EXPONENTS ( 1.000000000000000000, 0.000000000000000000, 0.000000000000000000, 0.000000000000000000, 0.000000000000000000, 0.000000000000000000, 0.000000000000000000 ) ;
#273 = VERTEX_POINT ( 'NONE', #188 ) ;
#274 =( NAMED_UNIT ( * ) SI_UNIT ( $, .STERADIAN. ) SOLID_ANGLE_UNIT ( ) );
#275 = ORIENTED_EDGE ( 'NONE', *, *, #9, .F. ) ;
#276 = UNCERTAINTY_MEASURE_WITH_UNIT (LENGTH_MEASURE( 1.000000000000000082E-05 ), #305, 'distance_accuracy_value', 'NONE');
#277 = ORIENTED_EDGE ( 'NONE', *, *, #145, .F. ) ;
#278 = STYLED_ITEM ( 'NONE', ( #81 ), #58 ) ;
#279 = SURFACE_STYLE_FILL_AREA ( #111 ) ;
#280 = SURFACE_STYLE_USAGE ( .BOTH. , #254 ) ;
#281 = AXIS2_PLACEMENT_3D ( 'NONE', #129, #153, #252 ) ;
#282 = AXIS2_PLACEMENT_3D ( 'NONE', #120, #170, #304 ) ;
#283 = MECHANICAL_DESIGN_GEOMETRIC_PRESENTATION_REPRESENTATION (  '', ( #82 ), #220 ) ;
#284 =( CONVERSION_BASED_UNIT ( 'INCH', #74 ) LENGTH_UNIT ( ) NAMED_UNIT ( #34 ) );
#285 = SURFACE_SIDE_STYLE ('',( #195 ) ) ;
#286 = APPLICATION_PROTOCOL_DEFINITION ( 'draft international standard', 'automotive_design', 1998, #4 ) ;
#287 =( GEOMETRIC_REPRESENTATION_CONTEXT ( 3 ) GLOBAL_UNCERTAINTY_ASSIGNED_CONTEXT ( ( #208 ) ) GLOBAL_UNIT_ASSIGNED_CONTEXT ( ( #209, #206, #42 ) ) REPRESENTATION_CONTEXT ( 'NONE', 'WORKASPACE' ) );
#288 = CIRCLE ( 'NONE', #236, 0.1562500000000000000 ) ;
#289 = DIRECTION ( 'NONE',  ( -1.000000000000000000, 0.000000000000000000, 0.000000000000000000 ) ) ;
#290 = VERTEX_POINT ( 'NONE', #70 ) ;
#291 = MANIFOLD_SOLID_BREP ( 'Revolve - Tool Body (Straight Shanked)', #89 ) ;
#292 = SURFACE_STYLE_USAGE ( .BOTH. , #55 ) ;
#293 = DIMENSIONAL_EXPONENTS ( 1.000000000000000000, 0.000000000000000000, 0.000000000000000000, 0.000000000000000000, 0.000000000000000000, 0.000000000000000000, 0.000000000000000000 ) ;
#294 = CARTESIAN_POINT ( 'NONE',  ( 0.000000000000000000, 1.562500000000000000, 0.000000000000000000 ) ) ;
#295 = EDGE_CURVE ( 'NONE', #251, #290, #219, .T. ) ;
#296 =( CONVERSION_BASED_UNIT ( 'INCH', #6 ) LENGTH_UNIT ( ) NAMED_UNIT ( #226 ) );
#297 = CARTESIAN_POINT ( 'NONE',  ( 0.000000000000000000, 0.000000000000000000, 0.000000000000000000 ) ) ;
#298 = LENGTH_MEASURE_WITH_UNIT ( LENGTH_MEASURE( 0.02539999999999999897 ), #159 );
#299 = DIRECTION ( 'NONE',  ( -1.000000000000000000, 0.000000000000000000, 0.000000000000000000 ) ) ;
#300 = LENGTH_MEASURE_WITH_UNIT ( LENGTH_MEASURE( 0.02539999999999999897 ), #19 );
#301 = CARTESIAN_POINT ( 'NONE',  ( 1.913510623667739463E-17, 0.000000000000000000, 0.1562500000000000000 ) ) ;
#302 = CARTESIAN_POINT ( 'NONE',  ( 0.000000000000000000, 1.562500000000000000, -0.1562500000000000000 ) ) ;
#303 = STYLED_ITEM ( 'NONE', ( #94 ), #262 ) ;
#304 = DIRECTION ( 'NONE',  ( 0.000000000000000000, 0.000000000000000000, -1.000000000000000000 ) ) ;
#305 =( CONVERSION_BASED_UNIT ( 'INCH', #43 ) LENGTH_UNIT ( ) NAMED_UNIT ( #179 ) );
#306 = AXIS2_PLACEMENT_3D ( 'NONE', #237, #72, #18 ) ;
#307 = EDGE_CURVE ( 'NONE', #79, #199, #169, .T. ) ;
#308 = SURFACE_STYLE_USAGE ( .BOTH. , #285 ) ;
#309 = FILL_AREA_STYLE_COLOUR ( '', #99 ) ;
ENDSEC;
END-ISO-10303-21;
