ISO-10303-21;
HEADER;
FILE_DESCRIPTION (( 'STEP AP214' ),
    '1' );
FILE_NAME ('83279.STEP',
    '2023-06-30T22:52:32',
    ( '' ),
    ( '' ),
    'SwSTEP 2.0',
    'SolidWorks 2023',
    '' );
FILE_SCHEMA (( 'AUTOMOTIVE_DESIGN' ));
ENDSEC;

DATA;
#1 =( LENGTH_UNIT ( ) NAMED_UNIT ( * ) SI_UNIT ( $, .METRE. ) );
#2 = APPLICATION_CONTEXT ( 'automotive_design' ) ;
#3 = ORIENTED_EDGE ( 'NONE', *, *, #100, .T. ) ;
#4 = CARTESIAN_POINT ( 'NONE',  ( 0.000000000000000000, 0.000000000000000000, 0.000000000000000000 ) ) ;
#5 =( NAMED_UNIT ( * ) PLANE_ANGLE_UNIT ( ) SI_UNIT ( $, .RADIAN. ) );
#6 = SURFACE_STYLE_USAGE ( .BOTH. , #35 ) ;
#7 = CARTESIAN_POINT ( 'NONE',  ( -0.09374999999999940326, 0.3125000000000000000, 0.000000000000000000 ) ) ;
#8 = CARTESIAN_POINT ( 'NONE',  ( 6.123233995736766036E-17, 2.000000000000000000, 0.000000000000000000 ) ) ;
#9 = PRESENTATION_LAYER_ASSIGNMENT (  '', '', ( #319 ) ) ;
#10 = ORIENTED_EDGE ( 'NONE', *, *, #303, .F. ) ;
#11 =( GEOMETRIC_REPRESENTATION_CONTEXT ( 3 ) GLOBAL_UNCERTAINTY_ASSIGNED_CONTEXT ( ( #111 ) ) GLOBAL_UNIT_ASSIGNED_CONTEXT ( ( #358, #361, #79 ) ) REPRESENTATION_CONTEXT ( 'NONE', 'WORKASPACE' ) );
#12 =( NAMED_UNIT ( * ) SI_UNIT ( $, .STERADIAN. ) SOLID_ANGLE_UNIT ( ) );
#13 = ORIENTED_EDGE ( 'NONE', *, *, #56, .T. ) ;
#14 = SURFACE_SIDE_STYLE ('',( #272 ) ) ;
#15 = PRODUCT_DEFINITION_CONTEXT ( 'detailed design', #309, 'design' ) ;
#16 = DIRECTION ( 'NONE',  ( 1.000000000000000000, 0.000000000000000000, 0.000000000000000000 ) ) ;
#17 = VERTEX_POINT ( 'NONE', #316 ) ;
#18 = FILL_AREA_STYLE_COLOUR ( '', #203 ) ;
#19 = ADVANCED_FACE ( 'NONE', ( #285 ), #88, .T. ) ;
#20 = ORIENTED_EDGE ( 'NONE', *, *, #85, .F. ) ;
#21 =( LENGTH_UNIT ( ) NAMED_UNIT ( * ) SI_UNIT ( $, .METRE. ) );
#22 = FILL_AREA_STYLE_COLOUR ( '', #360 ) ;
#23 = UNCERTAINTY_MEASURE_WITH_UNIT (LENGTH_MEASURE( 1.000000000000000082E-05 ), #179, 'distance_accuracy_value', 'NONE');
#24 = STYLED_ITEM ( 'NONE', ( #352 ), #90 ) ;
#25 = CARTESIAN_POINT ( 'NONE',  ( 0.000000000000000000, 0.3125000000000000000, 0.000000000000000000 ) ) ;
#26 = AXIS2_PLACEMENT_3D ( 'NONE', #325, #187, #261 ) ;
#27 = CIRCLE ( 'NONE', #239, 0.09374999999999997224 ) ;
#28 = ORIENTED_EDGE ( 'NONE', *, *, #243, .T. ) ;
#29 = SURFACE_SIDE_STYLE ('',( #199 ) ) ;
#30 = ORIENTED_EDGE ( 'NONE', *, *, #180, .F. ) ;
#31 = DIRECTION ( 'NONE',  ( 0.000000000000000000, 0.000000000000000000, -1.000000000000000000 ) ) ;
#32 = SURFACE_STYLE_FILL_AREA ( #64 ) ;
#33 = AXIS2_PLACEMENT_3D ( 'NONE', #50, #312, #61 ) ;
#34 =( GEOMETRIC_REPRESENTATION_CONTEXT ( 3 ) GLOBAL_UNCERTAINTY_ASSIGNED_CONTEXT ( ( #246 ) ) GLOBAL_UNIT_ASSIGNED_CONTEXT ( ( #128, #41, #155 ) ) REPRESENTATION_CONTEXT ( 'NONE', 'WORKASPACE' ) );
#35 = SURFACE_SIDE_STYLE ('',( #151 ) ) ;
#36 = DIRECTION ( 'NONE',  ( -0.000000000000000000, -1.000000000000000000, -0.000000000000000000 ) ) ;
#37 = ADVANCED_FACE ( 'NONE', ( #176 ), #283, .T. ) ;
#38 = CIRCLE ( 'NONE', #78, 0.09374999999999998612 ) ;
#39 = CIRCLE ( 'NONE', #122, 0.09374999999999988898 ) ;
#40 = FILL_AREA_STYLE_COLOUR ( '', #337 ) ;
#41 =( NAMED_UNIT ( * ) PLANE_ANGLE_UNIT ( ) SI_UNIT ( $, .RADIAN. ) );
#42 = ADVANCED_FACE ( 'NONE', ( #157 ), #236, .F. ) ;
#43 = VERTEX_POINT ( 'NONE', #238 ) ;
#44 = FILL_AREA_STYLE ('',( #18 ) ) ;
#45 = AXIS2_PLACEMENT_3D ( 'NONE', #315, #343, #31 ) ;
#46 = ORIENTED_EDGE ( 'NONE', *, *, #85, .T. ) ;
#47 = COLOUR_RGB ( '',1.000000000000000000, 0.000000000000000000, 0.000000000000000000 ) ;
#48 = CARTESIAN_POINT ( 'NONE',  ( -0.09374999999999998612, 0.09375000000000001388, 1.148106374200643247E-17 ) ) ;
#49 = EDGE_LOOP ( 'NONE', ( #163, #362, #268, #328 ) ) ;
#50 = CARTESIAN_POINT ( 'NONE',  ( 0.000000000000000000, 0.3125000000000000000, 0.000000000000000000 ) ) ;
#51 = LENGTH_MEASURE_WITH_UNIT ( LENGTH_MEASURE( 0.02539999999999999897 ), #306 );
#52 = EDGE_LOOP ( 'NONE', ( #123, #3, #109, #298 ) ) ;
#53 = SURFACE_STYLE_FILL_AREA ( #44 ) ;
#54 = UNCERTAINTY_MEASURE_WITH_UNIT (LENGTH_MEASURE( 1.000000000000000082E-05 ), #363, 'distance_accuracy_value', 'NONE');
#55 = CARTESIAN_POINT ( 'NONE',  ( 0.000000000000000000, 0.09375000000000001388, 0.000000000000000000 ) ) ;
#56 = EDGE_CURVE ( 'NONE', #167, #296, #39, .T. ) ;
#57 = FILL_AREA_STYLE ('',( #22 ) ) ;
#58 = PRESENTATION_LAYER_ASSIGNMENT (  '', '', ( #24 ) ) ;
#59 = DIRECTION ( 'NONE',  ( -1.225514354332828407E-16, 1.000000000000000000, 0.000000000000000000 ) ) ;
#60 = AXIS2_PLACEMENT_3D ( 'NONE', #98, #293, #104 ) ;
#61 = DIRECTION ( 'NONE',  ( 0.000000000000000000, -0.000000000000000000, 1.000000000000000000 ) ) ;
#62 = LINE ( 'NONE', #148, #313 ) ;
#63 = DIRECTION ( 'NONE',  ( -0.000000000000000000, -1.000000000000000000, -0.000000000000000000 ) ) ;
#64 = FILL_AREA_STYLE ('',( #169 ) ) ;
#65 =( CONVERSION_BASED_UNIT ( 'INCH', #68 ) LENGTH_UNIT ( ) NAMED_UNIT ( #327 ) );
#66 = DIRECTION ( 'NONE',  ( -1.225514354332828407E-16, 1.000000000000000000, -0.000000000000000000 ) ) ;
#67 = VECTOR ( 'NONE', #212, 39.37007874015748143 ) ;
#68 = LENGTH_MEASURE_WITH_UNIT ( LENGTH_MEASURE( 0.02539999999999999897 ), #96 );
#69 = DIRECTION ( 'NONE',  ( 1.000000000000000000, 1.225514354332828407E-16, 0.000000000000000000 ) ) ;
#70 =( NAMED_UNIT ( * ) PLANE_ANGLE_UNIT ( ) SI_UNIT ( $, .RADIAN. ) );
#71 = LINE ( 'NONE', #183, #67 ) ;
#72 = FILL_AREA_STYLE ('',( #40 ) ) ;
#73 =( NAMED_UNIT ( * ) PLANE_ANGLE_UNIT ( ) SI_UNIT ( $, .RADIAN. ) );
#74 = DIMENSIONAL_EXPONENTS ( 1.000000000000000000, 0.000000000000000000, 0.000000000000000000, 0.000000000000000000, 0.000000000000000000, 0.000000000000000000, 0.000000000000000000 ) ;
#75 = SURFACE_STYLE_USAGE ( .BOTH. , #130 ) ;
#76 = FACE_OUTER_BOUND ( 'NONE', #107, .T. ) ;
#77 = AXIS2_PLACEMENT_3D ( 'NONE', #338, #118, #230 ) ;
#78 = AXIS2_PLACEMENT_3D ( 'NONE', #119, #231, #341 ) ;
#79 =( NAMED_UNIT ( * ) SI_UNIT ( $, .STERADIAN. ) SOLID_ANGLE_UNIT ( ) );
#80 = DIMENSIONAL_EXPONENTS ( 1.000000000000000000, 0.000000000000000000, 0.000000000000000000, 0.000000000000000000, 0.000000000000000000, 0.000000000000000000, 0.000000000000000000 ) ;
#81 = EDGE_LOOP ( 'NONE', ( #234, #218, #371, #202 ) ) ;
#82 = SHAPE_DEFINITION_REPRESENTATION ( #158, #208 ) ;
#83 = FILL_AREA_STYLE_COLOUR ( '', #47 ) ;
#84 = FACE_OUTER_BOUND ( 'NONE', #52, .T. ) ;
#85 = EDGE_CURVE ( 'NONE', #43, #17, #153, .T. ) ;
#86 = CARTESIAN_POINT ( 'NONE',  ( -0.09374999999999981959, 2.000000000000000000, 0.000000000000000000 ) ) ;
#87 = DIRECTION ( 'NONE',  ( -1.225514354332828407E-16, 1.000000000000000000, -0.000000000000000000 ) ) ;
#88 = PLANE ( 'NONE',  #33 ) ;
#89 = MANIFOLD_SOLID_BREP ( 'Revolve - Cutting Edge', #101 ) ;
#90 = MANIFOLD_SOLID_BREP ( 'Revolve - Tool Body (Straight Shanked)', #140 ) ;
#91 = CARTESIAN_POINT ( 'NONE',  ( 0.09374999999999994449, 2.000000000000000000, 1.148106374200641552E-17 ) ) ;
#92 = VERTEX_POINT ( 'NONE', #188 ) ;
#93 = EDGE_CURVE ( 'NONE', #177, #250, #71, .T. ) ;
#94 = DIRECTION ( 'NONE',  ( -1.000000000000000000, 0.000000000000000000, 0.000000000000000000 ) ) ;
#95 = EDGE_LOOP ( 'NONE', ( #13, #370 ) ) ;
#96 =( LENGTH_UNIT ( ) NAMED_UNIT ( * ) SI_UNIT ( $, .METRE. ) );
#97 = ORIENTED_EDGE ( 'NONE', *, *, #331, .F. ) ;
#98 = CARTESIAN_POINT ( 'NONE',  ( 0.000000000000000000, 0.000000000000000000, 0.000000000000000000 ) ) ;
#99 = PRESENTATION_LAYER_ASSIGNMENT (  '', '', ( #349 ) ) ;
#100 = EDGE_CURVE ( 'NONE', #147, #92, #222, .T. ) ;
#101 = CLOSED_SHELL ( 'NONE', ( #258, #314, #19, #165, #145 ) ) ;
#102 = STYLED_ITEM ( 'NONE', ( #175 ), #258 ) ;
#103 = CARTESIAN_POINT ( 'NONE',  ( 0.09374999999999994449, 0.3125000000000000000, 1.148106374200641552E-17 ) ) ;
#104 = DIRECTION ( 'NONE',  ( 0.000000000000000000, 0.000000000000000000, -1.000000000000000000 ) ) ;
#105 = STYLED_ITEM ( 'NONE', ( #322 ), #89 ) ;
#106 = DIRECTION ( 'NONE',  ( -1.000000000000000000, 0.000000000000000000, 0.000000000000000000 ) ) ;
#107 = EDGE_LOOP ( 'NONE', ( #20, #287, #192, #10, #224 ) ) ;
#108 = DIRECTION ( 'NONE',  ( -1.225514354332828407E-16, 1.000000000000000000, -0.000000000000000000 ) ) ;
#109 = ORIENTED_EDGE ( 'NONE', *, *, #290, .F. ) ;
#110 = AXIS2_PLACEMENT_3D ( 'NONE', #168, #190, #16 ) ;
#111 = UNCERTAINTY_MEASURE_WITH_UNIT (LENGTH_MEASURE( 1.000000000000000082E-05 ), #358, 'distance_accuracy_value', 'NONE');
#112 = LENGTH_MEASURE_WITH_UNIT ( LENGTH_MEASURE( 0.02539999999999999897 ), #197 );
#113 = ADVANCED_FACE ( 'NONE', ( #278 ), #305, .T. ) ;
#114 = DIRECTION ( 'NONE',  ( -0.000000000000000000, -1.000000000000000000, -0.000000000000000000 ) ) ;
#115 = DIRECTION ( 'NONE',  ( -1.000000000000000000, -1.225514354332828407E-16, 0.000000000000000000 ) ) ;
#116 =( GEOMETRIC_REPRESENTATION_CONTEXT ( 3 ) GLOBAL_UNCERTAINTY_ASSIGNED_CONTEXT ( ( #54 ) ) GLOBAL_UNIT_ASSIGNED_CONTEXT ( ( #363, #307, #12 ) ) REPRESENTATION_CONTEXT ( 'NONE', 'WORKASPACE' ) );
#117 = UNCERTAINTY_MEASURE_WITH_UNIT (LENGTH_MEASURE( 1.000000000000000082E-05 ), #172, 'distance_accuracy_value', 'NONE');
#118 = DIRECTION ( 'NONE',  ( 0.000000000000000000, 0.000000000000000000, 1.000000000000000000 ) ) ;
#119 = CARTESIAN_POINT ( 'NONE',  ( -1.148106374200643401E-17, 0.09374999999999998612, 0.000000000000000000 ) ) ;
#120 = ORIENTED_EDGE ( 'NONE', *, *, #373, .F. ) ;
#121 = EDGE_LOOP ( 'NONE', ( #120, #149 ) ) ;
#122 = AXIS2_PLACEMENT_3D ( 'NONE', #8, #66, #260 ) ;
#123 = ORIENTED_EDGE ( 'NONE', *, *, #249, .T. ) ;
#124 =( CONVERSION_BASED_UNIT ( 'INCH', #211 ) LENGTH_UNIT ( ) NAMED_UNIT ( #74 ) );
#125 = EDGE_CURVE ( 'NONE', #296, #167, #289, .T. ) ;
#126 =( GEOMETRIC_REPRESENTATION_CONTEXT ( 3 ) GLOBAL_UNCERTAINTY_ASSIGNED_CONTEXT ( ( #336 ) ) GLOBAL_UNIT_ASSIGNED_CONTEXT ( ( #124, #70, #266 ) ) REPRESENTATION_CONTEXT ( 'NONE', 'WORKASPACE' ) );
#127 = PRODUCT_CONTEXT ( 'NONE', #2, 'mechanical' ) ;
#128 =( CONVERSION_BASED_UNIT ( 'INCH', #185 ) LENGTH_UNIT ( ) NAMED_UNIT ( #359 ) );
#129 = DIRECTION ( 'NONE',  ( 0.000000000000000000, 0.000000000000000000, -1.000000000000000000 ) ) ;
#130 = SURFACE_SIDE_STYLE ('',( #159 ) ) ;
#131 = CIRCLE ( 'NONE', #45, 0.09374999999999997224 ) ;
#132 = AXIS2_PLACEMENT_3D ( 'NONE', #333, #136, #220 ) ;
#133 = SURFACE_SIDE_STYLE ('',( #53 ) ) ;
#134 = ORIENTED_EDGE ( 'NONE', *, *, #125, .F. ) ;
#135 = CYLINDRICAL_SURFACE ( 'NONE', #164, 0.09374999999999995837 ) ;
#136 = DIRECTION ( 'NONE',  ( -1.225514354332828407E-16, 1.000000000000000000, -0.000000000000000000 ) ) ;
#137 = LENGTH_MEASURE_WITH_UNIT ( LENGTH_MEASURE( 0.02539999999999999897 ), #21 );
#138 = DIRECTION ( 'NONE',  ( 0.000000000000000000, 0.000000000000000000, -1.000000000000000000 ) ) ;
#139 = AXIS2_PLACEMENT_3D ( 'NONE', #200, #282, #94 ) ;
#140 = CLOSED_SHELL ( 'NONE', ( #37, #254, #113, #42 ) ) ;
#141 =( NAMED_UNIT ( * ) SI_UNIT ( $, .STERADIAN. ) SOLID_ANGLE_UNIT ( ) );
#142 = MECHANICAL_DESIGN_GEOMETRIC_PRESENTATION_REPRESENTATION (  '', ( #24 ), #301 ) ;
#143 = CARTESIAN_POINT ( 'NONE',  ( -0.09374999999999972244, 2.000000000000000000, 0.000000000000000000 ) ) ;
#144 = CARTESIAN_POINT ( 'NONE',  ( 6.123233995736766036E-17, 2.000000000000000000, 0.000000000000000000 ) ) ;
#145 = ADVANCED_FACE ( 'NONE', ( #275 ), #330, .T. ) ;
#146 = SURFACE_STYLE_USAGE ( .BOTH. , #29 ) ;
#147 = VERTEX_POINT ( 'NONE', #48 ) ;
#148 = CARTESIAN_POINT ( 'NONE',  ( 0.09374999999999984734, 2.000000000000000000, 1.148106374200640935E-17 ) ) ;
#149 = ORIENTED_EDGE ( 'NONE', *, *, #240, .F. ) ;
#150 = AXIS2_PLACEMENT_3D ( 'NONE', #144, #294, #106 ) ;
#151 = SURFACE_STYLE_FILL_AREA ( #241 ) ;
#152 = SURFACE_SIDE_STYLE ('',( #323 ) ) ;
#153 = LINE ( 'NONE', #295, #170 ) ;
#154 = MECHANICAL_DESIGN_GEOMETRIC_PRESENTATION_REPRESENTATION (  '', ( #320 ), #11 ) ;
#155 =( NAMED_UNIT ( * ) SI_UNIT ( $, .STERADIAN. ) SOLID_ANGLE_UNIT ( ) );
#156 = AXIS2_PLACEMENT_3D ( 'NONE', #345, #36, #214 ) ;
#157 = FACE_OUTER_BOUND ( 'NONE', #95, .T. ) ;
#158 = PRODUCT_DEFINITION_SHAPE ( 'NONE', 'NONE',  #262 ) ;
#159 = SURFACE_STYLE_FILL_AREA ( #348 ) ;
#160 = SURFACE_STYLE_USAGE ( .BOTH. , #133 ) ;
#161 = VECTOR ( 'NONE', #311, 39.37007874015748143 ) ;
#162 = PRODUCT_DEFINITION_FORMATION_WITH_SPECIFIED_SOURCE ( 'ANY', '', #329, .NOT_KNOWN. ) ;
#163 = ORIENTED_EDGE ( 'NONE', *, *, #331, .T. ) ;
#164 = AXIS2_PLACEMENT_3D ( 'NONE', #334, #63, #138 ) ;
#165 = ADVANCED_FACE ( 'NONE', ( #76 ), #135, .T. ) ;
#166 = UNCERTAINTY_MEASURE_WITH_UNIT (LENGTH_MEASURE( 1.000000000000000082E-05 ), #242, 'distance_accuracy_value', 'NONE');
#167 = VERTEX_POINT ( 'NONE', #86 ) ;
#168 = CARTESIAN_POINT ( 'NONE',  ( -1.148106374200643401E-17, 0.09374999999999998612, 0.000000000000000000 ) ) ;
#169 = FILL_AREA_STYLE_COLOUR ( '', #300 ) ;
#170 = VECTOR ( 'NONE', #186, 39.37007874015748143 ) ;
#171 = FILL_AREA_STYLE ('',( #83 ) ) ;
#172 =( CONVERSION_BASED_UNIT ( 'INCH', #233 ) LENGTH_UNIT ( ) NAMED_UNIT ( #219 ) );
#173 =( NAMED_UNIT ( * ) PLANE_ANGLE_UNIT ( ) SI_UNIT ( $, .RADIAN. ) );
#174 = PRESENTATION_LAYER_ASSIGNMENT (  '', '', ( #102 ) ) ;
#175 = PRESENTATION_STYLE_ASSIGNMENT (( #146 ) ) ;
#176 = FACE_OUTER_BOUND ( 'NONE', #49, .T. ) ;
#177 = VERTEX_POINT ( 'NONE', #228 ) ;
#178 = CARTESIAN_POINT ( 'NONE',  ( 2.680378872510324402E-16, 0.3125000000000000000, 0.000000000000000000 ) ) ;
#179 =( CONVERSION_BASED_UNIT ( 'INCH', #112 ) LENGTH_UNIT ( ) NAMED_UNIT ( #304 ) );
#180 = EDGE_CURVE ( 'NONE', #364, #296, #62, .T. ) ;
#181 = PRESENTATION_LAYER_ASSIGNMENT (  '', '', ( #320 ) ) ;
#182 = DIRECTION ( 'NONE',  ( -0.000000000000000000, -1.000000000000000000, -0.000000000000000000 ) ) ;
#183 = CARTESIAN_POINT ( 'NONE',  ( 0.000000000000000000, 0.000000000000000000, -0.09374999999999995837 ) ) ;
#184 = DIRECTION ( 'NONE',  ( 0.000000000000000000, 0.000000000000000000, 1.000000000000000000 ) ) ;
#185 = LENGTH_MEASURE_WITH_UNIT ( LENGTH_MEASURE( 0.02539999999999999897 ), #215 );
#186 = DIRECTION ( 'NONE',  ( -0.000000000000000000, -1.000000000000000000, -0.000000000000000000 ) ) ;
#187 = DIRECTION ( 'NONE',  ( -1.225514354332828407E-16, 1.000000000000000000, -0.000000000000000000 ) ) ;
#188 = CARTESIAN_POINT ( 'NONE',  ( -5.740531871003217003E-18, 0.000000000000000000, 0.000000000000000000 ) ) ;
#189 = CYLINDRICAL_SURFACE ( 'NONE', #60, 0.09374999999999995837 ) ;
#190 = DIRECTION ( 'NONE',  ( 0.000000000000000000, 0.000000000000000000, 1.000000000000000000 ) ) ;
#191 = UNCERTAINTY_MEASURE_WITH_UNIT (LENGTH_MEASURE( 1.000000000000000082E-05 ), #65, 'distance_accuracy_value', 'NONE');
#192 = ORIENTED_EDGE ( 'NONE', *, *, #93, .T. ) ;
#193 = SURFACE_STYLE_USAGE ( .BOTH. , #14 ) ;
#194 = CIRCLE ( 'NONE', #156, 0.09374999999999995837 ) ;
#195 = ORIENTED_EDGE ( 'NONE', *, *, #93, .F. ) ;
#196 = DIRECTION ( 'NONE',  ( -1.000000000000000000, 0.000000000000000000, 0.000000000000000000 ) ) ;
#197 =( LENGTH_UNIT ( ) NAMED_UNIT ( * ) SI_UNIT ( $, .METRE. ) );
#198 =( GEOMETRIC_REPRESENTATION_CONTEXT ( 3 ) GLOBAL_UNCERTAINTY_ASSIGNED_CONTEXT ( ( #23 ) ) GLOBAL_UNIT_ASSIGNED_CONTEXT ( ( #179, #209, #277 ) ) REPRESENTATION_CONTEXT ( 'NONE', 'WORKASPACE' ) );
#199 = SURFACE_STYLE_FILL_AREA ( #57 ) ;
#200 = CARTESIAN_POINT ( 'NONE',  ( 2.680378872510324402E-16, 0.3125000000000000000, 0.000000000000000000 ) ) ;
#201 = DIRECTION ( 'NONE',  ( -0.000000000000000000, -1.000000000000000000, -0.000000000000000000 ) ) ;
#202 = ORIENTED_EDGE ( 'NONE', *, *, #290, .T. ) ;
#203 = COLOUR_RGB ( '',1.000000000000000000, 0.000000000000000000, 0.000000000000000000 ) ;
#204 = CIRCLE ( 'NONE', #26, 0.09374999999999968081 ) ;
#205 = CARTESIAN_POINT ( 'NONE',  ( 0.09374999999999997224, 0.09375000000000001388, 0.000000000000000000 ) ) ;
#206 = ORIENTED_EDGE ( 'NONE', *, *, #243, .F. ) ;
#207 = SURFACE_SIDE_STYLE ('',( #32 ) ) ;
#208 = ADVANCED_BREP_SHAPE_REPRESENTATION ( '83279', ( #89, #90, #281 ), #226 ) ;
#209 =( NAMED_UNIT ( * ) PLANE_ANGLE_UNIT ( ) SI_UNIT ( $, .RADIAN. ) );
#210 = CIRCLE ( 'NONE', #139, 0.09374999999999968081 ) ;
#211 = LENGTH_MEASURE_WITH_UNIT ( LENGTH_MEASURE( 0.02539999999999999897 ), #1 );
#212 = DIRECTION ( 'NONE',  ( -0.000000000000000000, -1.000000000000000000, -0.000000000000000000 ) ) ;
#213 = AXIS2_PLACEMENT_3D ( 'NONE', #217, #253, #247 ) ;
#214 = DIRECTION ( 'NONE',  ( 0.000000000000000000, 0.000000000000000000, -1.000000000000000000 ) ) ;
#215 =( LENGTH_UNIT ( ) NAMED_UNIT ( * ) SI_UNIT ( $, .METRE. ) );
#216 = APPLICATION_PROTOCOL_DEFINITION ( 'draft international standard', 'automotive_design', 1998, #309 ) ;
#217 = CARTESIAN_POINT ( 'NONE',  ( -1.148106374200643401E-17, 0.09374999999999998612, 0.000000000000000000 ) ) ;
#218 = ORIENTED_EDGE ( 'NONE', *, *, #303, .T. ) ;
#219 = DIMENSIONAL_EXPONENTS ( 1.000000000000000000, 0.000000000000000000, 0.000000000000000000, 0.000000000000000000, 0.000000000000000000, 0.000000000000000000, 0.000000000000000000 ) ;
#220 = DIRECTION ( 'NONE',  ( -1.000000000000000000, 0.000000000000000000, 0.000000000000000000 ) ) ;
#221 = PRESENTATION_STYLE_ASSIGNMENT (( #160 ) ) ;
#222 = CIRCLE ( 'NONE', #213, 0.09374999999999998612 ) ;
#223 = STYLED_ITEM ( 'NONE', ( #273 ), #19 ) ;
#224 = ORIENTED_EDGE ( 'NONE', *, *, #249, .F. ) ;
#225 = DIRECTION ( 'NONE',  ( -0.000000000000000000, -1.000000000000000000, -0.000000000000000000 ) ) ;
#226 =( GEOMETRIC_REPRESENTATION_CONTEXT ( 3 ) GLOBAL_UNCERTAINTY_ASSIGNED_CONTEXT ( ( #191 ) ) GLOBAL_UNIT_ASSIGNED_CONTEXT ( ( #65, #5, #235 ) ) REPRESENTATION_CONTEXT ( 'NONE', 'WORKASPACE' ) );
#227 = MECHANICAL_DESIGN_GEOMETRIC_PRESENTATION_REPRESENTATION (  '', ( #102 ), #269 ) ;
#228 = CARTESIAN_POINT ( 'NONE',  ( 0.000000000000000000, 0.3125000000000000000, -0.09374999999999995837 ) ) ;
#229 = EDGE_CURVE ( 'NONE', #344, #167, #286, .T. ) ;
#230 = DIRECTION ( 'NONE',  ( 1.000000000000000000, 0.000000000000000000, 0.000000000000000000 ) ) ;
#231 = DIRECTION ( 'NONE',  ( 0.000000000000000000, 0.000000000000000000, -1.000000000000000000 ) ) ;
#232 = ORIENTED_EDGE ( 'NONE', *, *, #346, .F. ) ;
#233 = LENGTH_MEASURE_WITH_UNIT ( LENGTH_MEASURE( 0.02539999999999999897 ), #308 );
#234 = ORIENTED_EDGE ( 'NONE', *, *, #100, .F. ) ;
#235 =( NAMED_UNIT ( * ) SI_UNIT ( $, .STERADIAN. ) SOLID_ANGLE_UNIT ( ) );
#236 = PLANE ( 'NONE',  #351 ) ;
#237 = APPLICATION_PROTOCOL_DEFINITION ( 'draft international standard', 'automotive_design', 1998, #2 ) ;
#238 = CARTESIAN_POINT ( 'NONE',  ( 1.148106374200643092E-17, 0.3125000000000000000, 0.09374999999999995837 ) ) ;
#239 = AXIS2_PLACEMENT_3D ( 'NONE', #340, #201, #369 ) ;
#240 = EDGE_CURVE ( 'NONE', #43, #177, #288, .T. ) ;
#241 = FILL_AREA_STYLE ('',( #292 ) ) ;
#242 =( CONVERSION_BASED_UNIT ( 'INCH', #326 ) LENGTH_UNIT ( ) NAMED_UNIT ( #274 ) );
#243 = EDGE_CURVE ( 'NONE', #364, #344, #210, .T. ) ;
#244 = PRESENTATION_LAYER_ASSIGNMENT (  '', '', ( #105 ) ) ;
#245 = COLOUR_RGB ( '',0.7921568627450980005, 0.8196078431372548767, 0.9333333333333333481 ) ;
#246 = UNCERTAINTY_MEASURE_WITH_UNIT (LENGTH_MEASURE( 1.000000000000000082E-05 ), #128, 'distance_accuracy_value', 'NONE');
#247 = DIRECTION ( 'NONE',  ( 1.000000000000000000, 0.000000000000000000, -1.224646799147353207E-16 ) ) ;
#248 = MECHANICAL_DESIGN_GEOMETRIC_PRESENTATION_REPRESENTATION (  '', ( #349 ), #126 ) ;
#249 = EDGE_CURVE ( 'NONE', #17, #147, #255, .T. ) ;
#250 = VERTEX_POINT ( 'NONE', #310 ) ;
#251 = PRESENTATION_STYLE_ASSIGNMENT (( #193 ) ) ;
#252 = ORIENTED_EDGE ( 'NONE', *, *, #373, .T. ) ;
#253 = DIRECTION ( 'NONE',  ( 1.224646799147353207E-16, -0.000000000000000000, 1.000000000000000000 ) ) ;
#254 = ADVANCED_FACE ( 'NONE', ( #339 ), #259, .F. ) ;
#255 = CIRCLE ( 'NONE', #332, 0.09374999999999997224 ) ;
#256 = EDGE_LOOP ( 'NONE', ( #30, #28, #342, #134 ) ) ;
#257 = EDGE_LOOP ( 'NONE', ( #252, #46, #271, #232, #195 ) ) ;
#258 = ADVANCED_FACE ( 'NONE', ( #84 ), #368, .T. ) ;
#259 = PLANE ( 'NONE',  #366 ) ;
#260 = DIRECTION ( 'NONE',  ( -1.000000000000000000, 0.000000000000000000, 0.000000000000000000 ) ) ;
#261 = DIRECTION ( 'NONE',  ( -1.000000000000000000, 0.000000000000000000, 0.000000000000000000 ) ) ;
#262 = PRODUCT_DEFINITION ( 'UNKNOWN', '', #162, #15 ) ;
#263 = FILL_AREA_STYLE_COLOUR ( '', #245 ) ;
#264 = AXIS2_PLACEMENT_3D ( 'NONE', #321, #182, #129 ) ;
#265 = PRESENTATION_STYLE_ASSIGNMENT (( #353 ) ) ;
#266 =( NAMED_UNIT ( * ) SI_UNIT ( $, .STERADIAN. ) SOLID_ANGLE_UNIT ( ) );
#267 =( LENGTH_UNIT ( ) NAMED_UNIT ( * ) SI_UNIT ( $, .METRE. ) );
#268 = ORIENTED_EDGE ( 'NONE', *, *, #56, .F. ) ;
#269 =( GEOMETRIC_REPRESENTATION_CONTEXT ( 3 ) GLOBAL_UNCERTAINTY_ASSIGNED_CONTEXT ( ( #117 ) ) GLOBAL_UNIT_ASSIGNED_CONTEXT ( ( #172, #173, #141 ) ) REPRESENTATION_CONTEXT ( 'NONE', 'WORKASPACE' ) );
#270 = AXIS2_PLACEMENT_3D ( 'NONE', #365, #108, #196 ) ;
#271 = ORIENTED_EDGE ( 'NONE', *, *, #279, .F. ) ;
#272 = SURFACE_STYLE_FILL_AREA ( #171 ) ;
#273 = PRESENTATION_STYLE_ASSIGNMENT (( #317 ) ) ;
#274 = DIMENSIONAL_EXPONENTS ( 1.000000000000000000, 0.000000000000000000, 0.000000000000000000, 0.000000000000000000, 0.000000000000000000, 0.000000000000000000, 0.000000000000000000 ) ;
#275 = FACE_OUTER_BOUND ( 'NONE', #81, .T. ) ;
#276 = PRESENTATION_LAYER_ASSIGNMENT (  '', '', ( #223 ) ) ;
#277 =( NAMED_UNIT ( * ) SI_UNIT ( $, .STERADIAN. ) SOLID_ANGLE_UNIT ( ) );
#278 = FACE_OUTER_BOUND ( 'NONE', #256, .T. ) ;
#279 = EDGE_CURVE ( 'NONE', #302, #17, #27, .T. ) ;
#280 = DIRECTION ( 'NONE',  ( 0.000000000000000000, 0.000000000000000000, -1.000000000000000000 ) ) ;
#281 = AXIS2_PLACEMENT_3D ( 'NONE', #4, #184, #347 ) ;
#282 = DIRECTION ( 'NONE',  ( -1.225514354332828407E-16, 1.000000000000000000, -0.000000000000000000 ) ) ;
#283 = CYLINDRICAL_SURFACE ( 'NONE', #150, 0.09374999999999979183 ) ;
#284 = DIRECTION ( 'NONE',  ( 0.000000000000000000, 0.000000000000000000, -1.000000000000000000 ) ) ;
#285 = FACE_OUTER_BOUND ( 'NONE', #121, .T. ) ;
#286 = LINE ( 'NONE', #143, #161 ) ;
#287 = ORIENTED_EDGE ( 'NONE', *, *, #240, .T. ) ;
#288 = CIRCLE ( 'NONE', #299, 0.09374999999999995837 ) ;
#289 = CIRCLE ( 'NONE', #132, 0.09374999999999988898 ) ;
#290 = EDGE_CURVE ( 'NONE', #302, #92, #38, .T. ) ;
#291 = FACE_OUTER_BOUND ( 'NONE', #257, .T. ) ;
#292 = FILL_AREA_STYLE_COLOUR ( '', #372 ) ;
#293 = DIRECTION ( 'NONE',  ( -0.000000000000000000, -1.000000000000000000, -0.000000000000000000 ) ) ;
#294 = DIRECTION ( 'NONE',  ( -1.225514354332828407E-16, 1.000000000000000000, -0.000000000000000000 ) ) ;
#295 = CARTESIAN_POINT ( 'NONE',  ( 1.148106374200643092E-17, 0.000000000000000000, 0.09374999999999995837 ) ) ;
#296 = VERTEX_POINT ( 'NONE', #91 ) ;
#297 = PRODUCT_RELATED_PRODUCT_CATEGORY ( 'part', '', ( #329 ) ) ;
#298 = ORIENTED_EDGE ( 'NONE', *, *, #279, .T. ) ;
#299 = AXIS2_PLACEMENT_3D ( 'NONE', #25, #225, #284 ) ;
#300 = COLOUR_RGB ( '',1.000000000000000000, 0.000000000000000000, 0.000000000000000000 ) ;
#301 =( GEOMETRIC_REPRESENTATION_CONTEXT ( 3 ) GLOBAL_UNCERTAINTY_ASSIGNED_CONTEXT ( ( #166 ) ) GLOBAL_UNIT_ASSIGNED_CONTEXT ( ( #242, #73, #324 ) ) REPRESENTATION_CONTEXT ( 'NONE', 'WORKASPACE' ) );
#302 = VERTEX_POINT ( 'NONE', #205 ) ;
#303 = EDGE_CURVE ( 'NONE', #147, #250, #131, .T. ) ;
#304 = DIMENSIONAL_EXPONENTS ( 1.000000000000000000, 0.000000000000000000, 0.000000000000000000, 0.000000000000000000, 0.000000000000000000, 0.000000000000000000, 0.000000000000000000 ) ;
#305 = CYLINDRICAL_SURFACE ( 'NONE', #270, 0.09374999999999979183 ) ;
#306 =( LENGTH_UNIT ( ) NAMED_UNIT ( * ) SI_UNIT ( $, .METRE. ) );
#307 =( NAMED_UNIT ( * ) PLANE_ANGLE_UNIT ( ) SI_UNIT ( $, .RADIAN. ) );
#308 =( LENGTH_UNIT ( ) NAMED_UNIT ( * ) SI_UNIT ( $, .METRE. ) );
#309 = APPLICATION_CONTEXT ( 'automotive_design' ) ;
#310 = CARTESIAN_POINT ( 'NONE',  ( 0.000000000000000000, 0.09375000000000001388, -0.09374999999999997224 ) ) ;
#311 = DIRECTION ( 'NONE',  ( -1.225514354332828407E-16, 1.000000000000000000, -0.000000000000000000 ) ) ;
#312 = DIRECTION ( 'NONE',  ( 0.000000000000000000, 1.000000000000000000, 0.000000000000000000 ) ) ;
#313 = VECTOR ( 'NONE', #87, 39.37007874015748143 ) ;
#314 = ADVANCED_FACE ( 'NONE', ( #291 ), #189, .T. ) ;
#315 = CARTESIAN_POINT ( 'NONE',  ( 0.000000000000000000, 0.09375000000000001388, 0.000000000000000000 ) ) ;
#316 = CARTESIAN_POINT ( 'NONE',  ( 1.148106374200643247E-17, 0.09375000000000001388, 0.09374999999999997224 ) ) ;
#317 = SURFACE_STYLE_USAGE ( .BOTH. , #207 ) ;
#318 = CARTESIAN_POINT ( 'NONE',  ( 0.09374999999999995837, 2.000000000000000000, 0.000000000000000000 ) ) ;
#319 = STYLED_ITEM ( 'NONE', ( #251 ), #145 ) ;
#320 = STYLED_ITEM ( 'NONE', ( #221 ), #165 ) ;
#321 = CARTESIAN_POINT ( 'NONE',  ( 0.000000000000000000, 0.09375000000000001388, 0.000000000000000000 ) ) ;
#322 = PRESENTATION_STYLE_ASSIGNMENT (( #6 ) ) ;
#323 = SURFACE_STYLE_FILL_AREA ( #72 ) ;
#324 =( NAMED_UNIT ( * ) SI_UNIT ( $, .STERADIAN. ) SOLID_ANGLE_UNIT ( ) );
#325 = CARTESIAN_POINT ( 'NONE',  ( 2.680378872510324402E-16, 0.3125000000000000000, 0.000000000000000000 ) ) ;
#326 = LENGTH_MEASURE_WITH_UNIT ( LENGTH_MEASURE( 0.02539999999999999897 ), #267 );
#327 = DIMENSIONAL_EXPONENTS ( 1.000000000000000000, 0.000000000000000000, 0.000000000000000000, 0.000000000000000000, 0.000000000000000000, 0.000000000000000000, 0.000000000000000000 ) ;
#328 = ORIENTED_EDGE ( 'NONE', *, *, #229, .F. ) ;
#329 = PRODUCT ( '83279', '83279', '', ( #127 ) ) ;
#330 = SPHERICAL_SURFACE ( 'NONE', #110, 0.09374999999999998612 ) ;
#331 = EDGE_CURVE ( 'NONE', #344, #364, #204, .T. ) ;
#332 = AXIS2_PLACEMENT_3D ( 'NONE', #55, #114, #280 ) ;
#333 = CARTESIAN_POINT ( 'NONE',  ( 6.123233995736766036E-17, 2.000000000000000000, 0.000000000000000000 ) ) ;
#334 = CARTESIAN_POINT ( 'NONE',  ( 0.000000000000000000, 0.000000000000000000, 0.000000000000000000 ) ) ;
#335 = EDGE_LOOP ( 'NONE', ( #97, #206 ) ) ;
#336 = UNCERTAINTY_MEASURE_WITH_UNIT (LENGTH_MEASURE( 1.000000000000000082E-05 ), #124, 'distance_accuracy_value', 'NONE');
#337 = COLOUR_RGB ( '',1.000000000000000000, 0.000000000000000000, 0.000000000000000000 ) ;
#338 = CARTESIAN_POINT ( 'NONE',  ( -1.148106374200643401E-17, 0.09374999999999998612, 0.000000000000000000 ) ) ;
#339 = FACE_OUTER_BOUND ( 'NONE', #335, .T. ) ;
#340 = CARTESIAN_POINT ( 'NONE',  ( 0.000000000000000000, 0.09375000000000001388, 0.000000000000000000 ) ) ;
#341 = DIRECTION ( 'NONE',  ( -1.000000000000000000, 0.000000000000000000, 0.000000000000000000 ) ) ;
#342 = ORIENTED_EDGE ( 'NONE', *, *, #229, .T. ) ;
#343 = DIRECTION ( 'NONE',  ( -0.000000000000000000, -1.000000000000000000, -0.000000000000000000 ) ) ;
#344 = VERTEX_POINT ( 'NONE', #7 ) ;
#345 = CARTESIAN_POINT ( 'NONE',  ( 0.000000000000000000, 0.3125000000000000000, 0.000000000000000000 ) ) ;
#346 = EDGE_CURVE ( 'NONE', #250, #302, #350, .T. ) ;
#347 = DIRECTION ( 'NONE',  ( 1.000000000000000000, 0.000000000000000000, 0.000000000000000000 ) ) ;
#348 = FILL_AREA_STYLE ('',( #263 ) ) ;
#349 = STYLED_ITEM ( 'NONE', ( #265 ), #314 ) ;
#350 = CIRCLE ( 'NONE', #264, 0.09374999999999997224 ) ;
#351 = AXIS2_PLACEMENT_3D ( 'NONE', #318, #355, #69 ) ;
#352 = PRESENTATION_STYLE_ASSIGNMENT (( #75 ) ) ;
#353 = SURFACE_STYLE_USAGE ( .BOTH. , #152 ) ;
#354 = DIMENSIONAL_EXPONENTS ( 1.000000000000000000, 0.000000000000000000, 0.000000000000000000, 0.000000000000000000, 0.000000000000000000, 0.000000000000000000, 0.000000000000000000 ) ;
#355 = DIRECTION ( 'NONE',  ( 1.225514354332828407E-16, -1.000000000000000000, 0.000000000000000000 ) ) ;
#356 = MECHANICAL_DESIGN_GEOMETRIC_PRESENTATION_REPRESENTATION (  '', ( #223 ), #198 ) ;
#357 = MECHANICAL_DESIGN_GEOMETRIC_PRESENTATION_REPRESENTATION (  '', ( #105 ), #34 ) ;
#358 =( CONVERSION_BASED_UNIT ( 'INCH', #137 ) LENGTH_UNIT ( ) NAMED_UNIT ( #354 ) );
#359 = DIMENSIONAL_EXPONENTS ( 1.000000000000000000, 0.000000000000000000, 0.000000000000000000, 0.000000000000000000, 0.000000000000000000, 0.000000000000000000, 0.000000000000000000 ) ;
#360 = COLOUR_RGB ( '',1.000000000000000000, 0.000000000000000000, 0.000000000000000000 ) ;
#361 =( NAMED_UNIT ( * ) PLANE_ANGLE_UNIT ( ) SI_UNIT ( $, .RADIAN. ) );
#362 = ORIENTED_EDGE ( 'NONE', *, *, #180, .T. ) ;
#363 =( CONVERSION_BASED_UNIT ( 'INCH', #51 ) LENGTH_UNIT ( ) NAMED_UNIT ( #80 ) );
#364 = VERTEX_POINT ( 'NONE', #103 ) ;
#365 = CARTESIAN_POINT ( 'NONE',  ( 6.123233995736766036E-17, 2.000000000000000000, 0.000000000000000000 ) ) ;
#366 = AXIS2_PLACEMENT_3D ( 'NONE', #178, #59, #115 ) ;
#367 = MECHANICAL_DESIGN_GEOMETRIC_PRESENTATION_REPRESENTATION (  '', ( #319 ), #116 ) ;
#368 = SPHERICAL_SURFACE ( 'NONE', #77, 0.09374999999999998612 ) ;
#369 = DIRECTION ( 'NONE',  ( 0.000000000000000000, 0.000000000000000000, -1.000000000000000000 ) ) ;
#370 = ORIENTED_EDGE ( 'NONE', *, *, #125, .T. ) ;
#371 = ORIENTED_EDGE ( 'NONE', *, *, #346, .T. ) ;
#372 = COLOUR_RGB ( '',0.7921568627450980005, 0.8196078431372548767, 0.9333333333333333481 ) ;
#373 = EDGE_CURVE ( 'NONE', #177, #43, #194, .T. ) ;
ENDSEC;
END-ISO-10303-21;
