ISO-10303-21;
HEADER;
FILE_DESCRIPTION (( 'STEP AP214' ),
    '1' );
FILE_NAME ('Micro_SEM-046-03X.STEP',
    '2021-09-02T00:41:03',
    ( '' ),
    ( '' ),
    'SwSTEP 2.0',
    'SolidWorks 2020',
    '' );
FILE_SCHEMA (( 'AUTOMOTIVE_DESIGN' ));
ENDSEC;

DATA;
#1 = DIRECTION ( 'NONE',  ( 1.000000000000000000, 0.0000000000000000000, -0.0000000000000000000 ) ) ;
#2 = CYLINDRICAL_SURFACE ( 'NONE', #181, 0.06250000000000000000 ) ;
#3 = AXIS2_PLACEMENT_3D ( 'NONE', #289, #18, #216 ) ;
#4 = CARTESIAN_POINT ( 'NONE',  ( 0.0000000000000000000, 0.0000000000000000000, 0.0000000000000000000 ) ) ;
#5 = ORIENTED_EDGE ( 'NONE', *, *, #89, .F. ) ;
#6 = ORIENTED_EDGE ( 'NONE', *, *, #236, .F. ) ;
#7 = EDGE_CURVE ( 'NONE', #156, #163, #55, .T. ) ;
#8 = ORIENTED_EDGE ( 'NONE', *, *, #143, .T. ) ;
#9 = DIRECTION ( 'NONE',  ( 1.224646799147353454E-16, 0.0000000000000000000, 1.000000000000000000 ) ) ;
#10 =( GEOMETRIC_REPRESENTATION_CONTEXT ( 3 ) GLOBAL_UNCERTAINTY_ASSIGNED_CONTEXT ( ( #130 ) ) GLOBAL_UNIT_ASSIGNED_CONTEXT ( ( #243, #81, #288 ) ) REPRESENTATION_CONTEXT ( 'NONE', 'WORKASPACE' ) );
#11 = DIRECTION ( 'NONE',  ( 0.0000000000000000000, 0.0000000000000000000, 1.000000000000000000 ) ) ;
#12 = ORIENTED_EDGE ( 'NONE', *, *, #210, .F. ) ;
#13 = ORIENTED_EDGE ( 'NONE', *, *, #7, .F. ) ;
#14 = DIRECTION ( 'NONE',  ( -1.224646799147353454E-16, -0.0000000000000000000, -1.000000000000000000 ) ) ;
#15 =( LENGTH_UNIT ( ) NAMED_UNIT ( * ) SI_UNIT ( $, .METRE. ) );
#16 = MECHANICAL_DESIGN_GEOMETRIC_PRESENTATION_REPRESENTATION (  '', ( #229 ), #125 ) ;
#17 = CIRCLE ( 'NONE', #44, 0.02342654999999999044 ) ;
#18 = DIRECTION ( 'NONE',  ( -1.224646799147353454E-16, -0.0000000000000000000, -1.000000000000000000 ) ) ;
#19 =( LENGTH_UNIT ( ) NAMED_UNIT ( * ) SI_UNIT ( $, .METRE. ) );
#20 = ORIENTED_EDGE ( 'NONE', *, *, #184, .F. ) ;
#21 = AXIS2_PLACEMENT_3D ( 'NONE', #49, #70, #123 ) ;
#22 = EDGE_LOOP ( 'NONE', ( #13, #206, #28, #240 ) ) ;
#23 = DIRECTION ( 'NONE',  ( -0.7071067811865456854, 0.0000000000000000000, -0.7071067811865493491 ) ) ;
#24 = LINE ( 'NONE', #227, #57 ) ;
#25 = CIRCLE ( 'NONE', #21, 0.06250000000000000000 ) ;
#26 = FACE_OUTER_BOUND ( 'NONE', #128, .T. ) ;
#27 = ORIENTED_EDGE ( 'NONE', *, *, #137, .T. ) ;
#28 = ORIENTED_EDGE ( 'NONE', *, *, #36, .T. ) ;
#29 = FACE_OUTER_BOUND ( 'NONE', #66, .T. ) ;
#30 = DIRECTION ( 'NONE',  ( -1.000000000000000000, 0.0000000000000000000, 0.0000000000000000000 ) ) ;
#31 = CONICAL_SURFACE ( 'NONE', #297, 0.02342654999999999391, 0.1745329251994338915 ) ;
#32 = ORIENTED_EDGE ( 'NONE', *, *, #282, .F. ) ;
#33 = EDGE_LOOP ( 'NONE', ( #179, #249, #154, #232 ) ) ;
#34 = DIRECTION ( 'NONE',  ( 1.000000000000000000, 0.0000000000000000000, 0.0000000000000000000 ) ) ;
#35 = AXIS2_PLACEMENT_3D ( 'NONE', #266, #67, #245 ) ;
#36 = EDGE_CURVE ( 'NONE', #50, #46, #77, .T. ) ;
#37 = AXIS2_PLACEMENT_3D ( 'NONE', #196, #214, #215 ) ;
#38 = DIRECTION ( 'NONE',  ( -0.0000000000000000000, -0.0000000000000000000, -1.000000000000000000 ) ) ;
#39 = DIRECTION ( 'NONE',  ( 0.7071067811865456854, 8.659560562354911904E-17, -0.7071067811865493491 ) ) ;
#40 = ORIENTED_EDGE ( 'NONE', *, *, #149, .T. ) ;
#41 = SURFACE_STYLE_FILL_AREA ( #219 ) ;
#42 = VERTEX_POINT ( 'NONE', #253 ) ;
#43 = VECTOR ( 'NONE', #136, 39.37007874015747433 ) ;
#44 = AXIS2_PLACEMENT_3D ( 'NONE', #111, #113, #58 ) ;
#45 =( NAMED_UNIT ( * ) SI_UNIT ( $, .STERADIAN. ) SOLID_ANGLE_UNIT ( ) );
#46 = VERTEX_POINT ( 'NONE', #161 ) ;
#47 =( NAMED_UNIT ( * ) SI_UNIT ( $, .STERADIAN. ) SOLID_ANGLE_UNIT ( ) );
#48 = PRODUCT_DEFINITION_FORMATION_WITH_SPECIFIED_SOURCE ( 'ANY', '', #69, .NOT_KNOWN. ) ;
#49 = CARTESIAN_POINT ( 'NONE',  ( 3.864943006337004181E-17, 0.0000000000000000000, 0.3155965466147404586 ) ) ;
#50 = VERTEX_POINT ( 'NONE', #99 ) ;
#51 = CARTESIAN_POINT ( 'NONE',  ( 0.0000000000000000000, 0.0000000000000000000, 0.0000000000000000000 ) ) ;
#52 = DIRECTION ( 'NONE',  ( -1.224646799147353454E-16, -0.0000000000000000000, -1.000000000000000000 ) ) ;
#53 = CARTESIAN_POINT ( 'NONE',  ( 0.0000000000000000000, 0.0000000000000000000, 1.500000000000000222 ) ) ;
#54 = VERTEX_POINT ( 'NONE', #186 ) ;
#55 = LINE ( 'NONE', #183, #91 ) ;
#56 = ORIENTED_EDGE ( 'NONE', *, *, #236, .T. ) ;
#57 = VECTOR ( 'NONE', #23, 39.37007874015748143 ) ;
#58 = DIRECTION ( 'NONE',  ( -1.000000000000000000, 0.0000000000000000000, 1.224646799147353454E-16 ) ) ;
#59 = PRESENTATION_LAYER_ASSIGNMENT (  '', '', ( #176 ) ) ;
#60 = PRODUCT_DEFINITION_CONTEXT ( 'detailed design', #291, 'design' ) ;
#61 = CARTESIAN_POINT ( 'NONE',  ( 0.04750000000000064587, 5.817072295950006528E-18, 1.500000000000000222 ) ) ;
#62 = LINE ( 'NONE', #192, #293 ) ;
#63 = LINE ( 'NONE', #103, #187 ) ;
#64 = AXIS2_PLACEMENT_3D ( 'NONE', #74, #257, #157 ) ;
#65 = LINE ( 'NONE', #260, #43 ) ;
#66 = EDGE_LOOP ( 'NONE', ( #20, #267, #153, #32 ) ) ;
#67 = DIRECTION ( 'NONE',  ( 0.0000000000000000000, 0.0000000000000000000, -1.000000000000000000 ) ) ;
#68 = ADVANCED_FACE ( 'NONE', ( #286 ), #2, .T. ) ;
#69 = PRODUCT ( 'Micro_SEM-046-03X', 'Micro_SEM-046-03X', '', ( #277 ) ) ;
#70 = DIRECTION ( 'NONE',  ( -1.224646799147353454E-16, -0.0000000000000000000, -1.000000000000000000 ) ) ;
#71 = AXIS2_PLACEMENT_3D ( 'NONE', #173, #268, #170 ) ;
#72 = AXIS2_PLACEMENT_3D ( 'NONE', #118, #14, #101 ) ;
#73 = CARTESIAN_POINT ( 'NONE',  ( 0.0000000000000000000, 0.0000000000000000000, 1.500000000000000222 ) ) ;
#74 = CARTESIAN_POINT ( 'NONE',  ( 1.151167991198512393E-17, 0.0000000000000000000, 0.09400000000000001410 ) ) ;
#75 = ORIENTED_EDGE ( 'NONE', *, *, #204, .T. ) ;
#76 = DIRECTION ( 'NONE',  ( 1.000000000000000000, 0.0000000000000000000, 0.0000000000000000000 ) ) ;
#77 = LINE ( 'NONE', #131, #271 ) ;
#78 = AXIS2_PLACEMENT_3D ( 'NONE', #178, #230, #76 ) ;
#79 = ADVANCED_BREP_SHAPE_REPRESENTATION ( 'Micro_SEM-046-03X', ( #194, #225 ), #287 ) ;
#80 = DIRECTION ( 'NONE',  ( 1.000000000000000000, 0.0000000000000000000, 0.0000000000000000000 ) ) ;
#81 =( NAMED_UNIT ( * ) PLANE_ANGLE_UNIT ( ) SI_UNIT ( $, .RADIAN. ) );
#82 = PRESENTATION_STYLE_ASSIGNMENT (( #162 ) ) ;
#83 = EDGE_CURVE ( 'NONE', #163, #46, #17, .T. ) ;
#84 = ORIENTED_EDGE ( 'NONE', *, *, #143, .F. ) ;
#85 = ORIENTED_EDGE ( 'NONE', *, *, #195, .T. ) ;
#86 = APPLICATION_PROTOCOL_DEFINITION ( 'draft international standard', 'automotive_design', 1998, #90 ) ;
#87 = AXIS2_PLACEMENT_3D ( 'NONE', #53, #95, #209 ) ;
#88 = PRESENTATION_STYLE_ASSIGNMENT (( #223 ) ) ;
#89 = EDGE_CURVE ( 'NONE', #156, #208, #110, .T. ) ;
#90 = APPLICATION_CONTEXT ( 'automotive_design' ) ;
#91 = VECTOR ( 'NONE', #52, 39.37007874015748143 ) ;
#92 = CARTESIAN_POINT ( 'NONE',  ( 0.02342654999999999044, 2.868924947256541793E-18, 0.0000000000000000000 ) ) ;
#93 = ORIENTED_EDGE ( 'NONE', *, *, #83, .T. ) ;
#94 = APPLICATION_PROTOCOL_DEFINITION ( 'draft international standard', 'automotive_design', 1998, #291 ) ;
#95 = DIRECTION ( 'NONE',  ( 0.0000000000000000000, 0.0000000000000000000, 1.000000000000000000 ) ) ;
#96 = CIRCLE ( 'NONE', #37, 0.06250000000000000000 ) ;
#97 = EDGE_LOOP ( 'NONE', ( #164, #85, #279, #12 ) ) ;
#98 = EDGE_LOOP ( 'NONE', ( #8, #256, #234, #132 ) ) ;
#99 = CARTESIAN_POINT ( 'NONE',  ( -0.02342654999999998350, 5.261483720963751017E-18, 0.09400000000000001410 ) ) ;
#100 = ADVANCED_FACE ( 'NONE', ( #129 ), #114, .T. ) ;
#101 = DIRECTION ( 'NONE',  ( -1.000000000000000000, 0.0000000000000000000, 1.224646799147353454E-16 ) ) ;
#102 = DIRECTION ( 'NONE',  ( 1.000000000000000000, 0.0000000000000000000, 0.0000000000000000000 ) ) ;
#103 = CARTESIAN_POINT ( 'NONE',  ( 0.06250000000000000000, 7.654042494670956004E-18, 1.500000000000000222 ) ) ;
#104 = FACE_OUTER_BOUND ( 'NONE', #98, .T. ) ;
#105 = CARTESIAN_POINT ( 'NONE',  ( 0.0000000000000000000, 0.0000000000000000000, 1.485000000000000764 ) ) ;
#106 = DIRECTION ( 'NONE',  ( -1.000000000000000000, 0.0000000000000000000, 0.0000000000000000000 ) ) ;
#107 = ORIENTED_EDGE ( 'NONE', *, *, #282, .T. ) ;
#108 = COLOUR_RGB ( '',0.7921568627450980005, 0.8196078431372548767, 0.9333333333333333481 ) ;
#109 = CIRCLE ( 'NONE', #71, 0.02342654999999999391 ) ;
#110 = LINE ( 'NONE', #285, #272 ) ;
#111 = CARTESIAN_POINT ( 'NONE',  ( 3.513419753651714367E-34, 0.0000000000000000000, 2.868924947256542179E-18 ) ) ;
#112 = CARTESIAN_POINT ( 'NONE',  ( 0.0000000000000000000, 0.0000000000000000000, 1.500000000000000222 ) ) ;
#113 = DIRECTION ( 'NONE',  ( -1.224646799147353454E-16, -0.0000000000000000000, -1.000000000000000000 ) ) ;
#114 = PLANE ( 'NONE',  #87 ) ;
#115 = DIRECTION ( 'NONE',  ( 0.0000000000000000000, 0.0000000000000000000, -1.000000000000000000 ) ) ;
#116 = LINE ( 'NONE', #61, #200 ) ;
#117 = AXIS2_PLACEMENT_3D ( 'NONE', #4, #205, #1 ) ;
#118 = CARTESIAN_POINT ( 'NONE',  ( 0.0000000000000000000, 0.0000000000000000000, 0.0000000000000000000 ) ) ;
#119 = SURFACE_SIDE_STYLE ('',( #41 ) ) ;
#120 = FACE_OUTER_BOUND ( 'NONE', #280, .T. ) ;
#121 = LENGTH_MEASURE_WITH_UNIT ( LENGTH_MEASURE( 0.02539999999999999897 ), #19 );
#122 = CIRCLE ( 'NONE', #160, 0.02342654999999999044 ) ;
#123 = DIRECTION ( 'NONE',  ( 1.000000000000000000, 0.0000000000000000000, 0.0000000000000000000 ) ) ;
#124 = DIRECTION ( 'NONE',  ( 0.1736481776669313859, 0.0000000000000000000, 0.9848077530122077983 ) ) ;
#125 =( GEOMETRIC_REPRESENTATION_CONTEXT ( 3 ) GLOBAL_UNCERTAINTY_ASSIGNED_CONTEXT ( ( #283 ) ) GLOBAL_UNIT_ASSIGNED_CONTEXT ( ( #270, #175, #47 ) ) REPRESENTATION_CONTEXT ( 'NONE', 'WORKASPACE' ) );
#126 = ORIENTED_EDGE ( 'NONE', *, *, #251, .F. ) ;
#127 = PLANE ( 'NONE',  #117 ) ;
#128 = EDGE_LOOP ( 'NONE', ( #40, #93 ) ) ;
#129 = FACE_OUTER_BOUND ( 'NONE', #140, .T. ) ;
#130 = UNCERTAINTY_MEASURE_WITH_UNIT (LENGTH_MEASURE( 1.000000000000000082E-05 ), #243, 'distance_accuracy_value', 'NONE');
#131 = CARTESIAN_POINT ( 'NONE',  ( -0.02342654999999999044, 0.0000000000000000000, 2.868924947256542179E-18 ) ) ;
#132 = ORIENTED_EDGE ( 'NONE', *, *, #36, .F. ) ;
#133 = CIRCLE ( 'NONE', #78, 0.06250000000000000000 ) ;
#134 = CARTESIAN_POINT ( 'NONE',  ( 3.513419753651714367E-34, 0.0000000000000000000, 2.868924947256542179E-18 ) ) ;
#135 = ORIENTED_EDGE ( 'NONE', *, *, #221, .F. ) ;
#136 = DIRECTION ( 'NONE',  ( -0.1736481776669311916, 2.126576849575783316E-17, 0.9848077530122080203 ) ) ;
#137 = EDGE_CURVE ( 'NONE', #54, #208, #133, .T. ) ;
#138 = DIRECTION ( 'NONE',  ( -0.0000000000000000000, -0.0000000000000000000, -1.000000000000000000 ) ) ;
#139 = CARTESIAN_POINT ( 'NONE',  ( 0.06250000000000004163, 7.654042494670960626E-18, 0.3155965466147404586 ) ) ;
#140 = EDGE_LOOP ( 'NONE', ( #198, #254 ) ) ;
#141 = FACE_OUTER_BOUND ( 'NONE', #33, .T. ) ;
#142 = CARTESIAN_POINT ( 'NONE',  ( -0.04750000000000064587, 0.0000000000000000000, 1.500000000000000222 ) ) ;
#143 = EDGE_CURVE ( 'NONE', #50, #156, #247, .T. ) ;
#144 = FILL_AREA_STYLE ('',( #295 ) ) ;
#145 =( LENGTH_UNIT ( ) NAMED_UNIT ( * ) SI_UNIT ( $, .METRE. ) );
#146 = COLOUR_RGB ( '',0.7921568627450980005, 0.8196078431372548767, 0.9333333333333333481 ) ;
#147 = FACE_OUTER_BOUND ( 'NONE', #97, .T. ) ;
#148 = DIRECTION ( 'NONE',  ( 0.0000000000000000000, 0.0000000000000000000, -1.000000000000000000 ) ) ;
#149 = EDGE_CURVE ( 'NONE', #46, #163, #122, .T. ) ;
#150 = CONICAL_SURFACE ( 'NONE', #35, 0.04750000000000064587, 0.7853981633974457255 ) ;
#151 = AXIS2_PLACEMENT_3D ( 'NONE', #73, #148, #255 ) ;
#152 = CONICAL_SURFACE ( 'NONE', #151, 0.04750000000000064587, 0.7853981633974457255 ) ;
#153 = ORIENTED_EDGE ( 'NONE', *, *, #231, .F. ) ;
#154 = ORIENTED_EDGE ( 'NONE', *, *, #89, .T. ) ;
#155 = DIMENSIONAL_EXPONENTS ( 1.000000000000000000, 0.0000000000000000000, 0.0000000000000000000, 0.0000000000000000000, 0.0000000000000000000, 0.0000000000000000000, 0.0000000000000000000 ) ;
#156 = VERTEX_POINT ( 'NONE', #238 ) ;
#157 = DIRECTION ( 'NONE',  ( -1.000000000000000000, 0.0000000000000000000, 0.0000000000000000000 ) ) ;
#158 = CONICAL_SURFACE ( 'NONE', #242, 0.02342654999999999391, 0.1745329251994338915 ) ;
#159 = ADVANCED_FACE ( 'NONE', ( #26 ), #127, .F. ) ;
#160 = AXIS2_PLACEMENT_3D ( 'NONE', #134, #180, #235 ) ;
#161 = CARTESIAN_POINT ( 'NONE',  ( -0.02342654999999999044, 0.0000000000000000000, 5.737849894513084357E-18 ) ) ;
#162 = SURFACE_STYLE_USAGE ( .BOTH. , #119 ) ;
#163 = VERTEX_POINT ( 'NONE', #92 ) ;
#164 = ORIENTED_EDGE ( 'NONE', *, *, #231, .T. ) ;
#165 = AXIS2_PLACEMENT_3D ( 'NONE', #259, #11, #102 ) ;
#166 = FILL_AREA_STYLE_COLOUR ( '', #146 ) ;
#167 = PRODUCT_DEFINITION_SHAPE ( 'NONE', 'NONE',  #264 ) ;
#168 = VERTEX_POINT ( 'NONE', #278 ) ;
#169 = FACE_OUTER_BOUND ( 'NONE', #22, .T. ) ;
#170 = DIRECTION ( 'NONE',  ( -1.000000000000000000, 0.0000000000000000000, 0.0000000000000000000 ) ) ;
#171 = AXIS2_PLACEMENT_3D ( 'NONE', #105, #115, #34 ) ;
#172 = DIRECTION ( 'NONE',  ( 1.000000000000000000, 0.0000000000000000000, 0.0000000000000000000 ) ) ;
#173 = CARTESIAN_POINT ( 'NONE',  ( 1.151167991198512393E-17, 0.0000000000000000000, 0.09400000000000001410 ) ) ;
#174 = ADVANCED_FACE ( 'NONE', ( #29 ), #152, .T. ) ;
#175 =( NAMED_UNIT ( * ) PLANE_ANGLE_UNIT ( ) SI_UNIT ( $, .RADIAN. ) );
#176 = STYLED_ITEM ( 'NONE', ( #82 ), #194 ) ;
#177 = SHAPE_DEFINITION_REPRESENTATION ( #167, #79 ) ;
#178 = CARTESIAN_POINT ( 'NONE',  ( 3.864943006337004181E-17, 0.0000000000000000000, 0.3155965466147404586 ) ) ;
#179 = ORIENTED_EDGE ( 'NONE', *, *, #204, .F. ) ;
#180 = DIRECTION ( 'NONE',  ( -1.224646799147353454E-16, -0.0000000000000000000, -1.000000000000000000 ) ) ;
#181 = AXIS2_PLACEMENT_3D ( 'NONE', #112, #237, #30 ) ;
#182 = CARTESIAN_POINT ( 'NONE',  ( 0.0000000000000000000, 0.0000000000000000000, 1.500000000000000222 ) ) ;
#183 = CARTESIAN_POINT ( 'NONE',  ( 0.02342654999999999044, 2.868924947256541793E-18, -2.868924947256542179E-18 ) ) ;
#184 = EDGE_CURVE ( 'NONE', #168, #252, #226, .T. ) ;
#185 = ADVANCED_FACE ( 'NONE', ( #141 ), #31, .T. ) ;
#186 = CARTESIAN_POINT ( 'NONE',  ( -0.06249999999999995837, 0.0000000000000000000, 0.3155965466147404586 ) ) ;
#187 = VECTOR ( 'NONE', #38, 39.37007874015748143 ) ;
#188 = CYLINDRICAL_SURFACE ( 'NONE', #72, 0.02342654999999999044 ) ;
#189 = DIMENSIONAL_EXPONENTS ( 1.000000000000000000, 0.0000000000000000000, 0.0000000000000000000, 0.0000000000000000000, 0.0000000000000000000, 0.0000000000000000000, 0.0000000000000000000 ) ;
#190 = ADVANCED_FACE ( 'NONE', ( #104 ), #188, .T. ) ;
#191 = LENGTH_MEASURE_WITH_UNIT ( LENGTH_MEASURE( 0.02539999999999999897 ), #15 );
#192 = CARTESIAN_POINT ( 'NONE',  ( -0.06250000000000000000, 0.0000000000000000000, 1.500000000000000222 ) ) ;
#193 = ORIENTED_EDGE ( 'NONE', *, *, #195, .F. ) ;
#194 = MANIFOLD_SOLID_BREP ( 'Cut-Revolve1', #222 ) ;
#195 = EDGE_CURVE ( 'NONE', #42, #208, #63, .T. ) ;
#196 = CARTESIAN_POINT ( 'NONE',  ( 0.0000000000000000000, 0.0000000000000000000, 1.485000000000000764 ) ) ;
#197 = ADVANCED_FACE ( 'NONE', ( #169 ), #239, .T. ) ;
#198 = ORIENTED_EDGE ( 'NONE', *, *, #251, .T. ) ;
#199 = CARTESIAN_POINT ( 'NONE',  ( 1.151167991198512393E-17, 0.0000000000000000000, 0.09400000000000001410 ) ) ;
#200 = VECTOR ( 'NONE', #39, 39.37007874015748143 ) ;
#201 = DIRECTION ( 'NONE',  ( 1.224646799147353454E-16, 0.0000000000000000000, 1.000000000000000000 ) ) ;
#202 = CARTESIAN_POINT ( 'NONE',  ( 0.0000000000000000000, 0.0000000000000000000, 1.500000000000000222 ) ) ;
#203 = AXIS2_PLACEMENT_3D ( 'NONE', #202, #246, #106 ) ;
#204 = EDGE_CURVE ( 'NONE', #50, #54, #65, .T. ) ;
#205 = DIRECTION ( 'NONE',  ( 0.0000000000000000000, 0.0000000000000000000, 1.000000000000000000 ) ) ;
#206 = ORIENTED_EDGE ( 'NONE', *, *, #292, .T. ) ;
#207 = DIRECTION ( 'NONE',  ( 1.000000000000000000, 0.0000000000000000000, 0.0000000000000000000 ) ) ;
#208 = VERTEX_POINT ( 'NONE', #139 ) ;
#209 = DIRECTION ( 'NONE',  ( 1.000000000000000000, 0.0000000000000000000, -0.0000000000000000000 ) ) ;
#210 = EDGE_CURVE ( 'NONE', #218, #54, #62, .T. ) ;
#211 = DIRECTION ( 'NONE',  ( 0.0000000000000000000, 0.0000000000000000000, 1.000000000000000000 ) ) ;
#212 = DIRECTION ( 'NONE',  ( -1.224646799147353454E-16, -0.0000000000000000000, -1.000000000000000000 ) ) ;
#213 = DIMENSIONAL_EXPONENTS ( 1.000000000000000000, 0.0000000000000000000, 0.0000000000000000000, 0.0000000000000000000, 0.0000000000000000000, 0.0000000000000000000, 0.0000000000000000000 ) ;
#214 = DIRECTION ( 'NONE',  ( 0.0000000000000000000, 0.0000000000000000000, -1.000000000000000000 ) ) ;
#215 = DIRECTION ( 'NONE',  ( 1.000000000000000000, 0.0000000000000000000, 0.0000000000000000000 ) ) ;
#216 = DIRECTION ( 'NONE',  ( -1.000000000000000000, 0.0000000000000000000, 1.224646799147353454E-16 ) ) ;
#217 = FACE_OUTER_BOUND ( 'NONE', #258, .T. ) ;
#218 = VERTEX_POINT ( 'NONE', #262 ) ;
#219 = FILL_AREA_STYLE ('',( #166 ) ) ;
#220 = MECHANICAL_DESIGN_GEOMETRIC_PRESENTATION_REPRESENTATION (  '', ( #176 ), #10 ) ;
#221 = EDGE_CURVE ( 'NONE', #168, #42, #116, .T. ) ;
#222 = CLOSED_SHELL ( 'NONE', ( #190, #281, #174, #273, #68, #100, #228, #185, #197, #159 ) ) ;
#223 = SURFACE_STYLE_USAGE ( .BOTH. , #298 ) ;
#224 =( CONVERSION_BASED_UNIT ( 'INCH', #250 ) LENGTH_UNIT ( ) NAMED_UNIT ( #189 ) );
#225 = AXIS2_PLACEMENT_3D ( 'NONE', #51, #211, #207 ) ;
#226 = CIRCLE ( 'NONE', #276, 0.04750000000000064587 ) ;
#227 = CARTESIAN_POINT ( 'NONE',  ( -0.04750000000000064587, 0.0000000000000000000, 1.500000000000000222 ) ) ;
#228 = ADVANCED_FACE ( 'NONE', ( #217 ), #150, .T. ) ;
#229 = STYLED_ITEM ( 'NONE', ( #88 ), #79 ) ;
#230 = DIRECTION ( 'NONE',  ( -1.224646799147353454E-16, -0.0000000000000000000, -1.000000000000000000 ) ) ;
#231 = EDGE_CURVE ( 'NONE', #218, #42, #269, .T. ) ;
#232 = ORIENTED_EDGE ( 'NONE', *, *, #299, .T. ) ;
#233 = EDGE_LOOP ( 'NONE', ( #193, #56, #265, #290 ) ) ;
#234 = ORIENTED_EDGE ( 'NONE', *, *, #149, .F. ) ;
#235 = DIRECTION ( 'NONE',  ( -1.000000000000000000, 0.0000000000000000000, 1.224646799147353454E-16 ) ) ;
#236 = EDGE_CURVE ( 'NONE', #42, #218, #96, .T. ) ;
#237 = DIRECTION ( 'NONE',  ( -0.0000000000000000000, -0.0000000000000000000, -1.000000000000000000 ) ) ;
#238 = CARTESIAN_POINT ( 'NONE',  ( 0.02342655000000000778, 0.0000000000000000000, 0.09400000000000001410 ) ) ;
#239 = CYLINDRICAL_SURFACE ( 'NONE', #3, 0.02342654999999999044 ) ;
#240 = ORIENTED_EDGE ( 'NONE', *, *, #83, .F. ) ;
#241 = UNCERTAINTY_MEASURE_WITH_UNIT (LENGTH_MEASURE( 1.000000000000000082E-05 ), #224, 'distance_accuracy_value', 'NONE');
#242 = AXIS2_PLACEMENT_3D ( 'NONE', #199, #201, #172 ) ;
#243 =( CONVERSION_BASED_UNIT ( 'INCH', #191 ) LENGTH_UNIT ( ) NAMED_UNIT ( #155 ) );
#244 = DIRECTION ( 'NONE',  ( 1.000000000000000000, 0.0000000000000000000, 0.0000000000000000000 ) ) ;
#245 = DIRECTION ( 'NONE',  ( -1.000000000000000000, 0.0000000000000000000, 0.0000000000000000000 ) ) ;
#246 = DIRECTION ( 'NONE',  ( -0.0000000000000000000, -0.0000000000000000000, -1.000000000000000000 ) ) ;
#247 = CIRCLE ( 'NONE', #64, 0.02342654999999999391 ) ;
#248 = SURFACE_STYLE_FILL_AREA ( #144 ) ;
#249 = ORIENTED_EDGE ( 'NONE', *, *, #292, .F. ) ;
#250 = LENGTH_MEASURE_WITH_UNIT ( LENGTH_MEASURE( 0.02539999999999999897 ), #145 );
#251 = EDGE_CURVE ( 'NONE', #252, #168, #275, .T. ) ;
#252 = VERTEX_POINT ( 'NONE', #142 ) ;
#253 = CARTESIAN_POINT ( 'NONE',  ( 0.06250000000000000000, 7.654042494670956004E-18, 1.485000000000000764 ) ) ;
#254 = ORIENTED_EDGE ( 'NONE', *, *, #184, .T. ) ;
#255 = DIRECTION ( 'NONE',  ( -1.000000000000000000, 0.0000000000000000000, 0.0000000000000000000 ) ) ;
#256 = ORIENTED_EDGE ( 'NONE', *, *, #7, .T. ) ;
#257 = DIRECTION ( 'NONE',  ( -1.224646799147353454E-16, -0.0000000000000000000, -1.000000000000000000 ) ) ;
#258 = EDGE_LOOP ( 'NONE', ( #135, #126, #107, #6 ) ) ;
#259 = CARTESIAN_POINT ( 'NONE',  ( 0.0000000000000000000, 0.0000000000000000000, 1.500000000000000222 ) ) ;
#260 = CARTESIAN_POINT ( 'NONE',  ( -0.02342654999999998350, 2.868924947256542179E-18, 0.09400000000000001410 ) ) ;
#261 = PRODUCT_RELATED_PRODUCT_CATEGORY ( 'part', '', ( #69 ) ) ;
#262 = CARTESIAN_POINT ( 'NONE',  ( -0.06250000000000000000, 0.0000000000000000000, 1.485000000000000764 ) ) ;
#263 = PRESENTATION_LAYER_ASSIGNMENT (  '', '', ( #229 ) ) ;
#264 = PRODUCT_DEFINITION ( 'UNKNOWN', '', #48, #60 ) ;
#265 = ORIENTED_EDGE ( 'NONE', *, *, #210, .T. ) ;
#266 = CARTESIAN_POINT ( 'NONE',  ( 0.0000000000000000000, 0.0000000000000000000, 1.500000000000000222 ) ) ;
#267 = ORIENTED_EDGE ( 'NONE', *, *, #221, .T. ) ;
#268 = DIRECTION ( 'NONE',  ( -1.224646799147353454E-16, -0.0000000000000000000, -1.000000000000000000 ) ) ;
#269 = CIRCLE ( 'NONE', #171, 0.06250000000000000000 ) ;
#270 =( CONVERSION_BASED_UNIT ( 'INCH', #121 ) LENGTH_UNIT ( ) NAMED_UNIT ( #213 ) );
#271 = VECTOR ( 'NONE', #212, 39.37007874015748143 ) ;
#272 = VECTOR ( 'NONE', #124, 39.37007874015748143 ) ;
#273 = ADVANCED_FACE ( 'NONE', ( #147 ), #274, .T. ) ;
#274 = CYLINDRICAL_SURFACE ( 'NONE', #203, 0.06250000000000000000 ) ;
#275 = CIRCLE ( 'NONE', #165, 0.04750000000000064587 ) ;
#276 = AXIS2_PLACEMENT_3D ( 'NONE', #182, #284, #244 ) ;
#277 = PRODUCT_CONTEXT ( 'NONE', #90, 'mechanical' ) ;
#278 = CARTESIAN_POINT ( 'NONE',  ( 0.04750000000000064587, 6.735557395310482421E-18, 1.500000000000000222 ) ) ;
#279 = ORIENTED_EDGE ( 'NONE', *, *, #137, .F. ) ;
#280 = EDGE_LOOP ( 'NONE', ( #84, #75, #27, #5 ) ) ;
#281 = ADVANCED_FACE ( 'NONE', ( #120 ), #158, .T. ) ;
#282 = EDGE_CURVE ( 'NONE', #252, #218, #24, .T. ) ;
#283 = UNCERTAINTY_MEASURE_WITH_UNIT (LENGTH_MEASURE( 1.000000000000000082E-05 ), #270, 'distance_accuracy_value', 'NONE');
#284 = DIRECTION ( 'NONE',  ( 0.0000000000000000000, 0.0000000000000000000, 1.000000000000000000 ) ) ;
#285 = CARTESIAN_POINT ( 'NONE',  ( 0.02342655000000000778, 0.0000000000000000000, 0.09400000000000001410 ) ) ;
#286 = FACE_OUTER_BOUND ( 'NONE', #233, .T. ) ;
#287 =( GEOMETRIC_REPRESENTATION_CONTEXT ( 3 ) GLOBAL_UNCERTAINTY_ASSIGNED_CONTEXT ( ( #241 ) ) GLOBAL_UNIT_ASSIGNED_CONTEXT ( ( #224, #296, #45 ) ) REPRESENTATION_CONTEXT ( 'NONE', 'WORKASPACE' ) );
#288 =( NAMED_UNIT ( * ) SI_UNIT ( $, .STERADIAN. ) SOLID_ANGLE_UNIT ( ) );
#289 = CARTESIAN_POINT ( 'NONE',  ( 0.0000000000000000000, 0.0000000000000000000, 0.0000000000000000000 ) ) ;
#290 = ORIENTED_EDGE ( 'NONE', *, *, #299, .F. ) ;
#291 = APPLICATION_CONTEXT ( 'automotive_design' ) ;
#292 = EDGE_CURVE ( 'NONE', #156, #50, #109, .T. ) ;
#293 = VECTOR ( 'NONE', #138, 39.37007874015748143 ) ;
#294 = CARTESIAN_POINT ( 'NONE',  ( 1.151167991198512393E-17, 0.0000000000000000000, 0.09400000000000001410 ) ) ;
#295 = FILL_AREA_STYLE_COLOUR ( '', #108 ) ;
#296 =( NAMED_UNIT ( * ) PLANE_ANGLE_UNIT ( ) SI_UNIT ( $, .RADIAN. ) );
#297 = AXIS2_PLACEMENT_3D ( 'NONE', #294, #9, #80 ) ;
#298 = SURFACE_SIDE_STYLE ('',( #248 ) ) ;
#299 = EDGE_CURVE ( 'NONE', #208, #54, #25, .T. ) ;
ENDSEC;
END-ISO-10303-21;
