ISO-10303-21;
HEADER;
FILE_DESCRIPTION (( 'STEP AP214' ),
    '1' );
FILE_NAME ('59470.STEP',
    '2023-07-24T15:47:47',
    ( '' ),
    ( '' ),
    'SwSTEP 2.0',
    'SolidWorks 2023',
    '' );
FILE_SCHEMA (( 'AUTOMOTIVE_DESIGN' ));
ENDSEC;

DATA;
#1 =( NAMED_UNIT ( * ) PLANE_ANGLE_UNIT ( ) SI_UNIT ( $, .RADIAN. ) );
#2 = VERTEX_POINT ( 'NONE', #76 ) ;
#3 = SURFACE_STYLE_FILL_AREA ( #201 ) ;
#4 = ORIENTED_EDGE ( 'NONE', *, *, #258, .T. ) ;
#5 = LINE ( 'NONE', #71, #103 ) ;
#6 = DIRECTION ( 'NONE',  ( -0.000000000000000000, -1.000000000000000000, -0.000000000000000000 ) ) ;
#7 = EDGE_LOOP ( 'NONE', ( #4, #9 ) ) ;
#8 = MECHANICAL_DESIGN_GEOMETRIC_PRESENTATION_REPRESENTATION (  '', ( #139 ), #255 ) ;
#9 = ORIENTED_EDGE ( 'NONE', *, *, #203, .T. ) ;
#10 = CARTESIAN_POINT ( 'NONE',  ( 0.000000000000000000, 0.000000000000000000, 0.000000000000000000 ) ) ;
#11 = EDGE_LOOP ( 'NONE', ( #158, #68, #100, #47 ) ) ;
#12 = UNCERTAINTY_MEASURE_WITH_UNIT (LENGTH_MEASURE( 1.000000000000000082E-05 ), #108, 'distance_accuracy_value', 'NONE');
#13 = ORIENTED_EDGE ( 'NONE', *, *, #288, .F. ) ;
#14 = STYLED_ITEM ( 'NONE', ( #42 ), #142 ) ;
#15 = MANIFOLD_SOLID_BREP ( 'Revolve - Tool Body (Straight Shanked)', #18 ) ;
#16 = ORIENTED_EDGE ( 'NONE', *, *, #183, .T. ) ;
#17 =( LENGTH_UNIT ( ) NAMED_UNIT ( * ) SI_UNIT ( .MILLI., .METRE. ) );
#18 = CLOSED_SHELL ( 'NONE', ( #115, #46, #244, #102 ) ) ;
#19 = CIRCLE ( 'NONE', #241, 8.000000000000000000 ) ;
#20 = CARTESIAN_POINT ( 'NONE',  ( 0.000000000000000000, 24.00000000000000000, 0.000000000000000000 ) ) ;
#21 = SURFACE_STYLE_USAGE ( .BOTH. , #66 ) ;
#22 = PRODUCT_DEFINITION ( 'UNKNOWN', '', #281, #147 ) ;
#23 = DIRECTION ( 'NONE',  ( 0.000000000000000000, -0.000000000000000000, 1.000000000000000000 ) ) ;
#24 = CIRCLE ( 'NONE', #57, 8.000000000000000000 ) ;
#25 = MECHANICAL_DESIGN_GEOMETRIC_PRESENTATION_REPRESENTATION (  '', ( #229 ), #58 ) ;
#26 = FACE_OUTER_BOUND ( 'NONE', #11, .T. ) ;
#27 = FACE_OUTER_BOUND ( 'NONE', #279, .T. ) ;
#28 = CIRCLE ( 'NONE', #160, 8.000000000000000000 ) ;
#29 = DIRECTION ( 'NONE',  ( -0.000000000000000000, -1.000000000000000000, -0.000000000000000000 ) ) ;
#30 = EDGE_LOOP ( 'NONE', ( #39, #202 ) ) ;
#31 = DIRECTION ( 'NONE',  ( -2.637700798163528719E-17, 1.000000000000000000, -0.000000000000000000 ) ) ;
#32 = EDGE_LOOP ( 'NONE', ( #247, #265 ) ) ;
#33 = CARTESIAN_POINT ( 'NONE',  ( 9.797174393178825657E-16, 24.00000000000000000, 8.000000000000000000 ) ) ;
#34 =( NAMED_UNIT ( * ) SI_UNIT ( $, .STERADIAN. ) SOLID_ANGLE_UNIT ( ) );
#35 = FILL_AREA_STYLE ('',( #234 ) ) ;
#36 = VECTOR ( 'NONE', #217, 1000.000000000000000 ) ;
#37 = AXIS2_PLACEMENT_3D ( 'NONE', #189, #168, #132 ) ;
#38 = APPLICATION_PROTOCOL_DEFINITION ( 'draft international standard', 'automotive_design', 1998, #211 ) ;
#39 = ORIENTED_EDGE ( 'NONE', *, *, #213, .F. ) ;
#40 = CARTESIAN_POINT ( 'NONE',  ( 8.000000000000000000, 89.00000000000000000, 9.797174393178825657E-16 ) ) ;
#41 = SURFACE_STYLE_FILL_AREA ( #173 ) ;
#42 = PRESENTATION_STYLE_ASSIGNMENT (( #21 ) ) ;
#43 = CARTESIAN_POINT ( 'NONE',  ( 0.000000000000000000, 0.000000000000000000, 0.000000000000000000 ) ) ;
#44 = DIRECTION ( 'NONE',  ( 0.000000000000000000, 0.000000000000000000, -1.000000000000000000 ) ) ;
#45 = PRESENTATION_STYLE_ASSIGNMENT (( #245 ) ) ;
#46 = ADVANCED_FACE ( 'NONE', ( #143 ), #270, .F. ) ;
#47 = ORIENTED_EDGE ( 'NONE', *, *, #181, .F. ) ;
#48 = AXIS2_PLACEMENT_3D ( 'NONE', #20, #105, #23 ) ;
#49 = COLOUR_RGB ( '',1.000000000000000000, 0.000000000000000000, 0.000000000000000000 ) ;
#50 = PRESENTATION_STYLE_ASSIGNMENT (( #218 ) ) ;
#51 = CYLINDRICAL_SURFACE ( 'NONE', #256, 8.000000000000000000 ) ;
#52 = DIRECTION ( 'NONE',  ( -2.637700798163528719E-17, 1.000000000000000000, -0.000000000000000000 ) ) ;
#53 =( NAMED_UNIT ( * ) SI_UNIT ( $, .STERADIAN. ) SOLID_ANGLE_UNIT ( ) );
#54 = FACE_OUTER_BOUND ( 'NONE', #7, .T. ) ;
#55 = UNCERTAINTY_MEASURE_WITH_UNIT (LENGTH_MEASURE( 1.000000000000000082E-05 ), #67, 'distance_accuracy_value', 'NONE');
#56 = DIRECTION ( 'NONE',  ( 2.637700798163528719E-17, -1.000000000000000000, 0.000000000000000000 ) ) ;
#57 = AXIS2_PLACEMENT_3D ( 'NONE', #83, #134, #109 ) ;
#58 =( GEOMETRIC_REPRESENTATION_CONTEXT ( 3 ) GLOBAL_UNCERTAINTY_ASSIGNED_CONTEXT ( ( #55 ) ) GLOBAL_UNIT_ASSIGNED_CONTEXT ( ( #67, #1, #159 ) ) REPRESENTATION_CONTEXT ( 'NONE', 'WORKASPACE' ) );
#59 = CARTESIAN_POINT ( 'NONE',  ( 0.000000000000000000, 24.00000000000000000, -8.000000000000000000 ) ) ;
#60 = DIRECTION ( 'NONE',  ( 0.000000000000000000, 0.000000000000000000, -1.000000000000000000 ) ) ;
#61 = EDGE_CURVE ( 'NONE', #93, #130, #123, .T. ) ;
#62 = SURFACE_STYLE_USAGE ( .BOTH. , #110 ) ;
#63 = COLOUR_RGB ( '',1.000000000000000000, 0.000000000000000000, 0.000000000000000000 ) ;
#64 =( GEOMETRIC_REPRESENTATION_CONTEXT ( 3 ) GLOBAL_UNCERTAINTY_ASSIGNED_CONTEXT ( ( #235 ) ) GLOBAL_UNIT_ASSIGNED_CONTEXT ( ( #156, #185, #34 ) ) REPRESENTATION_CONTEXT ( 'NONE', 'WORKASPACE' ) );
#65 = SURFACE_STYLE_FILL_AREA ( #285 ) ;
#66 = SURFACE_SIDE_STYLE ('',( #65 ) ) ;
#67 =( LENGTH_UNIT ( ) NAMED_UNIT ( * ) SI_UNIT ( .MILLI., .METRE. ) );
#68 = ORIENTED_EDGE ( 'NONE', *, *, #172, .T. ) ;
#69 = FILL_AREA_STYLE_COLOUR ( '', #49 ) ;
#70 = EDGE_LOOP ( 'NONE', ( #249, #253, #199, #262 ) ) ;
#71 = CARTESIAN_POINT ( 'NONE',  ( 7.999999999999998224, 89.00000000000000000, 9.797174393178825657E-16 ) ) ;
#72 = VERTEX_POINT ( 'NONE', #59 ) ;
#73 = PRESENTATION_STYLE_ASSIGNMENT (( #248 ) ) ;
#74 = UNCERTAINTY_MEASURE_WITH_UNIT (LENGTH_MEASURE( 1.000000000000000082E-05 ), #277, 'distance_accuracy_value', 'NONE');
#75 = DIRECTION ( 'NONE',  ( -0.000000000000000000, -1.000000000000000000, -0.000000000000000000 ) ) ;
#76 = CARTESIAN_POINT ( 'NONE',  ( -8.000000000000000000, 23.99999999999999289, 0.000000000000000000 ) ) ;
#77 = VERTEX_POINT ( 'NONE', #148 ) ;
#78 = COLOUR_RGB ( '',1.000000000000000000, 0.000000000000000000, 0.000000000000000000 ) ;
#79 = SURFACE_STYLE_FILL_AREA ( #210 ) ;
#80 = DIRECTION ( 'NONE',  ( 1.000000000000000000, 0.000000000000000000, 0.000000000000000000 ) ) ;
#81 = SURFACE_STYLE_USAGE ( .BOTH. , #278 ) ;
#82 = MECHANICAL_DESIGN_GEOMETRIC_PRESENTATION_REPRESENTATION (  '', ( #14 ), #215 ) ;
#83 = CARTESIAN_POINT ( 'NONE',  ( 0.000000000000000000, 0.000000000000000000, 0.000000000000000000 ) ) ;
#84 = ADVANCED_BREP_SHAPE_REPRESENTATION ( '59470', ( #204, #15, #86 ), #175 ) ;
#85 = FILL_AREA_STYLE_COLOUR ( '', #219 ) ;
#86 = AXIS2_PLACEMENT_3D ( 'NONE', #10, #209, #80 ) ;
#87 = PRODUCT_DEFINITION_SHAPE ( 'NONE', 'NONE',  #22 ) ;
#88 = LINE ( 'NONE', #177, #169 ) ;
#89 = VECTOR ( 'NONE', #137, 1000.000000000000000 ) ;
#90 = VERTEX_POINT ( 'NONE', #33 ) ;
#91 = EDGE_CURVE ( 'NONE', #130, #93, #174, .T. ) ;
#92 =( NAMED_UNIT ( * ) SI_UNIT ( $, .STERADIAN. ) SOLID_ANGLE_UNIT ( ) );
#93 = VERTEX_POINT ( 'NONE', #254 ) ;
#94 = SURFACE_STYLE_FILL_AREA ( #246 ) ;
#95 = DIRECTION ( 'NONE',  ( -1.000000000000000000, 0.000000000000000000, 0.000000000000000000 ) ) ;
#96 = STYLED_ITEM ( 'NONE', ( #50 ), #204 ) ;
#97 = ORIENTED_EDGE ( 'NONE', *, *, #203, .F. ) ;
#98 = MECHANICAL_DESIGN_GEOMETRIC_PRESENTATION_REPRESENTATION (  '', ( #96 ), #111 ) ;
#99 = PRODUCT_CONTEXT ( 'NONE', #211, 'mechanical' ) ;
#100 = ORIENTED_EDGE ( 'NONE', *, *, #258, .F. ) ;
#101 = CYLINDRICAL_SURFACE ( 'NONE', #228, 8.000000000000000000 ) ;
#102 = ADVANCED_FACE ( 'NONE', ( #212 ), #251, .F. ) ;
#103 = VECTOR ( 'NONE', #198, 1000.000000000000000 ) ;
#104 =( NAMED_UNIT ( * ) PLANE_ANGLE_UNIT ( ) SI_UNIT ( $, .RADIAN. ) );
#105 = DIRECTION ( 'NONE',  ( 0.000000000000000000, 1.000000000000000000, 0.000000000000000000 ) ) ;
#106 = AXIS2_PLACEMENT_3D ( 'NONE', #43, #170, #60 ) ;
#107 = PRESENTATION_LAYER_ASSIGNMENT (  '', '', ( #229 ) ) ;
#108 =( LENGTH_UNIT ( ) NAMED_UNIT ( * ) SI_UNIT ( .MILLI., .METRE. ) );
#109 = DIRECTION ( 'NONE',  ( 0.000000000000000000, 0.000000000000000000, -1.000000000000000000 ) ) ;
#110 = SURFACE_SIDE_STYLE ('',( #208 ) ) ;
#111 =( GEOMETRIC_REPRESENTATION_CONTEXT ( 3 ) GLOBAL_UNCERTAINTY_ASSIGNED_CONTEXT ( ( #222 ) ) GLOBAL_UNIT_ASSIGNED_CONTEXT ( ( #138, #121, #92 ) ) REPRESENTATION_CONTEXT ( 'NONE', 'WORKASPACE' ) );
#112 = CARTESIAN_POINT ( 'NONE',  ( 8.000000000000000000, 23.99999999999999289, 9.797174393178825657E-16 ) ) ;
#113 = CARTESIAN_POINT ( 'NONE',  ( 0.000000000000000000, 0.000000000000000000, -8.000000000000000000 ) ) ;
#114 = CARTESIAN_POINT ( 'NONE',  ( 0.000000000000000000, 24.00000000000000000, 0.000000000000000000 ) ) ;
#115 = ADVANCED_FACE ( 'NONE', ( #184 ), #101, .T. ) ;
#116 = SURFACE_SIDE_STYLE ('',( #3 ) ) ;
#117 = COLOUR_RGB ( '',1.000000000000000000, 0.000000000000000000, 0.000000000000000000 ) ;
#118 = AXIS2_PLACEMENT_3D ( 'NONE', #227, #6, #179 ) ;
#119 = CYLINDRICAL_SURFACE ( 'NONE', #118, 8.000000000000000000 ) ;
#120 = ORIENTED_EDGE ( 'NONE', *, *, #181, .T. ) ;
#121 =( NAMED_UNIT ( * ) PLANE_ANGLE_UNIT ( ) SI_UNIT ( $, .RADIAN. ) );
#122 = UNCERTAINTY_MEASURE_WITH_UNIT (LENGTH_MEASURE( 1.000000000000000082E-05 ), #17, 'distance_accuracy_value', 'NONE');
#123 = CIRCLE ( 'NONE', #191, 8.000000000000001776 ) ;
#124 = EDGE_LOOP ( 'NONE', ( #146, #200, #120, #97 ) ) ;
#125 = AXIS2_PLACEMENT_3D ( 'NONE', #129, #205, #207 ) ;
#126 = CARTESIAN_POINT ( 'NONE',  ( 0.000000000000000000, 24.00000000000000000, 0.000000000000000000 ) ) ;
#127 = ADVANCED_FACE ( 'NONE', ( #54 ), #144, .T. ) ;
#128 = DIRECTION ( 'NONE',  ( 1.000000000000000000, 2.637700798163528719E-17, 0.000000000000000000 ) ) ;
#129 = CARTESIAN_POINT ( 'NONE',  ( 0.000000000000000000, 0.000000000000000000, 0.000000000000000000 ) ) ;
#130 = VERTEX_POINT ( 'NONE', #40 ) ;
#131 =( NAMED_UNIT ( * ) SI_UNIT ( $, .STERADIAN. ) SOLID_ANGLE_UNIT ( ) );
#132 = DIRECTION ( 'NONE',  ( -1.000000000000000000, -2.637700798163528719E-17, 0.000000000000000000 ) ) ;
#133 = DIRECTION ( 'NONE',  ( -1.000000000000000000, 0.000000000000000000, 0.000000000000000000 ) ) ;
#134 = DIRECTION ( 'NONE',  ( -0.000000000000000000, -1.000000000000000000, -0.000000000000000000 ) ) ;
#135 = SURFACE_SIDE_STYLE ('',( #41 ) ) ;
#136 = STYLED_ITEM ( 'NONE', ( #45 ), #284 ) ;
#137 = DIRECTION ( 'NONE',  ( -0.000000000000000000, -1.000000000000000000, -0.000000000000000000 ) ) ;
#138 =( LENGTH_UNIT ( ) NAMED_UNIT ( * ) SI_UNIT ( .MILLI., .METRE. ) );
#139 = STYLED_ITEM ( 'NONE', ( #171 ), #127 ) ;
#140 = DIRECTION ( 'NONE',  ( 0.000000000000000000, 0.000000000000000000, -1.000000000000000000 ) ) ;
#141 = ORIENTED_EDGE ( 'NONE', *, *, #221, .F. ) ;
#142 = ADVANCED_FACE ( 'NONE', ( #149 ), #197, .T. ) ;
#143 = FACE_OUTER_BOUND ( 'NONE', #30, .T. ) ;
#144 = PLANE ( 'NONE',  #106 ) ;
#145 = DIRECTION ( 'NONE',  ( 0.000000000000000000, 0.000000000000000000, -1.000000000000000000 ) ) ;
#146 = ORIENTED_EDGE ( 'NONE', *, *, #172, .F. ) ;
#147 = PRODUCT_DEFINITION_CONTEXT ( 'detailed design', #233, 'design' ) ;
#148 = CARTESIAN_POINT ( 'NONE',  ( 9.797174393178825657E-16, 0.000000000000000000, 8.000000000000000000 ) ) ;
#149 = FACE_OUTER_BOUND ( 'NONE', #206, .T. ) ;
#150 =( NAMED_UNIT ( * ) SI_UNIT ( $, .STERADIAN. ) SOLID_ANGLE_UNIT ( ) );
#151 = AXIS2_PLACEMENT_3D ( 'NONE', #232, #56, #128 ) ;
#152 = MECHANICAL_DESIGN_GEOMETRIC_PRESENTATION_REPRESENTATION (  '', ( #136 ), #64 ) ;
#153 = DIRECTION ( 'NONE',  ( -2.637700798163528719E-17, 1.000000000000000000, -0.000000000000000000 ) ) ;
#154 =( NAMED_UNIT ( * ) PLANE_ANGLE_UNIT ( ) SI_UNIT ( $, .RADIAN. ) );
#155 = CARTESIAN_POINT ( 'NONE',  ( 0.000000000000000000, 0.000000000000000000, -8.000000000000000000 ) ) ;
#156 =( LENGTH_UNIT ( ) NAMED_UNIT ( * ) SI_UNIT ( .MILLI., .METRE. ) );
#157 = SURFACE_SIDE_STYLE ('',( #94 ) ) ;
#158 = ORIENTED_EDGE ( 'NONE', *, *, #288, .T. ) ;
#159 =( NAMED_UNIT ( * ) SI_UNIT ( $, .STERADIAN. ) SOLID_ANGLE_UNIT ( ) );
#160 = AXIS2_PLACEMENT_3D ( 'NONE', #266, #264, #140 ) ;
#161 = VERTEX_POINT ( 'NONE', #112 ) ;
#162 = ORIENTED_EDGE ( 'NONE', *, *, #193, .T. ) ;
#163 = STYLED_ITEM ( 'NONE', ( #186 ), #15 ) ;
#164 = CARTESIAN_POINT ( 'NONE',  ( -1.714505518806293849E-15, 89.00000000000000000, 0.000000000000000000 ) ) ;
#165 = UNCERTAINTY_MEASURE_WITH_UNIT (LENGTH_MEASURE( 1.000000000000000082E-05 ), #239, 'distance_accuracy_value', 'NONE');
#166 = PRODUCT ( '59470', '59470', '', ( #99 ) ) ;
#167 = DIRECTION ( 'NONE',  ( -1.000000000000000000, 0.000000000000000000, 0.000000000000000000 ) ) ;
#168 = DIRECTION ( 'NONE',  ( -2.637700798163528719E-17, 1.000000000000000000, 0.000000000000000000 ) ) ;
#169 = VECTOR ( 'NONE', #242, 1000.000000000000000 ) ;
#170 = DIRECTION ( 'NONE',  ( 0.000000000000000000, -1.000000000000000000, -0.000000000000000000 ) ) ;
#171 = PRESENTATION_STYLE_ASSIGNMENT (( #62 ) ) ;
#172 = EDGE_CURVE ( 'NONE', #90, #77, #88, .T. ) ;
#173 = FILL_AREA_STYLE ('',( #85 ) ) ;
#174 = CIRCLE ( 'NONE', #263, 8.000000000000001776 ) ;
#175 =( GEOMETRIC_REPRESENTATION_CONTEXT ( 3 ) GLOBAL_UNCERTAINTY_ASSIGNED_CONTEXT ( ( #74 ) ) GLOBAL_UNIT_ASSIGNED_CONTEXT ( ( #277, #188, #131 ) ) REPRESENTATION_CONTEXT ( 'NONE', 'WORKASPACE' ) );
#176 = LINE ( 'NONE', #155, #89 ) ;
#177 = CARTESIAN_POINT ( 'NONE',  ( 9.797174393178825657E-16, 0.000000000000000000, 8.000000000000000000 ) ) ;
#178 = PRESENTATION_LAYER_ASSIGNMENT (  '', '', ( #139 ) ) ;
#179 = DIRECTION ( 'NONE',  ( 0.000000000000000000, 0.000000000000000000, -1.000000000000000000 ) ) ;
#180 = CARTESIAN_POINT ( 'NONE',  ( -1.714505518806293849E-15, 89.00000000000000000, 0.000000000000000000 ) ) ;
#181 = EDGE_CURVE ( 'NONE', #72, #236, #176, .T. ) ;
#182 = MECHANICAL_DESIGN_GEOMETRIC_PRESENTATION_REPRESENTATION (  '', ( #163 ), #259 ) ;
#183 = EDGE_CURVE ( 'NONE', #2, #93, #220, .T. ) ;
#184 = FACE_OUTER_BOUND ( 'NONE', #70, .T. ) ;
#185 =( NAMED_UNIT ( * ) PLANE_ANGLE_UNIT ( ) SI_UNIT ( $, .RADIAN. ) );
#186 = PRESENTATION_STYLE_ASSIGNMENT (( #81 ) ) ;
#187 = CLOSED_SHELL ( 'NONE', ( #284, #142, #238, #127 ) ) ;
#188 =( NAMED_UNIT ( * ) PLANE_ANGLE_UNIT ( ) SI_UNIT ( $, .RADIAN. ) );
#189 = CARTESIAN_POINT ( 'NONE',  ( 2.782986200253006795E-33, 24.00000000000000000, 0.000000000000000000 ) ) ;
#190 = CARTESIAN_POINT ( 'NONE',  ( 0.000000000000000000, 23.99999999999999289, 0.000000000000000000 ) ) ;
#191 = AXIS2_PLACEMENT_3D ( 'NONE', #272, #257, #167 ) ;
#192 = DIRECTION ( 'NONE',  ( -1.000000000000000000, 0.000000000000000000, 0.000000000000000000 ) ) ;
#193 = EDGE_CURVE ( 'NONE', #161, #2, #223, .T. ) ;
#194 = CARTESIAN_POINT ( 'NONE',  ( 0.000000000000000000, 23.99999999999999289, 0.000000000000000000 ) ) ;
#195 = AXIS2_PLACEMENT_3D ( 'NONE', #190, #153, #192 ) ;
#196 = CIRCLE ( 'NONE', #260, 8.000000000000000000 ) ;
#197 = PLANE ( 'NONE',  #48 ) ;
#198 = DIRECTION ( 'NONE',  ( -2.637700798163528719E-17, 1.000000000000000000, -0.000000000000000000 ) ) ;
#199 = ORIENTED_EDGE ( 'NONE', *, *, #61, .F. ) ;
#200 = ORIENTED_EDGE ( 'NONE', *, *, #221, .T. ) ;
#201 = FILL_AREA_STYLE ('',( #267 ) ) ;
#202 = ORIENTED_EDGE ( 'NONE', *, *, #193, .F. ) ;
#203 = EDGE_CURVE ( 'NONE', #77, #236, #24, .T. ) ;
#204 = MANIFOLD_SOLID_BREP ( 'Revolve - Cutting Edge', #187 ) ;
#205 = DIRECTION ( 'NONE',  ( -0.000000000000000000, -1.000000000000000000, -0.000000000000000000 ) ) ;
#206 = EDGE_LOOP ( 'NONE', ( #13, #141 ) ) ;
#207 = DIRECTION ( 'NONE',  ( 0.000000000000000000, 0.000000000000000000, -1.000000000000000000 ) ) ;
#208 = SURFACE_STYLE_FILL_AREA ( #35 ) ;
#209 = DIRECTION ( 'NONE',  ( 0.000000000000000000, 0.000000000000000000, 1.000000000000000000 ) ) ;
#210 = FILL_AREA_STYLE ('',( #230 ) ) ;
#211 = APPLICATION_CONTEXT ( 'automotive_design' ) ;
#212 = FACE_OUTER_BOUND ( 'NONE', #32, .T. ) ;
#213 = EDGE_CURVE ( 'NONE', #2, #161, #19, .T. ) ;
#214 =( NAMED_UNIT ( * ) SI_UNIT ( $, .STERADIAN. ) SOLID_ANGLE_UNIT ( ) );
#215 =( GEOMETRIC_REPRESENTATION_CONTEXT ( 3 ) GLOBAL_UNCERTAINTY_ASSIGNED_CONTEXT ( ( #12 ) ) GLOBAL_UNIT_ASSIGNED_CONTEXT ( ( #108, #154, #214 ) ) REPRESENTATION_CONTEXT ( 'NONE', 'WORKASPACE' ) );
#216 = CIRCLE ( 'NONE', #224, 8.000000000000000000 ) ;
#217 = DIRECTION ( 'NONE',  ( -2.637700798163528719E-17, 1.000000000000000000, -0.000000000000000000 ) ) ;
#218 = SURFACE_STYLE_USAGE ( .BOTH. , #135 ) ;
#219 = COLOUR_RGB ( '',0.7921568627450980005, 0.8196078431372548767, 0.9333333333333333481 ) ;
#220 = LINE ( 'NONE', #283, #36 ) ;
#221 = EDGE_CURVE ( 'NONE', #90, #72, #216, .T. ) ;
#222 = UNCERTAINTY_MEASURE_WITH_UNIT (LENGTH_MEASURE( 1.000000000000000082E-05 ), #138, 'distance_accuracy_value', 'NONE');
#223 = CIRCLE ( 'NONE', #195, 8.000000000000000000 ) ;
#224 = AXIS2_PLACEMENT_3D ( 'NONE', #114, #29, #44 ) ;
#225 = DIRECTION ( 'NONE',  ( -2.637700798163528719E-17, 1.000000000000000000, -0.000000000000000000 ) ) ;
#226 = ORIENTED_EDGE ( 'NONE', *, *, #91, .F. ) ;
#227 = CARTESIAN_POINT ( 'NONE',  ( 0.000000000000000000, 0.000000000000000000, 0.000000000000000000 ) ) ;
#228 = AXIS2_PLACEMENT_3D ( 'NONE', #250, #52, #276 ) ;
#229 = STYLED_ITEM ( 'NONE', ( #73 ), #238 ) ;
#230 = FILL_AREA_STYLE_COLOUR ( '', #240 ) ;
#231 = APPLICATION_PROTOCOL_DEFINITION ( 'draft international standard', 'automotive_design', 1998, #233 ) ;
#232 = CARTESIAN_POINT ( 'NONE',  ( 8.000000000000000000, 89.00000000000000000, 0.000000000000000000 ) ) ;
#233 = APPLICATION_CONTEXT ( 'automotive_design' ) ;
#234 = FILL_AREA_STYLE_COLOUR ( '', #117 ) ;
#235 = UNCERTAINTY_MEASURE_WITH_UNIT (LENGTH_MEASURE( 1.000000000000000082E-05 ), #156, 'distance_accuracy_value', 'NONE');
#236 = VERTEX_POINT ( 'NONE', #113 ) ;
#237 = DIRECTION ( 'NONE',  ( -2.637700798163528719E-17, 1.000000000000000000, -0.000000000000000000 ) ) ;
#238 = ADVANCED_FACE ( 'NONE', ( #268 ), #119, .T. ) ;
#239 =( LENGTH_UNIT ( ) NAMED_UNIT ( * ) SI_UNIT ( .MILLI., .METRE. ) );
#240 = COLOUR_RGB ( '',0.7921568627450980005, 0.8196078431372548767, 0.9333333333333333481 ) ;
#241 = AXIS2_PLACEMENT_3D ( 'NONE', #194, #225, #243 ) ;
#242 = DIRECTION ( 'NONE',  ( -0.000000000000000000, -1.000000000000000000, -0.000000000000000000 ) ) ;
#243 = DIRECTION ( 'NONE',  ( -1.000000000000000000, 0.000000000000000000, 0.000000000000000000 ) ) ;
#244 = ADVANCED_FACE ( 'NONE', ( #27 ), #51, .T. ) ;
#245 = SURFACE_STYLE_USAGE ( .BOTH. , #157 ) ;
#246 = FILL_AREA_STYLE ('',( #69 ) ) ;
#247 = ORIENTED_EDGE ( 'NONE', *, *, #61, .T. ) ;
#248 = SURFACE_STYLE_USAGE ( .BOTH. , #116 ) ;
#249 = ORIENTED_EDGE ( 'NONE', *, *, #213, .T. ) ;
#250 = CARTESIAN_POINT ( 'NONE',  ( -1.714505518806293849E-15, 89.00000000000000000, 0.000000000000000000 ) ) ;
#251 = PLANE ( 'NONE',  #151 ) ;
#252 = PRODUCT_RELATED_PRODUCT_CATEGORY ( 'part', '', ( #166 ) ) ;
#253 = ORIENTED_EDGE ( 'NONE', *, *, #273, .T. ) ;
#254 = CARTESIAN_POINT ( 'NONE',  ( -8.000000000000003553, 89.00000000000000000, 0.000000000000000000 ) ) ;
#255 =( GEOMETRIC_REPRESENTATION_CONTEXT ( 3 ) GLOBAL_UNCERTAINTY_ASSIGNED_CONTEXT ( ( #165 ) ) GLOBAL_UNIT_ASSIGNED_CONTEXT ( ( #239, #261, #150 ) ) REPRESENTATION_CONTEXT ( 'NONE', 'WORKASPACE' ) );
#256 = AXIS2_PLACEMENT_3D ( 'NONE', #180, #31, #95 ) ;
#257 = DIRECTION ( 'NONE',  ( -2.637700798163528719E-17, 1.000000000000000000, -0.000000000000000000 ) ) ;
#258 = EDGE_CURVE ( 'NONE', #236, #77, #28, .T. ) ;
#259 =( GEOMETRIC_REPRESENTATION_CONTEXT ( 3 ) GLOBAL_UNCERTAINTY_ASSIGNED_CONTEXT ( ( #122 ) ) GLOBAL_UNIT_ASSIGNED_CONTEXT ( ( #17, #104, #53 ) ) REPRESENTATION_CONTEXT ( 'NONE', 'WORKASPACE' ) );
#260 = AXIS2_PLACEMENT_3D ( 'NONE', #126, #75, #145 ) ;
#261 =( NAMED_UNIT ( * ) PLANE_ANGLE_UNIT ( ) SI_UNIT ( $, .RADIAN. ) );
#262 = ORIENTED_EDGE ( 'NONE', *, *, #183, .F. ) ;
#263 = AXIS2_PLACEMENT_3D ( 'NONE', #164, #237, #133 ) ;
#264 = DIRECTION ( 'NONE',  ( -0.000000000000000000, -1.000000000000000000, -0.000000000000000000 ) ) ;
#265 = ORIENTED_EDGE ( 'NONE', *, *, #91, .T. ) ;
#266 = CARTESIAN_POINT ( 'NONE',  ( 0.000000000000000000, 0.000000000000000000, 0.000000000000000000 ) ) ;
#267 = FILL_AREA_STYLE_COLOUR ( '', #78 ) ;
#268 = FACE_OUTER_BOUND ( 'NONE', #124, .T. ) ;
#269 = ORIENTED_EDGE ( 'NONE', *, *, #273, .F. ) ;
#270 = PLANE ( 'NONE',  #37 ) ;
#271 = SHAPE_DEFINITION_REPRESENTATION ( #87, #84 ) ;
#272 = CARTESIAN_POINT ( 'NONE',  ( -1.714505518806293849E-15, 89.00000000000000000, 0.000000000000000000 ) ) ;
#273 = EDGE_CURVE ( 'NONE', #161, #130, #5, .T. ) ;
#274 = PRESENTATION_LAYER_ASSIGNMENT (  '', '', ( #163 ) ) ;
#275 = PRESENTATION_LAYER_ASSIGNMENT (  '', '', ( #136 ) ) ;
#276 = DIRECTION ( 'NONE',  ( -1.000000000000000000, 0.000000000000000000, 0.000000000000000000 ) ) ;
#277 =( LENGTH_UNIT ( ) NAMED_UNIT ( * ) SI_UNIT ( .MILLI., .METRE. ) );
#278 = SURFACE_SIDE_STYLE ('',( #79 ) ) ;
#279 = EDGE_LOOP ( 'NONE', ( #269, #162, #16, #226 ) ) ;
#280 = PRESENTATION_LAYER_ASSIGNMENT (  '', '', ( #96 ) ) ;
#281 = PRODUCT_DEFINITION_FORMATION_WITH_SPECIFIED_SOURCE ( 'ANY', '', #166, .NOT_KNOWN. ) ;
#282 = FILL_AREA_STYLE_COLOUR ( '', #63 ) ;
#283 = CARTESIAN_POINT ( 'NONE',  ( -8.000000000000001776, 89.00000000000000000, 0.000000000000000000 ) ) ;
#284 = ADVANCED_FACE ( 'NONE', ( #26 ), #287, .T. ) ;
#285 = FILL_AREA_STYLE ('',( #282 ) ) ;
#286 = PRESENTATION_LAYER_ASSIGNMENT (  '', '', ( #14 ) ) ;
#287 = CYLINDRICAL_SURFACE ( 'NONE', #125, 8.000000000000000000 ) ;
#288 = EDGE_CURVE ( 'NONE', #72, #90, #196, .T. ) ;
ENDSEC;
END-ISO-10303-21;
