ISO-10303-21;
HEADER;
FILE_DESCRIPTION (( 'STEP AP214' ),
    '1' );
FILE_NAME ('26317.STEP',
    '2023-06-22T17:39:11',
    ( '' ),
    ( '' ),
    'SwSTEP 2.0',
    'SolidWorks 2023',
    '' );
FILE_SCHEMA (( 'AUTOMOTIVE_DESIGN' ));
ENDSEC;

DATA;
#1 = PRESENTATION_STYLE_ASSIGNMENT (( #306 ) ) ;
#2 = EDGE_CURVE ( 'NONE', #208, #291, #82, .T. ) ;
#3 = PRESENTATION_STYLE_ASSIGNMENT (( #125 ) ) ;
#4 = CYLINDRICAL_SURFACE ( 'NONE', #60, 0.3125000000000000000 ) ;
#5 = CYLINDRICAL_SURFACE ( 'NONE', #180, 0.3125000000000000000 ) ;
#6 = DIRECTION ( 'NONE',  ( 0.000000000000000000, -1.000000000000000000, -0.000000000000000000 ) ) ;
#7 = FACE_OUTER_BOUND ( 'NONE', #290, .T. ) ;
#8 = FACE_OUTER_BOUND ( 'NONE', #67, .T. ) ;
#9 =( NAMED_UNIT ( * ) SI_UNIT ( $, .STERADIAN. ) SOLID_ANGLE_UNIT ( ) );
#10 = STYLED_ITEM ( 'NONE', ( #101 ), #95 ) ;
#11 =( GEOMETRIC_REPRESENTATION_CONTEXT ( 3 ) GLOBAL_UNCERTAINTY_ASSIGNED_CONTEXT ( ( #294 ) ) GLOBAL_UNIT_ASSIGNED_CONTEXT ( ( #129, #22, #9 ) ) REPRESENTATION_CONTEXT ( 'NONE', 'WORKASPACE' ) );
#12 =( GEOMETRIC_REPRESENTATION_CONTEXT ( 3 ) GLOBAL_UNCERTAINTY_ASSIGNED_CONTEXT ( ( #179 ) ) GLOBAL_UNIT_ASSIGNED_CONTEXT ( ( #128, #131, #215 ) ) REPRESENTATION_CONTEXT ( 'NONE', 'WORKASPACE' ) );
#13 = EDGE_CURVE ( 'NONE', #208, #114, #274, .T. ) ;
#14 = ORIENTED_EDGE ( 'NONE', *, *, #226, .T. ) ;
#15 = PLANE ( 'NONE',  #17 ) ;
#16 = EDGE_CURVE ( 'NONE', #291, #208, #199, .T. ) ;
#17 = AXIS2_PLACEMENT_3D ( 'NONE', #153, #41, #88 ) ;
#18 = EDGE_LOOP ( 'NONE', ( #84, #112 ) ) ;
#19 = ORIENTED_EDGE ( 'NONE', *, *, #2, .T. ) ;
#20 = COLOUR_RGB ( '',0.7921568627450980005, 0.8196078431372548767, 0.9333333333333333481 ) ;
#21 = AXIS2_PLACEMENT_3D ( 'NONE', #164, #123, #207 ) ;
#22 =( NAMED_UNIT ( * ) PLANE_ANGLE_UNIT ( ) SI_UNIT ( $, .RADIAN. ) );
#23 = DIRECTION ( 'NONE',  ( -1.000000000000000000, 0.000000000000000000, 0.000000000000000000 ) ) ;
#24 = EDGE_LOOP ( 'NONE', ( #144, #277, #142, #74 ) ) ;
#25 = DIMENSIONAL_EXPONENTS ( 1.000000000000000000, 0.000000000000000000, 0.000000000000000000, 0.000000000000000000, 0.000000000000000000, 0.000000000000000000, 0.000000000000000000 ) ;
#26 = FILL_AREA_STYLE ('',( #173 ) ) ;
#27 = APPLICATION_PROTOCOL_DEFINITION ( 'draft international standard', 'automotive_design', 1998, #210 ) ;
#28 = CARTESIAN_POINT ( 'NONE',  ( -1.516480271171051896E-32, 0.7499999999999998890, 0.000000000000000000 ) ) ;
#29 = EDGE_CURVE ( 'NONE', #291, #45, #200, .T. ) ;
#30 = AXIS2_PLACEMENT_3D ( 'NONE', #188, #302, #71 ) ;
#31 = SURFACE_SIDE_STYLE ('',( #49 ) ) ;
#32 = FILL_AREA_STYLE_COLOUR ( '', #198 ) ;
#33 = CARTESIAN_POINT ( 'NONE',  ( 0.000000000000000000, 0.000000000000000000, 0.000000000000000000 ) ) ;
#34 = MANIFOLD_SOLID_BREP ( 'Revolve - Cutting Edge', #231 ) ;
#35 = FACE_OUTER_BOUND ( 'NONE', #296, .T. ) ;
#36 = AXIS2_PLACEMENT_3D ( 'NONE', #33, #6, #211 ) ;
#37 = LINE ( 'NONE', #134, #52 ) ;
#38 = UNCERTAINTY_MEASURE_WITH_UNIT (LENGTH_MEASURE( 1.000000000000000082E-05 ), #103, 'distance_accuracy_value', 'NONE');
#39 = ORIENTED_EDGE ( 'NONE', *, *, #133, .F. ) ;
#40 =( LENGTH_UNIT ( ) NAMED_UNIT ( * ) SI_UNIT ( $, .METRE. ) );
#41 = DIRECTION ( 'NONE',  ( 5.442874662877122010E-17, 1.000000000000000000, -0.000000000000000000 ) ) ;
#42 = EDGE_LOOP ( 'NONE', ( #229, #182 ) ) ;
#43 = CARTESIAN_POINT ( 'NONE',  ( 3.827021247335478926E-17, 0.000000000000000000, 0.3125000000000000000 ) ) ;
#44 = CIRCLE ( 'NONE', #267, 0.3125000000000000000 ) ;
#45 = VERTEX_POINT ( 'NONE', #202 ) ;
#46 = DIRECTION ( 'NONE',  ( -0.000000000000000000, -1.000000000000000000, -0.000000000000000000 ) ) ;
#47 = FILL_AREA_STYLE ('',( #50 ) ) ;
#48 =( LENGTH_UNIT ( ) NAMED_UNIT ( * ) SI_UNIT ( $, .METRE. ) );
#49 = SURFACE_STYLE_FILL_AREA ( #172 ) ;
#50 = FILL_AREA_STYLE_COLOUR ( '', #288 ) ;
#51 = DIRECTION ( 'NONE',  ( 5.442874662877122626E-17, 1.000000000000000000, -0.000000000000000000 ) ) ;
#52 = VECTOR ( 'NONE', #263, 39.37007874015748143 ) ;
#53 = DIRECTION ( 'NONE',  ( -1.000000000000000000, 0.000000000000000000, 0.000000000000000000 ) ) ;
#54 = PRESENTATION_STYLE_ASSIGNMENT (( #55 ) ) ;
#55 = SURFACE_STYLE_USAGE ( .BOTH. , #81 ) ;
#56 = CARTESIAN_POINT ( 'NONE',  ( 0.000000000000000000, 0.000000000000000000, -0.3125000000000000000 ) ) ;
#57 = CARTESIAN_POINT ( 'NONE',  ( 0.000000000000000000, 0.000000000000000000, 0.000000000000000000 ) ) ;
#58 = VERTEX_POINT ( 'NONE', #96 ) ;
#59 = PRODUCT_DEFINITION_FORMATION_WITH_SPECIFIED_SOURCE ( 'ANY', '', #282, .NOT_KNOWN. ) ;
#60 = AXIS2_PLACEMENT_3D ( 'NONE', #57, #155, #265 ) ;
#61 = CARTESIAN_POINT ( 'NONE',  ( 0.000000000000000000, 0.000000000000000000, -0.3125000000000000000 ) ) ;
#62 = DIRECTION ( 'NONE',  ( 0.000000000000000000, 1.000000000000000000, 0.000000000000000000 ) ) ;
#63 = PRESENTATION_STYLE_ASSIGNMENT (( #247 ) ) ;
#64 = ADVANCED_FACE ( 'NONE', ( #227 ), #170, .T. ) ;
#65 = COLOUR_RGB ( '',1.000000000000000000, 0.000000000000000000, 0.000000000000000000 ) ;
#66 = AXIS2_PLACEMENT_3D ( 'NONE', #118, #46, #98 ) ;
#67 = EDGE_LOOP ( 'NONE', ( #201, #307 ) ) ;
#68 = CARTESIAN_POINT ( 'NONE',  ( -0.3125000000000000000, 0.7499999999999998890, 0.000000000000000000 ) ) ;
#69 = DIRECTION ( 'NONE',  ( 0.000000000000000000, -0.000000000000000000, 1.000000000000000000 ) ) ;
#70 = FACE_OUTER_BOUND ( 'NONE', #171, .T. ) ;
#71 = DIRECTION ( 'NONE',  ( -1.000000000000000000, 0.000000000000000000, 0.000000000000000000 ) ) ;
#72 =( LENGTH_UNIT ( ) NAMED_UNIT ( * ) SI_UNIT ( $, .METRE. ) );
#73 =( CONVERSION_BASED_UNIT ( 'INCH', #300 ) LENGTH_UNIT ( ) NAMED_UNIT ( #309 ) );
#74 = ORIENTED_EDGE ( 'NONE', *, *, #178, .F. ) ;
#75 = CYLINDRICAL_SURFACE ( 'NONE', #160, 0.3124999999999999445 ) ;
#76 =( NAMED_UNIT ( * ) PLANE_ANGLE_UNIT ( ) SI_UNIT ( $, .RADIAN. ) );
#77 =( NAMED_UNIT ( * ) SI_UNIT ( $, .STERADIAN. ) SOLID_ANGLE_UNIT ( ) );
#78 = CARTESIAN_POINT ( 'NONE',  ( 0.3125000000000000000, 3.000000000000000444, 0.000000000000000000 ) ) ;
#79 = VECTOR ( 'NONE', #304, 39.37007874015748143 ) ;
#80 = CIRCLE ( 'NONE', #111, 0.3125000000000000000 ) ;
#81 = SURFACE_SIDE_STYLE ('',( #104 ) ) ;
#82 = CIRCLE ( 'NONE', #224, 0.3125000000000000000 ) ;
#83 = DIRECTION ( 'NONE',  ( 0.000000000000000000, 0.000000000000000000, -1.000000000000000000 ) ) ;
#84 = ORIENTED_EDGE ( 'NONE', *, *, #2, .F. ) ;
#85 = MECHANICAL_DESIGN_GEOMETRIC_PRESENTATION_REPRESENTATION (  '', ( #10 ), #232 ) ;
#86 = COLOUR_RGB ( '',0.7921568627450980005, 0.8196078431372548767, 0.9333333333333333481 ) ;
#87 = UNCERTAINTY_MEASURE_WITH_UNIT (LENGTH_MEASURE( 1.000000000000000082E-05 ), #89, 'distance_accuracy_value', 'NONE');
#88 = DIRECTION ( 'NONE',  ( -1.000000000000000000, 5.442874662877122010E-17, 0.000000000000000000 ) ) ;
#89 =( CONVERSION_BASED_UNIT ( 'INCH', #293 ) LENGTH_UNIT ( ) NAMED_UNIT ( #203 ) );
#90 = PRODUCT_RELATED_PRODUCT_CATEGORY ( 'part', '', ( #282 ) ) ;
#91 = AXIS2_PLACEMENT_3D ( 'NONE', #163, #51, #23 ) ;
#92 = CARTESIAN_POINT ( 'NONE',  ( 0.000000000000000000, 0.7499999999999998890, 0.000000000000000000 ) ) ;
#93 = EDGE_LOOP ( 'NONE', ( #157, #187, #206, #271 ) ) ;
#94 = CARTESIAN_POINT ( 'NONE',  ( 0.000000000000000000, 0.7499999999999998890, -0.3125000000000000000 ) ) ;
#95 = ADVANCED_FACE ( 'NONE', ( #190 ), #4, .T. ) ;
#96 = CARTESIAN_POINT ( 'NONE',  ( 0.3125000000000000000, 0.7499999999999998890, 3.827021247335477694E-17 ) ) ;
#97 = FILL_AREA_STYLE ('',( #32 ) ) ;
#98 = DIRECTION ( 'NONE',  ( 0.000000000000000000, 0.000000000000000000, -1.000000000000000000 ) ) ;
#99 = SHAPE_DEFINITION_REPRESENTATION ( #301, #270 ) ;
#100 = DIRECTION ( 'NONE',  ( 5.442874662877122626E-17, 1.000000000000000000, -0.000000000000000000 ) ) ;
#101 = PRESENTATION_STYLE_ASSIGNMENT (( #122 ) ) ;
#102 =( NAMED_UNIT ( * ) PLANE_ANGLE_UNIT ( ) SI_UNIT ( $, .RADIAN. ) );
#103 =( CONVERSION_BASED_UNIT ( 'INCH', #257 ) LENGTH_UNIT ( ) NAMED_UNIT ( #250 ) );
#104 = SURFACE_STYLE_FILL_AREA ( #262 ) ;
#105 = SURFACE_STYLE_FILL_AREA ( #47 ) ;
#106 = PLANE ( 'NONE',  #137 ) ;
#107 =( GEOMETRIC_REPRESENTATION_CONTEXT ( 3 ) GLOBAL_UNCERTAINTY_ASSIGNED_CONTEXT ( ( #298 ) ) GLOBAL_UNIT_ASSIGNED_CONTEXT ( ( #205, #279, #168 ) ) REPRESENTATION_CONTEXT ( 'NONE', 'WORKASPACE' ) );
#108 = SURFACE_STYLE_USAGE ( .BOTH. , #219 ) ;
#109 = UNCERTAINTY_MEASURE_WITH_UNIT (LENGTH_MEASURE( 1.000000000000000082E-05 ), #126, 'distance_accuracy_value', 'NONE');
#110 = VECTOR ( 'NONE', #162, 39.37007874015748143 ) ;
#111 = AXIS2_PLACEMENT_3D ( 'NONE', #156, #136, #218 ) ;
#112 = ORIENTED_EDGE ( 'NONE', *, *, #16, .F. ) ;
#113 =( GEOMETRIC_REPRESENTATION_CONTEXT ( 3 ) GLOBAL_UNCERTAINTY_ASSIGNED_CONTEXT ( ( #109 ) ) GLOBAL_UNIT_ASSIGNED_CONTEXT ( ( #126, #102, #77 ) ) REPRESENTATION_CONTEXT ( 'NONE', 'WORKASPACE' ) );
#114 = VERTEX_POINT ( 'NONE', #56 ) ;
#115 = PRESENTATION_LAYER_ASSIGNMENT (  '', '', ( #240 ) ) ;
#116 = CARTESIAN_POINT ( 'NONE',  ( 0.000000000000000000, 0.7499999999999998890, 0.000000000000000000 ) ) ;
#117 = DIRECTION ( 'NONE',  ( -0.000000000000000000, -1.000000000000000000, -0.000000000000000000 ) ) ;
#118 = CARTESIAN_POINT ( 'NONE',  ( 0.000000000000000000, 0.000000000000000000, 0.000000000000000000 ) ) ;
#119 =( LENGTH_UNIT ( ) NAMED_UNIT ( * ) SI_UNIT ( $, .METRE. ) );
#120 = APPLICATION_PROTOCOL_DEFINITION ( 'draft international standard', 'automotive_design', 1998, #295 ) ;
#121 = CARTESIAN_POINT ( 'NONE',  ( -0.3124999999999998335, 3.000000000000000444, 0.000000000000000000 ) ) ;
#122 = SURFACE_STYLE_USAGE ( .BOTH. , #177 ) ;
#123 = DIRECTION ( 'NONE',  ( 5.442874662877122626E-17, 1.000000000000000000, -0.000000000000000000 ) ) ;
#124 = PRESENTATION_LAYER_ASSIGNMENT (  '', '', ( #213 ) ) ;
#125 = SURFACE_STYLE_USAGE ( .BOTH. , #31 ) ;
#126 =( CONVERSION_BASED_UNIT ( 'INCH', #147 ) LENGTH_UNIT ( ) NAMED_UNIT ( #25 ) );
#127 = EDGE_CURVE ( 'NONE', #58, #161, #37, .T. ) ;
#128 =( CONVERSION_BASED_UNIT ( 'INCH', #237 ) LENGTH_UNIT ( ) NAMED_UNIT ( #305 ) );
#129 =( CONVERSION_BASED_UNIT ( 'INCH', #225 ) LENGTH_UNIT ( ) NAMED_UNIT ( #280 ) );
#130 =( NAMED_UNIT ( * ) SI_UNIT ( $, .STERADIAN. ) SOLID_ANGLE_UNIT ( ) );
#131 =( NAMED_UNIT ( * ) PLANE_ANGLE_UNIT ( ) SI_UNIT ( $, .RADIAN. ) );
#132 = CIRCLE ( 'NONE', #195, 0.3125000000000000000 ) ;
#133 = EDGE_CURVE ( 'NONE', #114, #45, #132, .T. ) ;
#134 = CARTESIAN_POINT ( 'NONE',  ( 0.3125000000000000555, 3.000000000000000444, 3.827021247335477694E-17 ) ) ;
#135 = PRESENTATION_LAYER_ASSIGNMENT (  '', '', ( #149 ) ) ;
#136 = DIRECTION ( 'NONE',  ( 5.442874662877122626E-17, 1.000000000000000000, -0.000000000000000000 ) ) ;
#137 = AXIS2_PLACEMENT_3D ( 'NONE', #78, #212, #196 ) ;
#138 = ORIENTED_EDGE ( 'NONE', *, *, #13, .F. ) ;
#139 = DIRECTION ( 'NONE',  ( 5.442874662877122010E-17, 1.000000000000000000, -0.000000000000000000 ) ) ;
#140 = DIRECTION ( 'NONE',  ( 0.000000000000000000, 0.000000000000000000, -1.000000000000000000 ) ) ;
#141 = CARTESIAN_POINT ( 'NONE',  ( 3.827021247335478926E-17, 0.7499999999999998890, 0.3125000000000000000 ) ) ;
#142 = ORIENTED_EDGE ( 'NONE', *, *, #13, .T. ) ;
#143 = SURFACE_STYLE_FILL_AREA ( #26 ) ;
#144 = ORIENTED_EDGE ( 'NONE', *, *, #29, .F. ) ;
#145 = PRODUCT_DEFINITION ( 'UNKNOWN', '', #59, #220 ) ;
#146 = LENGTH_MEASURE_WITH_UNIT ( LENGTH_MEASURE( 0.02539999999999999897 ), #119 );
#147 = LENGTH_MEASURE_WITH_UNIT ( LENGTH_MEASURE( 0.02539999999999999897 ), #255 );
#148 = FILL_AREA_STYLE ('',( #256 ) ) ;
#149 = STYLED_ITEM ( 'NONE', ( #3 ), #223 ) ;
#150 = FACE_OUTER_BOUND ( 'NONE', #93, .T. ) ;
#151 = CARTESIAN_POINT ( 'NONE',  ( 0.000000000000000000, 0.000000000000000000, 0.000000000000000000 ) ) ;
#152 =( LENGTH_UNIT ( ) NAMED_UNIT ( * ) SI_UNIT ( $, .METRE. ) );
#153 = CARTESIAN_POINT ( 'NONE',  ( 4.628888218092148898E-34, 0.7499999999999998890, 0.000000000000000000 ) ) ;
#154 = EDGE_CURVE ( 'NONE', #58, #222, #80, .T. ) ;
#155 = DIRECTION ( 'NONE',  ( -0.000000000000000000, -1.000000000000000000, -0.000000000000000000 ) ) ;
#156 = CARTESIAN_POINT ( 'NONE',  ( -1.516480271171051896E-32, 0.7499999999999998890, 0.000000000000000000 ) ) ;
#157 = ORIENTED_EDGE ( 'NONE', *, *, #217, .T. ) ;
#158 = ADVANCED_FACE ( 'NONE', ( #216 ), #15, .F. ) ;
#159 = PRESENTATION_LAYER_ASSIGNMENT (  '', '', ( #10 ) ) ;
#160 = AXIS2_PLACEMENT_3D ( 'NONE', #228, #259, #278 ) ;
#161 = VERTEX_POINT ( 'NONE', #292 ) ;
#162 = DIRECTION ( 'NONE',  ( -0.000000000000000000, -1.000000000000000000, -0.000000000000000000 ) ) ;
#163 = CARTESIAN_POINT ( 'NONE',  ( 1.224646799147352714E-16, 3.000000000000000444, 0.000000000000000000 ) ) ;
#164 = CARTESIAN_POINT ( 'NONE',  ( 1.224646799147352714E-16, 3.000000000000000444, 0.000000000000000000 ) ) ;
#165 = AXIS2_PLACEMENT_3D ( 'NONE', #245, #117, #204 ) ;
#166 = DIRECTION ( 'NONE',  ( 0.000000000000000000, 0.000000000000000000, 1.000000000000000000 ) ) ;
#167 = STYLED_ITEM ( 'NONE', ( #54 ), #264 ) ;
#168 =( NAMED_UNIT ( * ) SI_UNIT ( $, .STERADIAN. ) SOLID_ANGLE_UNIT ( ) );
#169 = PRODUCT_CONTEXT ( 'NONE', #210, 'mechanical' ) ;
#170 = PLANE ( 'NONE',  #268 ) ;
#171 = EDGE_LOOP ( 'NONE', ( #19, #244, #39, #138 ) ) ;
#172 = FILL_AREA_STYLE ('',( #254 ) ) ;
#173 = FILL_AREA_STYLE_COLOUR ( '', #65 ) ;
#174 = DIRECTION ( 'NONE',  ( -0.000000000000000000, -1.000000000000000000, -0.000000000000000000 ) ) ;
#175 = CLOSED_SHELL ( 'NONE', ( #183, #158, #186, #243 ) ) ;
#176 = PRESENTATION_LAYER_ASSIGNMENT (  '', '', ( #297 ) ) ;
#177 = SURFACE_SIDE_STYLE ('',( #105 ) ) ;
#178 = EDGE_CURVE ( 'NONE', #45, #114, #284, .T. ) ;
#179 = UNCERTAINTY_MEASURE_WITH_UNIT (LENGTH_MEASURE( 1.000000000000000082E-05 ), #128, 'distance_accuracy_value', 'NONE');
#180 = AXIS2_PLACEMENT_3D ( 'NONE', #151, #174, #281 ) ;
#181 = CARTESIAN_POINT ( 'NONE',  ( 0.000000000000000000, 0.000000000000000000, 0.000000000000000000 ) ) ;
#182 = ORIENTED_EDGE ( 'NONE', *, *, #154, .F. ) ;
#183 = ADVANCED_FACE ( 'NONE', ( #150 ), #230, .T. ) ;
#184 = DIRECTION ( 'NONE',  ( -0.000000000000000000, -1.000000000000000000, -0.000000000000000000 ) ) ;
#185 = ORIENTED_EDGE ( 'NONE', *, *, #276, .T. ) ;
#186 = ADVANCED_FACE ( 'NONE', ( #7 ), #75, .T. ) ;
#187 = ORIENTED_EDGE ( 'NONE', *, *, #127, .T. ) ;
#188 = CARTESIAN_POINT ( 'NONE',  ( 1.224646799147352714E-16, 3.000000000000000444, 0.000000000000000000 ) ) ;
#189 = SURFACE_STYLE_FILL_AREA ( #97 ) ;
#190 = FACE_OUTER_BOUND ( 'NONE', #24, .T. ) ;
#191 = DIMENSIONAL_EXPONENTS ( 1.000000000000000000, 0.000000000000000000, 0.000000000000000000, 0.000000000000000000, 0.000000000000000000, 0.000000000000000000, 0.000000000000000000 ) ;
#192 = AXIS2_PLACEMENT_3D ( 'NONE', #303, #166, #252 ) ;
#193 =( LENGTH_UNIT ( ) NAMED_UNIT ( * ) SI_UNIT ( $, .METRE. ) );
#194 = MECHANICAL_DESIGN_GEOMETRIC_PRESENTATION_REPRESENTATION (  '', ( #213 ), #107 ) ;
#195 = AXIS2_PLACEMENT_3D ( 'NONE', #181, #238, #83 ) ;
#196 = DIRECTION ( 'NONE',  ( 1.000000000000000000, -5.442874662877122010E-17, 0.000000000000000000 ) ) ;
#197 = ORIENTED_EDGE ( 'NONE', *, *, #226, .F. ) ;
#198 = COLOUR_RGB ( '',1.000000000000000000, 0.000000000000000000, 0.000000000000000000 ) ;
#199 = CIRCLE ( 'NONE', #165, 0.3125000000000000000 ) ;
#200 = LINE ( 'NONE', #43, #79 ) ;
#201 = ORIENTED_EDGE ( 'NONE', *, *, #133, .T. ) ;
#202 = CARTESIAN_POINT ( 'NONE',  ( 3.827021247335478926E-17, 0.000000000000000000, 0.3125000000000000000 ) ) ;
#203 = DIMENSIONAL_EXPONENTS ( 1.000000000000000000, 0.000000000000000000, 0.000000000000000000, 0.000000000000000000, 0.000000000000000000, 0.000000000000000000, 0.000000000000000000 ) ;
#204 = DIRECTION ( 'NONE',  ( 0.000000000000000000, 0.000000000000000000, -1.000000000000000000 ) ) ;
#205 =( CONVERSION_BASED_UNIT ( 'INCH', #146 ) LENGTH_UNIT ( ) NAMED_UNIT ( #191 ) );
#206 = ORIENTED_EDGE ( 'NONE', *, *, #276, .F. ) ;
#207 = DIRECTION ( 'NONE',  ( -1.000000000000000000, 0.000000000000000000, 0.000000000000000000 ) ) ;
#208 = VERTEX_POINT ( 'NONE', #94 ) ;
#209 = SURFACE_SIDE_STYLE ('',( #143 ) ) ;
#210 = APPLICATION_CONTEXT ( 'automotive_design' ) ;
#211 = DIRECTION ( 'NONE',  ( 0.000000000000000000, 0.000000000000000000, -1.000000000000000000 ) ) ;
#212 = DIRECTION ( 'NONE',  ( -5.442874662877122010E-17, -1.000000000000000000, 0.000000000000000000 ) ) ;
#213 = STYLED_ITEM ( 'NONE', ( #1 ), #64 ) ;
#214 = VECTOR ( 'NONE', #139, 39.37007874015748143 ) ;
#215 =( NAMED_UNIT ( * ) SI_UNIT ( $, .STERADIAN. ) SOLID_ANGLE_UNIT ( ) );
#216 = FACE_OUTER_BOUND ( 'NONE', #42, .T. ) ;
#217 = EDGE_CURVE ( 'NONE', #222, #58, #44, .T. ) ;
#218 = DIRECTION ( 'NONE',  ( -1.000000000000000000, 0.000000000000000000, 0.000000000000000000 ) ) ;
#219 = SURFACE_SIDE_STYLE ('',( #233 ) ) ;
#220 = PRODUCT_DEFINITION_CONTEXT ( 'detailed design', #295, 'design' ) ;
#221 = EDGE_CURVE ( 'NONE', #222, #248, #283, .T. ) ;
#222 = VERTEX_POINT ( 'NONE', #68 ) ;
#223 = MANIFOLD_SOLID_BREP ( 'Revolve - Tool Body (Straight Shanked)', #175 ) ;
#224 = AXIS2_PLACEMENT_3D ( 'NONE', #92, #184, #140 ) ;
#225 = LENGTH_MEASURE_WITH_UNIT ( LENGTH_MEASURE( 0.02539999999999999897 ), #193 );
#226 = EDGE_CURVE ( 'NONE', #161, #248, #289, .T. ) ;
#227 = FACE_OUTER_BOUND ( 'NONE', #18, .T. ) ;
#228 = CARTESIAN_POINT ( 'NONE',  ( 1.224646799147352714E-16, 3.000000000000000444, 0.000000000000000000 ) ) ;
#229 = ORIENTED_EDGE ( 'NONE', *, *, #217, .F. ) ;
#230 = CYLINDRICAL_SURFACE ( 'NONE', #30, 0.3124999999999999445 ) ;
#231 = CLOSED_SHELL ( 'NONE', ( #286, #64, #95, #264 ) ) ;
#232 =( GEOMETRIC_REPRESENTATION_CONTEXT ( 3 ) GLOBAL_UNCERTAINTY_ASSIGNED_CONTEXT ( ( #38 ) ) GLOBAL_UNIT_ASSIGNED_CONTEXT ( ( #103, #76, #130 ) ) REPRESENTATION_CONTEXT ( 'NONE', 'WORKASPACE' ) );
#233 = SURFACE_STYLE_FILL_AREA ( #148 ) ;
#234 = PLANE ( 'NONE',  #36 ) ;
#235 =( NAMED_UNIT ( * ) PLANE_ANGLE_UNIT ( ) SI_UNIT ( $, .RADIAN. ) );
#236 = FILL_AREA_STYLE_COLOUR ( '', #273 ) ;
#237 = LENGTH_MEASURE_WITH_UNIT ( LENGTH_MEASURE( 0.02539999999999999897 ), #152 );
#238 = DIRECTION ( 'NONE',  ( -0.000000000000000000, -1.000000000000000000, -0.000000000000000000 ) ) ;
#239 = MECHANICAL_DESIGN_GEOMETRIC_PRESENTATION_REPRESENTATION (  '', ( #297 ), #113 ) ;
#240 = STYLED_ITEM ( 'NONE', ( #272 ), #34 ) ;
#241 =( NAMED_UNIT ( * ) PLANE_ANGLE_UNIT ( ) SI_UNIT ( $, .RADIAN. ) );
#242 =( GEOMETRIC_REPRESENTATION_CONTEXT ( 3 ) GLOBAL_UNCERTAINTY_ASSIGNED_CONTEXT ( ( #246 ) ) GLOBAL_UNIT_ASSIGNED_CONTEXT ( ( #73, #235, #258 ) ) REPRESENTATION_CONTEXT ( 'NONE', 'WORKASPACE' ) );
#243 = ADVANCED_FACE ( 'NONE', ( #35 ), #106, .F. ) ;
#244 = ORIENTED_EDGE ( 'NONE', *, *, #29, .T. ) ;
#245 = CARTESIAN_POINT ( 'NONE',  ( 0.000000000000000000, 0.7499999999999998890, 0.000000000000000000 ) ) ;
#246 = UNCERTAINTY_MEASURE_WITH_UNIT (LENGTH_MEASURE( 1.000000000000000082E-05 ), #73, 'distance_accuracy_value', 'NONE');
#247 = SURFACE_STYLE_USAGE ( .BOTH. , #285 ) ;
#248 = VERTEX_POINT ( 'NONE', #261 ) ;
#249 =( GEOMETRIC_REPRESENTATION_CONTEXT ( 3 ) GLOBAL_UNCERTAINTY_ASSIGNED_CONTEXT ( ( #87 ) ) GLOBAL_UNIT_ASSIGNED_CONTEXT ( ( #89, #241, #287 ) ) REPRESENTATION_CONTEXT ( 'NONE', 'WORKASPACE' ) );
#250 = DIMENSIONAL_EXPONENTS ( 1.000000000000000000, 0.000000000000000000, 0.000000000000000000, 0.000000000000000000, 0.000000000000000000, 0.000000000000000000, 0.000000000000000000 ) ;
#251 = PRESENTATION_LAYER_ASSIGNMENT (  '', '', ( #167 ) ) ;
#252 = DIRECTION ( 'NONE',  ( 1.000000000000000000, 0.000000000000000000, 0.000000000000000000 ) ) ;
#253 = ORIENTED_EDGE ( 'NONE', *, *, #154, .T. ) ;
#254 = FILL_AREA_STYLE_COLOUR ( '', #86 ) ;
#255 =( LENGTH_UNIT ( ) NAMED_UNIT ( * ) SI_UNIT ( $, .METRE. ) );
#256 = FILL_AREA_STYLE_COLOUR ( '', #20 ) ;
#257 = LENGTH_MEASURE_WITH_UNIT ( LENGTH_MEASURE( 0.02539999999999999897 ), #72 );
#258 =( NAMED_UNIT ( * ) SI_UNIT ( $, .STERADIAN. ) SOLID_ANGLE_UNIT ( ) );
#259 = DIRECTION ( 'NONE',  ( 5.442874662877122626E-17, 1.000000000000000000, -0.000000000000000000 ) ) ;
#260 = CIRCLE ( 'NONE', #21, 0.3124999999999998890 ) ;
#261 = CARTESIAN_POINT ( 'NONE',  ( -0.3124999999999997224, 3.000000000000000444, 0.000000000000000000 ) ) ;
#262 = FILL_AREA_STYLE ('',( #236 ) ) ;
#263 = DIRECTION ( 'NONE',  ( 5.442874662877122010E-17, 1.000000000000000000, -0.000000000000000000 ) ) ;
#264 = ADVANCED_FACE ( 'NONE', ( #8 ), #234, .T. ) ;
#265 = DIRECTION ( 'NONE',  ( 0.000000000000000000, 0.000000000000000000, -1.000000000000000000 ) ) ;
#266 = MECHANICAL_DESIGN_GEOMETRIC_PRESENTATION_REPRESENTATION (  '', ( #240 ), #249 ) ;
#267 = AXIS2_PLACEMENT_3D ( 'NONE', #28, #100, #53 ) ;
#268 = AXIS2_PLACEMENT_3D ( 'NONE', #116, #62, #69 ) ;
#269 = MECHANICAL_DESIGN_GEOMETRIC_PRESENTATION_REPRESENTATION (  '', ( #149 ), #11 ) ;
#270 = ADVANCED_BREP_SHAPE_REPRESENTATION ( '26317', ( #34, #223, #192 ), #242 ) ;
#271 = ORIENTED_EDGE ( 'NONE', *, *, #221, .F. ) ;
#272 = PRESENTATION_STYLE_ASSIGNMENT (( #108 ) ) ;
#273 = COLOUR_RGB ( '',1.000000000000000000, 0.000000000000000000, 0.000000000000000000 ) ;
#274 = LINE ( 'NONE', #61, #110 ) ;
#275 = ORIENTED_EDGE ( 'NONE', *, *, #127, .F. ) ;
#276 = EDGE_CURVE ( 'NONE', #248, #161, #260, .T. ) ;
#277 = ORIENTED_EDGE ( 'NONE', *, *, #16, .T. ) ;
#278 = DIRECTION ( 'NONE',  ( -1.000000000000000000, 0.000000000000000000, 0.000000000000000000 ) ) ;
#279 =( NAMED_UNIT ( * ) PLANE_ANGLE_UNIT ( ) SI_UNIT ( $, .RADIAN. ) );
#280 = DIMENSIONAL_EXPONENTS ( 1.000000000000000000, 0.000000000000000000, 0.000000000000000000, 0.000000000000000000, 0.000000000000000000, 0.000000000000000000, 0.000000000000000000 ) ;
#281 = DIRECTION ( 'NONE',  ( 0.000000000000000000, 0.000000000000000000, -1.000000000000000000 ) ) ;
#282 = PRODUCT ( '26317', '26317', '', ( #169 ) ) ;
#283 = LINE ( 'NONE', #121, #214 ) ;
#284 = CIRCLE ( 'NONE', #66, 0.3125000000000000000 ) ;
#285 = SURFACE_SIDE_STYLE ('',( #189 ) ) ;
#286 = ADVANCED_FACE ( 'NONE', ( #70 ), #5, .T. ) ;
#287 =( NAMED_UNIT ( * ) SI_UNIT ( $, .STERADIAN. ) SOLID_ANGLE_UNIT ( ) );
#288 = COLOUR_RGB ( '',1.000000000000000000, 0.000000000000000000, 0.000000000000000000 ) ;
#289 = CIRCLE ( 'NONE', #91, 0.3124999999999998890 ) ;
#290 = EDGE_LOOP ( 'NONE', ( #275, #253, #299, #197 ) ) ;
#291 = VERTEX_POINT ( 'NONE', #141 ) ;
#292 = CARTESIAN_POINT ( 'NONE',  ( 0.3125000000000000000, 3.000000000000000444, 3.827021247335477694E-17 ) ) ;
#293 = LENGTH_MEASURE_WITH_UNIT ( LENGTH_MEASURE( 0.02539999999999999897 ), #40 );
#294 = UNCERTAINTY_MEASURE_WITH_UNIT (LENGTH_MEASURE( 1.000000000000000082E-05 ), #129, 'distance_accuracy_value', 'NONE');
#295 = APPLICATION_CONTEXT ( 'automotive_design' ) ;
#296 = EDGE_LOOP ( 'NONE', ( #185, #14 ) ) ;
#297 = STYLED_ITEM ( 'NONE', ( #63 ), #286 ) ;
#298 = UNCERTAINTY_MEASURE_WITH_UNIT (LENGTH_MEASURE( 1.000000000000000082E-05 ), #205, 'distance_accuracy_value', 'NONE');
#299 = ORIENTED_EDGE ( 'NONE', *, *, #221, .T. ) ;
#300 = LENGTH_MEASURE_WITH_UNIT ( LENGTH_MEASURE( 0.02539999999999999897 ), #48 );
#301 = PRODUCT_DEFINITION_SHAPE ( 'NONE', 'NONE',  #145 ) ;
#302 = DIRECTION ( 'NONE',  ( 5.442874662877122626E-17, 1.000000000000000000, -0.000000000000000000 ) ) ;
#303 = CARTESIAN_POINT ( 'NONE',  ( 0.000000000000000000, 0.000000000000000000, 0.000000000000000000 ) ) ;
#304 = DIRECTION ( 'NONE',  ( -0.000000000000000000, -1.000000000000000000, -0.000000000000000000 ) ) ;
#305 = DIMENSIONAL_EXPONENTS ( 1.000000000000000000, 0.000000000000000000, 0.000000000000000000, 0.000000000000000000, 0.000000000000000000, 0.000000000000000000, 0.000000000000000000 ) ;
#306 = SURFACE_STYLE_USAGE ( .BOTH. , #209 ) ;
#307 = ORIENTED_EDGE ( 'NONE', *, *, #178, .T. ) ;
#308 = MECHANICAL_DESIGN_GEOMETRIC_PRESENTATION_REPRESENTATION (  '', ( #167 ), #12 ) ;
#309 = DIMENSIONAL_EXPONENTS ( 1.000000000000000000, 0.000000000000000000, 0.000000000000000000, 0.000000000000000000, 0.000000000000000000, 0.000000000000000000, 0.000000000000000000 ) ;
ENDSEC;
END-ISO-10303-21;
