ISO-10303-21;
HEADER;
FILE_DESCRIPTION (( 'STEP AP214' ),
    '1' );
FILE_NAME ('00707.STEP',
    '2023-06-22T14:15:09',
    ( '' ),
    ( '' ),
    'SwSTEP 2.0',
    'SolidWorks 2023',
    '' );
FILE_SCHEMA (( 'AUTOMOTIVE_DESIGN' ));
ENDSEC;

DATA;
#1 =( LENGTH_UNIT ( ) NAMED_UNIT ( * ) SI_UNIT ( $, .METRE. ) );
#2 = DIRECTION ( 'NONE',  ( -4.082155997157840737E-17, 1.000000000000000000, -0.000000000000000000 ) ) ;
#3 = UNCERTAINTY_MEASURE_WITH_UNIT (LENGTH_MEASURE( 1.000000000000000082E-05 ), #249, 'distance_accuracy_value', 'NONE');
#4 = CARTESIAN_POINT ( 'NONE',  ( -1.224646799147351975E-16, 7.000000000000000000, 0.000000000000000000 ) ) ;
#5 =( LENGTH_UNIT ( ) NAMED_UNIT ( * ) SI_UNIT ( $, .METRE. ) );
#6 = AXIS2_PLACEMENT_3D ( 'NONE', #152, #253, #9 ) ;
#7 = ORIENTED_EDGE ( 'NONE', *, *, #258, .T. ) ;
#8 = SURFACE_STYLE_FILL_AREA ( #192 ) ;
#9 = DIRECTION ( 'NONE',  ( 1.000000000000000000, 0.000000000000000000, 0.000000000000000000 ) ) ;
#10 = PRODUCT_DEFINITION_CONTEXT ( 'detailed design', #153, 'design' ) ;
#11 = FACE_OUTER_BOUND ( 'NONE', #56, .T. ) ;
#12 = EDGE_LOOP ( 'NONE', ( #202, #193 ) ) ;
#13 = ORIENTED_EDGE ( 'NONE', *, *, #69, .F. ) ;
#14 = FILL_AREA_STYLE_COLOUR ( '', #116 ) ;
#15 = AXIS2_PLACEMENT_3D ( 'NONE', #140, #245, #223 ) ;
#16 = EDGE_CURVE ( 'NONE', #41, #53, #199, .T. ) ;
#17 = FILL_AREA_STYLE_COLOUR ( '', #183 ) ;
#18 = STYLED_ITEM ( 'NONE', ( #271 ), #269 ) ;
#19 = LINE ( 'NONE', #284, #189 ) ;
#20 = FACE_OUTER_BOUND ( 'NONE', #303, .T. ) ;
#21 = DIRECTION ( 'NONE',  ( -4.082155997157840737E-17, 1.000000000000000000, -0.000000000000000000 ) ) ;
#22 = SURFACE_SIDE_STYLE ('',( #129 ) ) ;
#23 = DIRECTION ( 'NONE',  ( -1.000000000000000000, 0.000000000000000000, 0.000000000000000000 ) ) ;
#24 = DIRECTION ( 'NONE',  ( -4.082155997157840737E-17, 1.000000000000000000, -0.000000000000000000 ) ) ;
#25 =( CONVERSION_BASED_UNIT ( 'INCH', #235 ) LENGTH_UNIT ( ) NAMED_UNIT ( #219 ) );
#26 = FILL_AREA_STYLE_COLOUR ( '', #90 ) ;
#27 = DIRECTION ( 'NONE',  ( 1.000000000000000000, 4.082155997157840737E-17, 0.000000000000000000 ) ) ;
#28 = LENGTH_MEASURE_WITH_UNIT ( LENGTH_MEASURE( 0.02539999999999999897 ), #5 );
#29 = EDGE_CURVE ( 'NONE', #216, #78, #210, .T. ) ;
#30 = AXIS2_PLACEMENT_3D ( 'NONE', #4, #49, #217 ) ;
#31 = SHAPE_DEFINITION_REPRESENTATION ( #92, #143 ) ;
#32 = CARTESIAN_POINT ( 'NONE',  ( 0.000000000000000000, 0.000000000000000000, 0.000000000000000000 ) ) ;
#33 = STYLED_ITEM ( 'NONE', ( #309 ), #279 ) ;
#34 = UNCERTAINTY_MEASURE_WITH_UNIT (LENGTH_MEASURE( 1.000000000000000082E-05 ), #207, 'distance_accuracy_value', 'NONE');
#35 = AXIS2_PLACEMENT_3D ( 'NONE', #231, #177, #247 ) ;
#36 =( NAMED_UNIT ( * ) PLANE_ANGLE_UNIT ( ) SI_UNIT ( $, .RADIAN. ) );
#37 = EDGE_LOOP ( 'NONE', ( #97, #300 ) ) ;
#38 = CARTESIAN_POINT ( 'NONE',  ( 0.000000000000000000, 4.000000000000000000, 0.000000000000000000 ) ) ;
#39 = SURFACE_SIDE_STYLE ('',( #150 ) ) ;
#40 = FILL_AREA_STYLE ('',( #14 ) ) ;
#41 = VERTEX_POINT ( 'NONE', #82 ) ;
#42 =( LENGTH_UNIT ( ) NAMED_UNIT ( * ) SI_UNIT ( $, .METRE. ) );
#43 = CIRCLE ( 'NONE', #215, 0.3750000000000001665 ) ;
#44 =( LENGTH_UNIT ( ) NAMED_UNIT ( * ) SI_UNIT ( $, .METRE. ) );
#45 =( CONVERSION_BASED_UNIT ( 'INCH', #257 ) LENGTH_UNIT ( ) NAMED_UNIT ( #221 ) );
#46 = DIRECTION ( 'NONE',  ( -0.000000000000000000, -1.000000000000000000, -0.000000000000000000 ) ) ;
#47 = PRODUCT_RELATED_PRODUCT_CATEGORY ( 'part', '', ( #72 ) ) ;
#48 = UNCERTAINTY_MEASURE_WITH_UNIT (LENGTH_MEASURE( 1.000000000000000082E-05 ), #54, 'distance_accuracy_value', 'NONE');
#49 = DIRECTION ( 'NONE',  ( -4.082155997157840737E-17, 1.000000000000000000, -0.000000000000000000 ) ) ;
#50 =( NAMED_UNIT ( * ) PLANE_ANGLE_UNIT ( ) SI_UNIT ( $, .RADIAN. ) );
#51 = DIRECTION ( 'NONE',  ( 0.000000000000000000, 0.000000000000000000, -1.000000000000000000 ) ) ;
#52 = FILL_AREA_STYLE_COLOUR ( '', #270 ) ;
#53 = VERTEX_POINT ( 'NONE', #173 ) ;
#54 =( CONVERSION_BASED_UNIT ( 'INCH', #198 ) LENGTH_UNIT ( ) NAMED_UNIT ( #197 ) );
#55 = SURFACE_STYLE_USAGE ( .BOTH. , #301 ) ;
#56 = EDGE_LOOP ( 'NONE', ( #142, #200 ) ) ;
#57 = ORIENTED_EDGE ( 'NONE', *, *, #29, .F. ) ;
#58 = DIRECTION ( 'NONE',  ( 0.000000000000000000, 1.000000000000000000, 0.000000000000000000 ) ) ;
#59 = FILL_AREA_STYLE ('',( #52 ) ) ;
#60 =( LENGTH_UNIT ( ) NAMED_UNIT ( * ) SI_UNIT ( $, .METRE. ) );
#61 = EDGE_CURVE ( 'NONE', #144, #168, #43, .T. ) ;
#62 = FILL_AREA_STYLE ('',( #17 ) ) ;
#63 = FILL_AREA_STYLE_COLOUR ( '', #204 ) ;
#64 = CARTESIAN_POINT ( 'NONE',  ( 0.000000000000000000, 0.000000000000000000, 0.000000000000000000 ) ) ;
#65 = ORIENTED_EDGE ( 'NONE', *, *, #113, .F. ) ;
#66 = AXIS2_PLACEMENT_3D ( 'NONE', #163, #264, #27 ) ;
#67 = MANIFOLD_SOLID_BREP ( 'Revolve - Cutting Edge', #277 ) ;
#68 =( CONVERSION_BASED_UNIT ( 'INCH', #87 ) LENGTH_UNIT ( ) NAMED_UNIT ( #124 ) );
#69 = EDGE_CURVE ( 'NONE', #53, #216, #19, .T. ) ;
#70 = UNCERTAINTY_MEASURE_WITH_UNIT (LENGTH_MEASURE( 1.000000000000000082E-05 ), #25, 'distance_accuracy_value', 'NONE');
#71 =( NAMED_UNIT ( * ) SI_UNIT ( $, .STERADIAN. ) SOLID_ANGLE_UNIT ( ) );
#72 = PRODUCT ( '00707', '00707', '', ( #265 ) ) ;
#73 = AXIS2_PLACEMENT_3D ( 'NONE', #136, #190, #242 ) ;
#74 = DIRECTION ( 'NONE',  ( -0.000000000000000000, -1.000000000000000000, -0.000000000000000000 ) ) ;
#75 = UNCERTAINTY_MEASURE_WITH_UNIT (LENGTH_MEASURE( 1.000000000000000082E-05 ), #294, 'distance_accuracy_value', 'NONE');
#76 = AXIS2_PLACEMENT_3D ( 'NONE', #181, #166, #141 ) ;
#77 = FILL_AREA_STYLE_COLOUR ( '', #127 ) ;
#78 = VERTEX_POINT ( 'NONE', #103 ) ;
#79 =( NAMED_UNIT ( * ) PLANE_ANGLE_UNIT ( ) SI_UNIT ( $, .RADIAN. ) );
#80 = VECTOR ( 'NONE', #308, 39.37007874015748143 ) ;
#81 = ORIENTED_EDGE ( 'NONE', *, *, #69, .T. ) ;
#82 = CARTESIAN_POINT ( 'NONE',  ( 4.592425496802575451E-17, 4.000000000000000000, 0.3750000000000000555 ) ) ;
#83 = ORIENTED_EDGE ( 'NONE', *, *, #161, .T. ) ;
#84 = EDGE_CURVE ( 'NONE', #168, #144, #256, .T. ) ;
#85 = SURFACE_SIDE_STYLE ('',( #91 ) ) ;
#86 = APPLICATION_PROTOCOL_DEFINITION ( 'draft international standard', 'automotive_design', 1998, #260 ) ;
#87 = LENGTH_MEASURE_WITH_UNIT ( LENGTH_MEASURE( 0.02539999999999999897 ), #147 );
#88 =( NAMED_UNIT ( * ) PLANE_ANGLE_UNIT ( ) SI_UNIT ( $, .RADIAN. ) );
#89 = ADVANCED_FACE ( 'NONE', ( #149 ), #251, .T. ) ;
#90 = COLOUR_RGB ( '',1.000000000000000000, 0.000000000000000000, 0.000000000000000000 ) ;
#91 = SURFACE_STYLE_FILL_AREA ( #287 ) ;
#92 = PRODUCT_DEFINITION_SHAPE ( 'NONE', 'NONE',  #211 ) ;
#93 =( GEOMETRIC_REPRESENTATION_CONTEXT ( 3 ) GLOBAL_UNCERTAINTY_ASSIGNED_CONTEXT ( ( #48 ) ) GLOBAL_UNIT_ASSIGNED_CONTEXT ( ( #54, #79, #222 ) ) REPRESENTATION_CONTEXT ( 'NONE', 'WORKASPACE' ) );
#94 = CARTESIAN_POINT ( 'NONE',  ( 0.000000000000000000, 0.000000000000000000, -0.3750000000000000555 ) ) ;
#95 = PLANE ( 'NONE',  #101 ) ;
#96 = PRESENTATION_LAYER_ASSIGNMENT (  '', '', ( #138 ) ) ;
#97 = ORIENTED_EDGE ( 'NONE', *, *, #139, .F. ) ;
#98 = FACE_OUTER_BOUND ( 'NONE', #246, .T. ) ;
#99 =( GEOMETRIC_REPRESENTATION_CONTEXT ( 3 ) GLOBAL_UNCERTAINTY_ASSIGNED_CONTEXT ( ( #120 ) ) GLOBAL_UNIT_ASSIGNED_CONTEXT ( ( #68, #286, #182 ) ) REPRESENTATION_CONTEXT ( 'NONE', 'WORKASPACE' ) );
#100 = STYLED_ITEM ( 'NONE', ( #205 ), #89 ) ;
#101 = AXIS2_PLACEMENT_3D ( 'NONE', #32, #266, #51 ) ;
#102 = PRESENTATION_STYLE_ASSIGNMENT (( #226 ) ) ;
#103 = CARTESIAN_POINT ( 'NONE',  ( 4.592425496802575451E-17, 0.000000000000000000, 0.3750000000000000555 ) ) ;
#104 = DIRECTION ( 'NONE',  ( -1.000000000000000000, 0.000000000000000000, 0.000000000000000000 ) ) ;
#105 = CARTESIAN_POINT ( 'NONE',  ( -0.3750000000000002776, 7.000000000000000000, 0.000000000000000000 ) ) ;
#106 = SURFACE_STYLE_USAGE ( .BOTH. , #22 ) ;
#107 =( GEOMETRIC_REPRESENTATION_CONTEXT ( 3 ) GLOBAL_UNCERTAINTY_ASSIGNED_CONTEXT ( ( #34 ) ) GLOBAL_UNIT_ASSIGNED_CONTEXT ( ( #207, #88, #71 ) ) REPRESENTATION_CONTEXT ( 'NONE', 'WORKASPACE' ) );
#108 = LENGTH_MEASURE_WITH_UNIT ( LENGTH_MEASURE( 0.02539999999999999897 ), #42 );
#109 = CARTESIAN_POINT ( 'NONE',  ( 1.516480271171051896E-32, 4.000000000000000000, 0.000000000000000000 ) ) ;
#110 = EDGE_CURVE ( 'NONE', #78, #216, #132, .T. ) ;
#111 = DIRECTION ( 'NONE',  ( -4.082155997157840737E-17, 1.000000000000000000, -0.000000000000000000 ) ) ;
#112 =( GEOMETRIC_REPRESENTATION_CONTEXT ( 3 ) GLOBAL_UNCERTAINTY_ASSIGNED_CONTEXT ( ( #70 ) ) GLOBAL_UNIT_ASSIGNED_CONTEXT ( ( #25, #261, #185 ) ) REPRESENTATION_CONTEXT ( 'NONE', 'WORKASPACE' ) );
#113 = EDGE_CURVE ( 'NONE', #41, #78, #234, .T. ) ;
#114 = PRESENTATION_STYLE_ASSIGNMENT (( #159 ) ) ;
#115 = DIRECTION ( 'NONE',  ( 0.000000000000000000, 0.000000000000000000, -1.000000000000000000 ) ) ;
#116 = COLOUR_RGB ( '',1.000000000000000000, 0.000000000000000000, 0.000000000000000000 ) ;
#117 = APPLICATION_PROTOCOL_DEFINITION ( 'draft international standard', 'automotive_design', 1998, #153 ) ;
#118 = ORIENTED_EDGE ( 'NONE', *, *, #113, .T. ) ;
#119 = MECHANICAL_DESIGN_GEOMETRIC_PRESENTATION_REPRESENTATION (  '', ( #138 ), #267 ) ;
#120 = UNCERTAINTY_MEASURE_WITH_UNIT (LENGTH_MEASURE( 1.000000000000000082E-05 ), #68, 'distance_accuracy_value', 'NONE');
#121 =( GEOMETRIC_REPRESENTATION_CONTEXT ( 3 ) GLOBAL_UNCERTAINTY_ASSIGNED_CONTEXT ( ( #75 ) ) GLOBAL_UNIT_ASSIGNED_CONTEXT ( ( #294, #50, #169 ) ) REPRESENTATION_CONTEXT ( 'NONE', 'WORKASPACE' ) );
#122 =( LENGTH_UNIT ( ) NAMED_UNIT ( * ) SI_UNIT ( $, .METRE. ) );
#123 = ORIENTED_EDGE ( 'NONE', *, *, #110, .F. ) ;
#124 = DIMENSIONAL_EXPONENTS ( 1.000000000000000000, 0.000000000000000000, 0.000000000000000000, 0.000000000000000000, 0.000000000000000000, 0.000000000000000000, 0.000000000000000000 ) ;
#125 = PRESENTATION_LAYER_ASSIGNMENT (  '', '', ( #100 ) ) ;
#126 = CARTESIAN_POINT ( 'NONE',  ( 0.000000000000000000, 0.000000000000000000, 0.000000000000000000 ) ) ;
#127 = COLOUR_RGB ( '',1.000000000000000000, 0.000000000000000000, 0.000000000000000000 ) ;
#128 = DIRECTION ( 'NONE',  ( 0.000000000000000000, 0.000000000000000000, -1.000000000000000000 ) ) ;
#129 = SURFACE_STYLE_FILL_AREA ( #40 ) ;
#130 = PLANE ( 'NONE',  #76 ) ;
#131 = DIRECTION ( 'NONE',  ( -4.082155997157840737E-17, 1.000000000000000000, -0.000000000000000000 ) ) ;
#132 = CIRCLE ( 'NONE', #15, 0.3750000000000000555 ) ;
#133 = EDGE_CURVE ( 'NONE', #241, #291, #236, .T. ) ;
#134 = AXIS2_PLACEMENT_3D ( 'NONE', #109, #21, #289 ) ;
#135 = FILL_AREA_STYLE ('',( #77 ) ) ;
#136 = CARTESIAN_POINT ( 'NONE',  ( 0.000000000000000000, 4.000000000000000000, 0.000000000000000000 ) ) ;
#137 = PLANE ( 'NONE',  #66 ) ;
#138 = STYLED_ITEM ( 'NONE', ( #102 ), #67 ) ;
#139 = EDGE_CURVE ( 'NONE', #291, #241, #170, .T. ) ;
#140 = CARTESIAN_POINT ( 'NONE',  ( 0.000000000000000000, 0.000000000000000000, 0.000000000000000000 ) ) ;
#141 = DIRECTION ( 'NONE',  ( -1.000000000000000000, -4.082155997157840737E-17, 0.000000000000000000 ) ) ;
#142 = ORIENTED_EDGE ( 'NONE', *, *, #29, .T. ) ;
#143 = ADVANCED_BREP_SHAPE_REPRESENTATION ( '00707', ( #67, #164, #6 ), #238 ) ;
#144 = VERTEX_POINT ( 'NONE', #105 ) ;
#145 = PRESENTATION_LAYER_ASSIGNMENT (  '', '', ( #18 ) ) ;
#146 = LENGTH_MEASURE_WITH_UNIT ( LENGTH_MEASURE( 0.02539999999999999897 ), #60 );
#147 =( LENGTH_UNIT ( ) NAMED_UNIT ( * ) SI_UNIT ( $, .METRE. ) );
#148 = ORIENTED_EDGE ( 'NONE', *, *, #229, .T. ) ;
#149 = FACE_OUTER_BOUND ( 'NONE', #218, .T. ) ;
#150 = SURFACE_STYLE_FILL_AREA ( #59 ) ;
#151 = CARTESIAN_POINT ( 'NONE',  ( 0.3750000000000000555, 7.000000000000000000, 4.592425496802576684E-17 ) ) ;
#152 = CARTESIAN_POINT ( 'NONE',  ( 0.000000000000000000, 0.000000000000000000, 0.000000000000000000 ) ) ;
#153 = APPLICATION_CONTEXT ( 'automotive_design' ) ;
#154 = EDGE_LOOP ( 'NONE', ( #180, #250 ) ) ;
#155 = MECHANICAL_DESIGN_GEOMETRIC_PRESENTATION_REPRESENTATION (  '', ( #33 ), #99 ) ;
#156 = SURFACE_STYLE_USAGE ( .BOTH. , #85 ) ;
#157 = PRESENTATION_STYLE_ASSIGNMENT (( #156 ) ) ;
#158 = AXIS2_PLACEMENT_3D ( 'NONE', #160, #74, #115 ) ;
#159 = SURFACE_STYLE_USAGE ( .BOTH. , #239 ) ;
#160 = CARTESIAN_POINT ( 'NONE',  ( 0.000000000000000000, 0.000000000000000000, 0.000000000000000000 ) ) ;
#161 = EDGE_CURVE ( 'NONE', #291, #144, #283, .T. ) ;
#162 = PRESENTATION_LAYER_ASSIGNMENT (  '', '', ( #33 ) ) ;
#163 = CARTESIAN_POINT ( 'NONE',  ( 0.3750000000000000555, 7.000000000000000000, 0.000000000000000000 ) ) ;
#164 = MANIFOLD_SOLID_BREP ( 'Revolve - Tool Body (Straight Shanked)', #272 ) ;
#165 = ORIENTED_EDGE ( 'NONE', *, *, #161, .F. ) ;
#166 = DIRECTION ( 'NONE',  ( -4.082155997157840737E-17, 1.000000000000000000, 0.000000000000000000 ) ) ;
#167 = STYLED_ITEM ( 'NONE', ( #157 ), #164 ) ;
#168 = VERTEX_POINT ( 'NONE', #151 ) ;
#169 =( NAMED_UNIT ( * ) SI_UNIT ( $, .STERADIAN. ) SOLID_ANGLE_UNIT ( ) );
#170 = CIRCLE ( 'NONE', #225, 0.3750000000000000555 ) ;
#171 = MECHANICAL_DESIGN_GEOMETRIC_PRESENTATION_REPRESENTATION (  '', ( #297 ), #121 ) ;
#172 = ORIENTED_EDGE ( 'NONE', *, *, #139, .T. ) ;
#173 = CARTESIAN_POINT ( 'NONE',  ( 0.000000000000000000, 4.000000000000000000, -0.3750000000000000555 ) ) ;
#174 = CYLINDRICAL_SURFACE ( 'NONE', #213, 0.3750000000000000555 ) ;
#175 = ADVANCED_FACE ( 'NONE', ( #252 ), #130, .F. ) ;
#176 = AXIS2_PLACEMENT_3D ( 'NONE', #38, #58, #244 ) ;
#177 = DIRECTION ( 'NONE',  ( -0.000000000000000000, -1.000000000000000000, -0.000000000000000000 ) ) ;
#178 =( NAMED_UNIT ( * ) SI_UNIT ( $, .STERADIAN. ) SOLID_ANGLE_UNIT ( ) );
#179 = CARTESIAN_POINT ( 'NONE',  ( -0.3750000000000000555, 4.000000000000000000, 0.000000000000000000 ) ) ;
#180 = ORIENTED_EDGE ( 'NONE', *, *, #61, .T. ) ;
#181 = CARTESIAN_POINT ( 'NONE',  ( 3.124499547212198646E-34, 4.000000000000000000, 0.000000000000000000 ) ) ;
#182 =( NAMED_UNIT ( * ) SI_UNIT ( $, .STERADIAN. ) SOLID_ANGLE_UNIT ( ) );
#183 = COLOUR_RGB ( '',0.7921568627450980005, 0.8196078431372548767, 0.9333333333333333481 ) ;
#184 = MECHANICAL_DESIGN_GEOMETRIC_PRESENTATION_REPRESENTATION (  '', ( #18 ), #93 ) ;
#185 =( NAMED_UNIT ( * ) SI_UNIT ( $, .STERADIAN. ) SOLID_ANGLE_UNIT ( ) );
#186 =( NAMED_UNIT ( * ) SI_UNIT ( $, .STERADIAN. ) SOLID_ANGLE_UNIT ( ) );
#187 = UNCERTAINTY_MEASURE_WITH_UNIT (LENGTH_MEASURE( 1.000000000000000082E-05 ), #45, 'distance_accuracy_value', 'NONE');
#188 = FACE_OUTER_BOUND ( 'NONE', #154, .T. ) ;
#189 = VECTOR ( 'NONE', #201, 39.37007874015748143 ) ;
#190 = DIRECTION ( 'NONE',  ( -0.000000000000000000, -1.000000000000000000, -0.000000000000000000 ) ) ;
#191 = ADVANCED_FACE ( 'NONE', ( #214 ), #296, .T. ) ;
#192 = FILL_AREA_STYLE ('',( #26 ) ) ;
#193 = ORIENTED_EDGE ( 'NONE', *, *, #16, .F. ) ;
#194 = FACE_OUTER_BOUND ( 'NONE', #12, .T. ) ;
#195 = VECTOR ( 'NONE', #290, 39.37007874015748143 ) ;
#196 = ORIENTED_EDGE ( 'NONE', *, *, #133, .T. ) ;
#197 = DIMENSIONAL_EXPONENTS ( 1.000000000000000000, 0.000000000000000000, 0.000000000000000000, 0.000000000000000000, 0.000000000000000000, 0.000000000000000000, 0.000000000000000000 ) ;
#198 = LENGTH_MEASURE_WITH_UNIT ( LENGTH_MEASURE( 0.02539999999999999897 ), #122 );
#199 = CIRCLE ( 'NONE', #35, 0.3750000000000000555 ) ;
#200 = ORIENTED_EDGE ( 'NONE', *, *, #110, .T. ) ;
#201 = DIRECTION ( 'NONE',  ( -0.000000000000000000, -1.000000000000000000, -0.000000000000000000 ) ) ;
#202 = ORIENTED_EDGE ( 'NONE', *, *, #229, .F. ) ;
#203 = DIRECTION ( 'NONE',  ( -1.000000000000000000, 0.000000000000000000, 0.000000000000000000 ) ) ;
#204 = COLOUR_RGB ( '',0.7921568627450980005, 0.8196078431372548767, 0.9333333333333333481 ) ;
#205 = PRESENTATION_STYLE_ASSIGNMENT (( #106 ) ) ;
#206 = CARTESIAN_POINT ( 'NONE',  ( 1.516480271171051896E-32, 4.000000000000000000, 0.000000000000000000 ) ) ;
#207 =( CONVERSION_BASED_UNIT ( 'INCH', #108 ) LENGTH_UNIT ( ) NAMED_UNIT ( #274 ) );
#208 = SURFACE_STYLE_USAGE ( .BOTH. , #39 ) ;
#209 =( NAMED_UNIT ( * ) PLANE_ANGLE_UNIT ( ) SI_UNIT ( $, .RADIAN. ) );
#210 = CIRCLE ( 'NONE', #262, 0.3750000000000000555 ) ;
#211 = PRODUCT_DEFINITION ( 'UNKNOWN', '', #293, #10 ) ;
#212 = CARTESIAN_POINT ( 'NONE',  ( 4.592425496802575451E-17, 0.000000000000000000, 0.3750000000000000555 ) ) ;
#213 = AXIS2_PLACEMENT_3D ( 'NONE', #64, #46, #276 ) ;
#214 = FACE_OUTER_BOUND ( 'NONE', #255, .T. ) ;
#215 = AXIS2_PLACEMENT_3D ( 'NONE', #228, #275, #203 ) ;
#216 = VERTEX_POINT ( 'NONE', #94 ) ;
#217 = DIRECTION ( 'NONE',  ( -1.000000000000000000, 0.000000000000000000, 0.000000000000000000 ) ) ;
#218 = EDGE_LOOP ( 'NONE', ( #65, #298, #81, #123 ) ) ;
#219 = DIMENSIONAL_EXPONENTS ( 1.000000000000000000, 0.000000000000000000, 0.000000000000000000, 0.000000000000000000, 0.000000000000000000, 0.000000000000000000, 0.000000000000000000 ) ;
#220 = VECTOR ( 'NONE', #2, 39.37007874015748143 ) ;
#221 = DIMENSIONAL_EXPONENTS ( 1.000000000000000000, 0.000000000000000000, 0.000000000000000000, 0.000000000000000000, 0.000000000000000000, 0.000000000000000000, 0.000000000000000000 ) ;
#222 =( NAMED_UNIT ( * ) SI_UNIT ( $, .STERADIAN. ) SOLID_ANGLE_UNIT ( ) );
#223 = DIRECTION ( 'NONE',  ( 0.000000000000000000, 0.000000000000000000, -1.000000000000000000 ) ) ;
#224 = ADVANCED_FACE ( 'NONE', ( #188 ), #137, .F. ) ;
#225 = AXIS2_PLACEMENT_3D ( 'NONE', #206, #111, #23 ) ;
#226 = SURFACE_STYLE_USAGE ( .BOTH. , #273 ) ;
#227 = DIMENSIONAL_EXPONENTS ( 1.000000000000000000, 0.000000000000000000, 0.000000000000000000, 0.000000000000000000, 0.000000000000000000, 0.000000000000000000, 0.000000000000000000 ) ;
#228 = CARTESIAN_POINT ( 'NONE',  ( -1.224646799147351975E-16, 7.000000000000000000, 0.000000000000000000 ) ) ;
#229 = EDGE_CURVE ( 'NONE', #53, #41, #240, .T. ) ;
#230 = CARTESIAN_POINT ( 'NONE',  ( -1.224646799147351975E-16, 7.000000000000000000, 0.000000000000000000 ) ) ;
#231 = CARTESIAN_POINT ( 'NONE',  ( 0.000000000000000000, 4.000000000000000000, 0.000000000000000000 ) ) ;
#232 = AXIS2_PLACEMENT_3D ( 'NONE', #306, #131, #282 ) ;
#233 = CYLINDRICAL_SURFACE ( 'NONE', #243, 0.3750000000000001110 ) ;
#234 = LINE ( 'NONE', #212, #80 ) ;
#235 = LENGTH_MEASURE_WITH_UNIT ( LENGTH_MEASURE( 0.02539999999999999897 ), #44 );
#236 = CIRCLE ( 'NONE', #134, 0.3750000000000000555 ) ;
#237 = CARTESIAN_POINT ( 'NONE',  ( 0.3749999999999999445, 7.000000000000000000, 4.592425496802576068E-17 ) ) ;
#238 =( GEOMETRIC_REPRESENTATION_CONTEXT ( 3 ) GLOBAL_UNCERTAINTY_ASSIGNED_CONTEXT ( ( #187 ) ) GLOBAL_UNIT_ASSIGNED_CONTEXT ( ( #45, #209, #186 ) ) REPRESENTATION_CONTEXT ( 'NONE', 'WORKASPACE' ) );
#239 = SURFACE_SIDE_STYLE ('',( #8 ) ) ;
#240 = CIRCLE ( 'NONE', #73, 0.3750000000000000555 ) ;
#241 = VERTEX_POINT ( 'NONE', #292 ) ;
#242 = DIRECTION ( 'NONE',  ( 0.000000000000000000, 0.000000000000000000, -1.000000000000000000 ) ) ;
#243 = AXIS2_PLACEMENT_3D ( 'NONE', #230, #24, #104 ) ;
#244 = DIRECTION ( 'NONE',  ( 0.000000000000000000, -0.000000000000000000, 1.000000000000000000 ) ) ;
#245 = DIRECTION ( 'NONE',  ( -0.000000000000000000, -1.000000000000000000, -0.000000000000000000 ) ) ;
#246 = EDGE_LOOP ( 'NONE', ( #148, #118, #57, #13 ) ) ;
#247 = DIRECTION ( 'NONE',  ( 0.000000000000000000, 0.000000000000000000, -1.000000000000000000 ) ) ;
#248 = SURFACE_STYLE_FILL_AREA ( #135 ) ;
#249 =( CONVERSION_BASED_UNIT ( 'INCH', #146 ) LENGTH_UNIT ( ) NAMED_UNIT ( #227 ) );
#250 = ORIENTED_EDGE ( 'NONE', *, *, #84, .T. ) ;
#251 = CYLINDRICAL_SURFACE ( 'NONE', #158, 0.3750000000000000555 ) ;
#252 = FACE_OUTER_BOUND ( 'NONE', #37, .T. ) ;
#253 = DIRECTION ( 'NONE',  ( 0.000000000000000000, 0.000000000000000000, 1.000000000000000000 ) ) ;
#254 = DIRECTION ( 'NONE',  ( -0.000000000000000000, -1.000000000000000000, -0.000000000000000000 ) ) ;
#255 = EDGE_LOOP ( 'NONE', ( #280, #196, #83, #295 ) ) ;
#256 = CIRCLE ( 'NONE', #232, 0.3750000000000001665 ) ;
#257 = LENGTH_MEASURE_WITH_UNIT ( LENGTH_MEASURE( 0.02539999999999999897 ), #1 );
#258 = EDGE_CURVE ( 'NONE', #241, #168, #268, .T. ) ;
#259 = CARTESIAN_POINT ( 'NONE',  ( -0.3750000000000002220, 7.000000000000000000, 0.000000000000000000 ) ) ;
#260 = APPLICATION_CONTEXT ( 'automotive_design' ) ;
#261 =( NAMED_UNIT ( * ) PLANE_ANGLE_UNIT ( ) SI_UNIT ( $, .RADIAN. ) );
#262 = AXIS2_PLACEMENT_3D ( 'NONE', #126, #254, #128 ) ;
#263 = ADVANCED_FACE ( 'NONE', ( #11 ), #95, .T. ) ;
#264 = DIRECTION ( 'NONE',  ( 4.082155997157840737E-17, -1.000000000000000000, 0.000000000000000000 ) ) ;
#265 = PRODUCT_CONTEXT ( 'NONE', #260, 'mechanical' ) ;
#266 = DIRECTION ( 'NONE',  ( 0.000000000000000000, -1.000000000000000000, -0.000000000000000000 ) ) ;
#267 =( GEOMETRIC_REPRESENTATION_CONTEXT ( 3 ) GLOBAL_UNCERTAINTY_ASSIGNED_CONTEXT ( ( #3 ) ) GLOBAL_UNIT_ASSIGNED_CONTEXT ( ( #249, #36, #178 ) ) REPRESENTATION_CONTEXT ( 'NONE', 'WORKASPACE' ) );
#268 = LINE ( 'NONE', #237, #195 ) ;
#269 = ADVANCED_FACE ( 'NONE', ( #194 ), #299, .T. ) ;
#270 = COLOUR_RGB ( '',1.000000000000000000, 0.000000000000000000, 0.000000000000000000 ) ;
#271 = PRESENTATION_STYLE_ASSIGNMENT (( #55 ) ) ;
#272 = CLOSED_SHELL ( 'NONE', ( #285, #175, #191, #224 ) ) ;
#273 = SURFACE_SIDE_STYLE ('',( #304 ) ) ;
#274 = DIMENSIONAL_EXPONENTS ( 1.000000000000000000, 0.000000000000000000, 0.000000000000000000, 0.000000000000000000, 0.000000000000000000, 0.000000000000000000, 0.000000000000000000 ) ;
#275 = DIRECTION ( 'NONE',  ( -4.082155997157840737E-17, 1.000000000000000000, -0.000000000000000000 ) ) ;
#276 = DIRECTION ( 'NONE',  ( 0.000000000000000000, 0.000000000000000000, -1.000000000000000000 ) ) ;
#277 = CLOSED_SHELL ( 'NONE', ( #279, #269, #89, #263 ) ) ;
#278 = PRESENTATION_LAYER_ASSIGNMENT (  '', '', ( #167 ) ) ;
#279 = ADVANCED_FACE ( 'NONE', ( #98 ), #174, .T. ) ;
#280 = ORIENTED_EDGE ( 'NONE', *, *, #258, .F. ) ;
#281 = DIMENSIONAL_EXPONENTS ( 1.000000000000000000, 0.000000000000000000, 0.000000000000000000, 0.000000000000000000, 0.000000000000000000, 0.000000000000000000, 0.000000000000000000 ) ;
#282 = DIRECTION ( 'NONE',  ( -1.000000000000000000, 0.000000000000000000, 0.000000000000000000 ) ) ;
#283 = LINE ( 'NONE', #259, #220 ) ;
#284 = CARTESIAN_POINT ( 'NONE',  ( 0.000000000000000000, 0.000000000000000000, -0.3750000000000000555 ) ) ;
#285 = ADVANCED_FACE ( 'NONE', ( #20 ), #233, .T. ) ;
#286 =( NAMED_UNIT ( * ) PLANE_ANGLE_UNIT ( ) SI_UNIT ( $, .RADIAN. ) );
#287 = FILL_AREA_STYLE ('',( #63 ) ) ;
#288 = MECHANICAL_DESIGN_GEOMETRIC_PRESENTATION_REPRESENTATION (  '', ( #100 ), #107 ) ;
#289 = DIRECTION ( 'NONE',  ( -1.000000000000000000, 0.000000000000000000, 0.000000000000000000 ) ) ;
#290 = DIRECTION ( 'NONE',  ( -4.082155997157840737E-17, 1.000000000000000000, -0.000000000000000000 ) ) ;
#291 = VERTEX_POINT ( 'NONE', #179 ) ;
#292 = CARTESIAN_POINT ( 'NONE',  ( 0.3750000000000000555, 4.000000000000000000, 4.592425496802576684E-17 ) ) ;
#293 = PRODUCT_DEFINITION_FORMATION_WITH_SPECIFIED_SOURCE ( 'ANY', '', #72, .NOT_KNOWN. ) ;
#294 =( CONVERSION_BASED_UNIT ( 'INCH', #28 ) LENGTH_UNIT ( ) NAMED_UNIT ( #281 ) );
#295 = ORIENTED_EDGE ( 'NONE', *, *, #84, .F. ) ;
#296 = CYLINDRICAL_SURFACE ( 'NONE', #30, 0.3750000000000001110 ) ;
#297 = STYLED_ITEM ( 'NONE', ( #114 ), #263 ) ;
#298 = ORIENTED_EDGE ( 'NONE', *, *, #16, .T. ) ;
#299 = PLANE ( 'NONE',  #176 ) ;
#300 = ORIENTED_EDGE ( 'NONE', *, *, #133, .F. ) ;
#301 = SURFACE_SIDE_STYLE ('',( #248 ) ) ;
#302 = MECHANICAL_DESIGN_GEOMETRIC_PRESENTATION_REPRESENTATION (  '', ( #167 ), #112 ) ;
#303 = EDGE_LOOP ( 'NONE', ( #172, #7, #305, #165 ) ) ;
#304 = SURFACE_STYLE_FILL_AREA ( #62 ) ;
#305 = ORIENTED_EDGE ( 'NONE', *, *, #61, .F. ) ;
#306 = CARTESIAN_POINT ( 'NONE',  ( -1.224646799147351975E-16, 7.000000000000000000, 0.000000000000000000 ) ) ;
#307 = PRESENTATION_LAYER_ASSIGNMENT (  '', '', ( #297 ) ) ;
#308 = DIRECTION ( 'NONE',  ( -0.000000000000000000, -1.000000000000000000, -0.000000000000000000 ) ) ;
#309 = PRESENTATION_STYLE_ASSIGNMENT (( #208 ) ) ;
ENDSEC;
END-ISO-10303-21;
