ISO-10303-21;
HEADER;
FILE_DESCRIPTION (( 'STEP AP214' ),
    '1' );
FILE_NAME ('Micro_DMM-100-2120.STEP',
    '2021-09-02T16:28:20',
    ( '' ),
    ( '' ),
    'SwSTEP 2.0',
    'SolidWorks 2020',
    '' );
FILE_SCHEMA (( 'AUTOMOTIVE_DESIGN' ));
ENDSEC;

DATA;
#1 = DIRECTION ( 'NONE',  ( 0.0000000000000000000, 0.0000000000000000000, 1.000000000000000000 ) ) ;
#2 = AXIS2_PLACEMENT_3D ( 'NONE', #24, #110, #251 ) ;
#3 = ORIENTED_EDGE ( 'NONE', *, *, #287, .T. ) ;
#4 = DIRECTION ( 'NONE',  ( -0.0000000000000000000, -0.0000000000000000000, -1.000000000000000000 ) ) ;
#5 = CARTESIAN_POINT ( 'NONE',  ( -0.1818505000000002481, 0.0000000000000000000, 2.834646000000000665 ) ) ;
#6 = DIRECTION ( 'NONE',  ( 0.0000000000000000000, 0.0000000000000000000, -1.000000000000000000 ) ) ;
#7 = VERTEX_POINT ( 'NONE', #308 ) ;
#8 = DIRECTION ( 'NONE',  ( -0.0000000000000000000, -0.0000000000000000000, -1.000000000000000000 ) ) ;
#9 = FILL_AREA_STYLE_COLOUR ( '', #237 ) ;
#10 = ADVANCED_FACE ( 'NONE', ( #134 ), #26, .T. ) ;
#11 = CONICAL_SURFACE ( 'NONE', #146, 0.007499999999999999722, 1.047197551196600518 ) ;
#12 = CARTESIAN_POINT ( 'NONE',  ( 0.0000000000000000000, 0.0000000000000000000, 2.834646000000000665 ) ) ;
#13 = APPLICATION_CONTEXT ( 'automotive_design' ) ;
#14 = DIRECTION ( 'NONE',  ( -0.0000000000000000000, -0.0000000000000000000, -1.000000000000000000 ) ) ;
#15 = PRODUCT_DEFINITION_SHAPE ( 'NONE', 'NONE',  #92 ) ;
#16 = ORIENTED_EDGE ( 'NONE', *, *, #66, .T. ) ;
#17 = VECTOR ( 'NONE', #116, 39.37007874015748143 ) ;
#18 = CARTESIAN_POINT ( 'NONE',  ( 0.0000000000000000000, 0.0000000000000000000, 0.9842519999999999047 ) ) ;
#19 = ORIENTED_EDGE ( 'NONE', *, *, #239, .T. ) ;
#20 = AXIS2_PLACEMENT_3D ( 'NONE', #154, #249, #298 ) ;
#21 = STYLED_ITEM ( 'NONE', ( #248 ), #316 ) ;
#22 =( LENGTH_UNIT ( ) NAMED_UNIT ( * ) SI_UNIT ( $, .METRE. ) );
#23 = CARTESIAN_POINT ( 'NONE',  ( 0.0000000000000000000, 0.0000000000000000000, 0.9842519999999999047 ) ) ;
#24 = CARTESIAN_POINT ( 'NONE',  ( 0.0000000000000000000, 0.0000000000000000000, 0.9842519999999999047 ) ) ;
#25 = ORIENTED_EDGE ( 'NONE', *, *, #125, .T. ) ;
#26 = CONICAL_SURFACE ( 'NONE', #73, 0.007499999999999999722, 1.047197551196600518 ) ;
#27 = VERTEX_POINT ( 'NONE', #5 ) ;
#28 = LENGTH_MEASURE_WITH_UNIT ( LENGTH_MEASURE( 0.02539999999999999897 ), #80 );
#29 = ORIENTED_EDGE ( 'NONE', *, *, #54, .F. ) ;
#30 = LINE ( 'NONE', #259, #250 ) ;
#31 = CIRCLE ( 'NONE', #256, 0.1968005000000001836 ) ;
#32 = EDGE_CURVE ( 'NONE', #27, #172, #312, .T. ) ;
#33 = CARTESIAN_POINT ( 'NONE',  ( -0.1968504999999999838, 0.0000000000000000000, 2.819646000000000097 ) ) ;
#34 = DIRECTION ( 'NONE',  ( -1.000000000000000000, 0.0000000000000000000, 0.0000000000000000000 ) ) ;
#35 = MECHANICAL_DESIGN_GEOMETRIC_PRESENTATION_REPRESENTATION (  '', ( #104 ), #293 ) ;
#36 = ADVANCED_FACE ( 'NONE', ( #166 ), #193, .T. ) ;
#37 = ORIENTED_EDGE ( 'NONE', *, *, #76, .T. ) ;
#38 = DIRECTION ( 'NONE',  ( -0.0000000000000000000, -0.0000000000000000000, -1.000000000000000000 ) ) ;
#39 = CARTESIAN_POINT ( 'NONE',  ( 0.0000000000000000000, 0.0000000000000000000, 2.834646000000000665 ) ) ;
#40 = CARTESIAN_POINT ( 'NONE',  ( 0.0000000000000000000, 0.0000000000000000000, 0.0000000000000000000 ) ) ;
#41 =( LENGTH_UNIT ( ) NAMED_UNIT ( * ) SI_UNIT ( $, .METRE. ) );
#42 = CIRCLE ( 'NONE', #262, 0.007499999999999999722 ) ;
#43 = ORIENTED_EDGE ( 'NONE', *, *, #208, .T. ) ;
#44 = CYLINDRICAL_SURFACE ( 'NONE', #167, 0.1968504999999999838 ) ;
#45 = FACE_OUTER_BOUND ( 'NONE', #90, .T. ) ;
#46 = AXIS2_PLACEMENT_3D ( 'NONE', #200, #77, #138 ) ;
#47 = COLOUR_RGB ( '',0.7921568627450980005, 0.8196078431372548767, 0.9333333333333333481 ) ;
#48 = CARTESIAN_POINT ( 'NONE',  ( 0.007499999999999999722, 0.0000000000000000000, 1.707404996040164512E-17 ) ) ;
#49 = CARTESIAN_POINT ( 'NONE',  ( -0.007499999999999999722, 9.184850993605147975E-19, 1.707404996040164512E-17 ) ) ;
#50 = CARTESIAN_POINT ( 'NONE',  ( 0.0000000000000000000, 0.0000000000000000000, 2.834646000000000665 ) ) ;
#51 = DIRECTION ( 'NONE',  ( 0.0000000000000000000, 0.0000000000000000000, 1.000000000000000000 ) ) ;
#52 = CIRCLE ( 'NONE', #131, 0.1968005000000000171 ) ;
#53 = ORIENTED_EDGE ( 'NONE', *, *, #278, .T. ) ;
#54 = EDGE_CURVE ( 'NONE', #279, #118, #30, .T. ) ;
#55 = ORIENTED_EDGE ( 'NONE', *, *, #186, .T. ) ;
#56 = DIRECTION ( 'NONE',  ( -0.8660254037844400399, 1.060575238724908640E-16, 0.4999999999999976685 ) ) ;
#57 = DIRECTION ( 'NONE',  ( 1.000000000000000000, 0.0000000000000000000, 0.0000000000000000000 ) ) ;
#58 = CIRCLE ( 'NONE', #271, 0.007499999999999999722 ) ;
#59 = EDGE_CURVE ( 'NONE', #123, #295, #63, .T. ) ;
#60 = DIRECTION ( 'NONE',  ( 0.0000000000000000000, 0.0000000000000000000, -1.000000000000000000 ) ) ;
#61 = FACE_OUTER_BOUND ( 'NONE', #145, .T. ) ;
#62 = ORIENTED_EDGE ( 'NONE', *, *, #87, .T. ) ;
#63 = LINE ( 'NONE', #254, #17 ) ;
#64 = CARTESIAN_POINT ( 'NONE',  ( 0.0000000000000000000, 0.0000000000000000000, 0.0000000000000000000 ) ) ;
#65 = ORIENTED_EDGE ( 'NONE', *, *, #186, .F. ) ;
#66 = EDGE_CURVE ( 'NONE', #322, #279, #69, .T. ) ;
#67 = DIRECTION ( 'NONE',  ( 1.000000000000000000, 0.0000000000000000000, 0.0000000000000000000 ) ) ;
#68 = ORIENTED_EDGE ( 'NONE', *, *, #239, .F. ) ;
#69 = CIRCLE ( 'NONE', #245, 0.1968504999999999838 ) ;
#70 = FACE_OUTER_BOUND ( 'NONE', #269, .T. ) ;
#71 = EDGE_LOOP ( 'NONE', ( #43, #160 ) ) ;
#72 = ADVANCED_FACE ( 'NONE', ( #174 ), #11, .T. ) ;
#73 = AXIS2_PLACEMENT_3D ( 'NONE', #228, #1, #57 ) ;
#74 = DIRECTION ( 'NONE',  ( -1.000000000000000000, 0.0000000000000000000, 0.0000000000000000000 ) ) ;
#75 = VERTEX_POINT ( 'NONE', #213 ) ;
#76 = EDGE_CURVE ( 'NONE', #172, #27, #175, .T. ) ;
#77 = DIRECTION ( 'NONE',  ( -0.0000000000000000000, 0.0000000000000000000, -1.000000000000000000 ) ) ;
#78 = DIRECTION ( 'NONE',  ( -0.0000000000000000000, -0.0000000000000000000, -1.000000000000000000 ) ) ;
#79 = VECTOR ( 'NONE', #310, 39.37007874015748854 ) ;
#80 =( LENGTH_UNIT ( ) NAMED_UNIT ( * ) SI_UNIT ( $, .METRE. ) );
#81 = CARTESIAN_POINT ( 'NONE',  ( -0.007499999999999999722, 1.250979766946019529E-17, 1.707404996040164512E-17 ) ) ;
#82 = CARTESIAN_POINT ( 'NONE',  ( 0.0000000000000000000, 0.0000000000000000000, 2.834646000000000665 ) ) ;
#83 = DIMENSIONAL_EXPONENTS ( 1.000000000000000000, 0.0000000000000000000, 0.0000000000000000000, 0.0000000000000000000, 0.0000000000000000000, 0.0000000000000000000, 0.0000000000000000000 ) ;
#84 = APPLICATION_PROTOCOL_DEFINITION ( 'draft international standard', 'automotive_design', 1998, #13 ) ;
#85 = ORIENTED_EDGE ( 'NONE', *, *, #54, .T. ) ;
#86 = SURFACE_STYLE_FILL_AREA ( #320 ) ;
#87 = EDGE_CURVE ( 'NONE', #318, #7, #300, .T. ) ;
#88 = AXIS2_PLACEMENT_3D ( 'NONE', #12, #263, #319 ) ;
#89 =( NAMED_UNIT ( * ) PLANE_ANGLE_UNIT ( ) SI_UNIT ( $, .RADIAN. ) );
#90 = EDGE_LOOP ( 'NONE', ( #187, #37 ) ) ;
#91 = LINE ( 'NONE', #235, #304 ) ;
#92 = PRODUCT_DEFINITION ( 'UNKNOWN', '', #199, #141 ) ;
#93 = CARTESIAN_POINT ( 'NONE',  ( 0.1818505000000002481, 2.227026327483460228E-17, 2.834646000000000665 ) ) ;
#94 = EDGE_LOOP ( 'NONE', ( #292, #25, #264, #117 ) ) ;
#95 = DIRECTION ( 'NONE',  ( -0.0000000000000000000, -0.0000000000000000000, -1.000000000000000000 ) ) ;
#96 = AXIS2_PLACEMENT_3D ( 'NONE', #64, #313, #283 ) ;
#97 = ADVANCED_FACE ( 'NONE', ( #70 ), #299, .T. ) ;
#98 =( GEOMETRIC_REPRESENTATION_CONTEXT ( 3 ) GLOBAL_UNCERTAINTY_ASSIGNED_CONTEXT ( ( #252 ) ) GLOBAL_UNIT_ASSIGNED_CONTEXT ( ( #128, #296, #105 ) ) REPRESENTATION_CONTEXT ( 'NONE', 'WORKASPACE' ) );
#99 = CARTESIAN_POINT ( 'NONE',  ( 0.0000000000000000000, 0.0000000000000000000, 1.707404996040164512E-17 ) ) ;
#100 = SURFACE_SIDE_STYLE ('',( #289 ) ) ;
#101 = DIRECTION ( 'NONE',  ( -0.0000000000000000000, -0.0000000000000000000, -1.000000000000000000 ) ) ;
#102 = VECTOR ( 'NONE', #178, 39.37007874015748854 ) ;
#103 = CARTESIAN_POINT ( 'NONE',  ( 0.1818505000000002481, 2.318874837419510283E-17, 2.834646000000000665 ) ) ;
#104 = STYLED_ITEM ( 'NONE', ( #224 ), #227 ) ;
#105 =( NAMED_UNIT ( * ) SI_UNIT ( $, .STERADIAN. ) SOLID_ANGLE_UNIT ( ) );
#106 = EDGE_CURVE ( 'NONE', #238, #318, #42, .T. ) ;
#107 = DIRECTION ( 'NONE',  ( -1.000000000000000000, 0.0000000000000000000, 0.0000000000000000000 ) ) ;
#108 = PLANE ( 'NONE',  #20 ) ;
#109 = DIRECTION ( 'NONE',  ( -0.0000000000000000000, -0.0000000000000000000, -1.000000000000000000 ) ) ;
#110 = DIRECTION ( 'NONE',  ( -0.0000000000000000000, -0.0000000000000000000, -1.000000000000000000 ) ) ;
#111 =( CONVERSION_BASED_UNIT ( 'INCH', #28 ) LENGTH_UNIT ( ) NAMED_UNIT ( #133 ) );
#112 = LINE ( 'NONE', #236, #216 ) ;
#113 = SURFACE_STYLE_USAGE ( .BOTH. , #157 ) ;
#114 = CONICAL_SURFACE ( 'NONE', #140, 0.1818505000000002481, 0.7853981633974312926 ) ;
#115 = UNCERTAINTY_MEASURE_WITH_UNIT (LENGTH_MEASURE( 1.000000000000000082E-05 ), #111, 'distance_accuracy_value', 'NONE');
#116 = DIRECTION ( 'NONE',  ( -0.0000000000000000000, -0.0000000000000000000, -1.000000000000000000 ) ) ;
#117 = ORIENTED_EDGE ( 'NONE', *, *, #158, .F. ) ;
#118 = VERTEX_POINT ( 'NONE', #139 ) ;
#119 = LINE ( 'NONE', #93, #79 ) ;
#120 = CYLINDRICAL_SURFACE ( 'NONE', #234, 0.1968005000000001281 ) ;
#121 = AXIS2_PLACEMENT_3D ( 'NONE', #82, #184, #132 ) ;
#122 = AXIS2_PLACEMENT_3D ( 'NONE', #39, #315, #67 ) ;
#123 = VERTEX_POINT ( 'NONE', #244 ) ;
#124 = ADVANCED_FACE ( 'NONE', ( #197 ), #44, .T. ) ;
#125 = EDGE_CURVE ( 'NONE', #75, #123, #317, .T. ) ;
#126 = APPLICATION_CONTEXT ( 'automotive_design' ) ;
#127 = CARTESIAN_POINT ( 'NONE',  ( 0.0000000000000000000, 0.0000000000000000000, 2.834646000000000665 ) ) ;
#128 =( CONVERSION_BASED_UNIT ( 'INCH', #150 ) LENGTH_UNIT ( ) NAMED_UNIT ( #83 ) );
#129 = DIRECTION ( 'NONE',  ( -0.0000000000000000000, -0.0000000000000000000, -1.000000000000000000 ) ) ;
#130 = DIRECTION ( 'NONE',  ( -1.000000000000000000, 0.0000000000000000000, 0.0000000000000000000 ) ) ;
#131 = AXIS2_PLACEMENT_3D ( 'NONE', #220, #78, #321 ) ;
#132 = DIRECTION ( 'NONE',  ( 1.000000000000000000, 0.0000000000000000000, 0.0000000000000000000 ) ) ;
#133 = DIMENSIONAL_EXPONENTS ( 1.000000000000000000, 0.0000000000000000000, 0.0000000000000000000, 0.0000000000000000000, 0.0000000000000000000, 0.0000000000000000000, 0.0000000000000000000 ) ;
#134 = FACE_OUTER_BOUND ( 'NONE', #302, .T. ) ;
#135 = MECHANICAL_DESIGN_GEOMETRIC_PRESENTATION_REPRESENTATION (  '', ( #21 ), #98 ) ;
#136 = DIRECTION ( 'NONE',  ( -0.0000000000000000000, -0.0000000000000000000, -1.000000000000000000 ) ) ;
#137 = FACE_OUTER_BOUND ( 'NONE', #241, .T. ) ;
#138 = DIRECTION ( 'NONE',  ( -1.000000000000000000, 0.0000000000000000000, 0.0000000000000000000 ) ) ;
#139 = CARTESIAN_POINT ( 'NONE',  ( -0.1968504999999999838, 0.0000000000000000000, 0.9842519999999999047 ) ) ;
#140 = AXIS2_PLACEMENT_3D ( 'NONE', #50, #225, #203 ) ;
#141 = PRODUCT_DEFINITION_CONTEXT ( 'detailed design', #13, 'design' ) ;
#142 = ORIENTED_EDGE ( 'NONE', *, *, #106, .F. ) ;
#143 = ORIENTED_EDGE ( 'NONE', *, *, #301, .T. ) ;
#144 = CARTESIAN_POINT ( 'NONE',  ( 0.0000000000000000000, 0.0000000000000000000, 0.0000000000000000000 ) ) ;
#145 = EDGE_LOOP ( 'NONE', ( #3, #222, #207, #324 ) ) ;
#146 = AXIS2_PLACEMENT_3D ( 'NONE', #243, #288, #170 ) ;
#147 = CARTESIAN_POINT ( 'NONE',  ( 0.1968504999999999838, 2.410723347355560646E-17, 2.819646000000000097 ) ) ;
#148 = FACE_OUTER_BOUND ( 'NONE', #168, .T. ) ;
#149 = ORIENTED_EDGE ( 'NONE', *, *, #158, .T. ) ;
#150 = LENGTH_MEASURE_WITH_UNIT ( LENGTH_MEASURE( 0.02539999999999999897 ), #22 );
#151 = EDGE_LOOP ( 'NONE', ( #142, #19, #266, #209 ) ) ;
#152 = AXIS2_PLACEMENT_3D ( 'NONE', #127, #323, #107 ) ;
#153 =( NAMED_UNIT ( * ) SI_UNIT ( $, .STERADIAN. ) SOLID_ANGLE_UNIT ( ) );
#154 = CARTESIAN_POINT ( 'NONE',  ( 0.0000000000000000000, 0.0000000000000000000, 2.834646000000000665 ) ) ;
#155 = AXIS2_PLACEMENT_3D ( 'NONE', #182, #51, #272 ) ;
#156 = ADVANCED_FACE ( 'NONE', ( #45 ), #108, .T. ) ;
#157 = SURFACE_SIDE_STYLE ('',( #86 ) ) ;
#158 = EDGE_CURVE ( 'NONE', #7, #295, #52, .T. ) ;
#159 = PRESENTATION_LAYER_ASSIGNMENT (  '', '', ( #21 ) ) ;
#160 = ORIENTED_EDGE ( 'NONE', *, *, #164, .T. ) ;
#161 = PLANE ( 'NONE',  #46 ) ;
#162 = CARTESIAN_POINT ( 'NONE',  ( 0.0000000000000000000, 0.0000000000000000000, 0.9842519999999999047 ) ) ;
#163 = EDGE_LOOP ( 'NONE', ( #311, #16, #85, #185 ) ) ;
#164 = EDGE_CURVE ( 'NONE', #165, #118, #205, .T. ) ;
#165 = VERTEX_POINT ( 'NONE', #181 ) ;
#166 = FACE_OUTER_BOUND ( 'NONE', #94, .T. ) ;
#167 = AXIS2_PLACEMENT_3D ( 'NONE', #327, #201, #130 ) ;
#168 = EDGE_LOOP ( 'NONE', ( #53, #195, #247, #29 ) ) ;
#169 = EDGE_LOOP ( 'NONE', ( #270, #229 ) ) ;
#170 = DIRECTION ( 'NONE',  ( 1.000000000000000000, 0.0000000000000000000, 0.0000000000000000000 ) ) ;
#171 = ORIENTED_EDGE ( 'NONE', *, *, #267, .F. ) ;
#172 = VERTEX_POINT ( 'NONE', #103 ) ;
#173 = CARTESIAN_POINT ( 'NONE',  ( 0.007499999999999999722, 0.0000000000000000000, 1.707404996040164512E-17 ) ) ;
#174 = FACE_OUTER_BOUND ( 'NONE', #151, .T. ) ;
#175 = CIRCLE ( 'NONE', #122, 0.1818505000000002481 ) ;
#176 = ADVANCED_FACE ( 'NONE', ( #148 ), #198, .T. ) ;
#177 = ORIENTED_EDGE ( 'NONE', *, *, #267, .T. ) ;
#178 = DIRECTION ( 'NONE',  ( -0.7071067811865354713, 0.0000000000000000000, -0.7071067811865594521 ) ) ;
#179 = CLOSED_SHELL ( 'NONE', ( #314, #72, #97, #176, #124, #156, #204, #242, #10, #36, #277 ) ) ;
#180 = AXIS2_PLACEMENT_3D ( 'NONE', #206, #60, #257 ) ;
#181 = CARTESIAN_POINT ( 'NONE',  ( 0.1968504999999999838, 2.410723347355560646E-17, 0.9842519999999999047 ) ) ;
#182 = CARTESIAN_POINT ( 'NONE',  ( 0.0000000000000000000, 0.0000000000000000000, 0.0000000000000000000 ) ) ;
#183 = FACE_OUTER_BOUND ( 'NONE', #71, .T. ) ;
#184 = DIRECTION ( 'NONE',  ( 0.0000000000000000000, 0.0000000000000000000, 1.000000000000000000 ) ) ;
#185 = ORIENTED_EDGE ( 'NONE', *, *, #164, .F. ) ;
#186 = EDGE_CURVE ( 'NONE', #27, #279, #329, .T. ) ;
#187 = ORIENTED_EDGE ( 'NONE', *, *, #32, .T. ) ;
#188 = CARTESIAN_POINT ( 'NONE',  ( -0.1968005000000000448, 2.410111023955988080E-17, 0.1092926946327301002 ) ) ;
#189 = DIRECTION ( 'NONE',  ( 1.000000000000000000, 0.0000000000000000000, 0.0000000000000000000 ) ) ;
#190 = DIRECTION ( 'NONE',  ( -1.000000000000000000, 0.0000000000000000000, 0.0000000000000000000 ) ) ;
#191 = PLANE ( 'NONE',  #96 ) ;
#192 = ORIENTED_EDGE ( 'NONE', *, *, #301, .F. ) ;
#193 = CYLINDRICAL_SURFACE ( 'NONE', #297, 0.1968005000000001281 ) ;
#194 = VECTOR ( 'NONE', #56, 39.37007874015748143 ) ;
#195 = ORIENTED_EDGE ( 'NONE', *, *, #294, .T. ) ;
#196 = ORIENTED_EDGE ( 'NONE', *, *, #66, .F. ) ;
#197 = FACE_OUTER_BOUND ( 'NONE', #163, .T. ) ;
#198 = CYLINDRICAL_SURFACE ( 'NONE', #152, 0.1968504999999999838 ) ;
#199 = PRODUCT_DEFINITION_FORMATION_WITH_SPECIFIED_SOURCE ( 'ANY', '', #265, .NOT_KNOWN. ) ;
#200 = CARTESIAN_POINT ( 'NONE',  ( 0.1968005000000001836, 0.0000000000000000000, 0.9842519999999999047 ) ) ;
#201 = DIRECTION ( 'NONE',  ( -0.0000000000000000000, -0.0000000000000000000, -1.000000000000000000 ) ) ;
#202 = CIRCLE ( 'NONE', #232, 0.1968005000000000171 ) ;
#203 = DIRECTION ( 'NONE',  ( -1.000000000000000000, 0.0000000000000000000, 0.0000000000000000000 ) ) ;
#204 = ADVANCED_FACE ( 'NONE', ( #273 ), #114, .T. ) ;
#205 = CIRCLE ( 'NONE', #211, 0.1968504999999999838 ) ;
#206 = CARTESIAN_POINT ( 'NONE',  ( 0.0000000000000000000, 0.0000000000000000000, 2.819646000000000097 ) ) ;
#207 = ORIENTED_EDGE ( 'NONE', *, *, #260, .F. ) ;
#208 = EDGE_CURVE ( 'NONE', #118, #165, #291, .T. ) ;
#209 = ORIENTED_EDGE ( 'NONE', *, *, #87, .F. ) ;
#210 = CARTESIAN_POINT ( 'NONE',  ( 0.0000000000000000000, 0.0000000000000000000, 0.1092926946327301002 ) ) ;
#211 = AXIS2_PLACEMENT_3D ( 'NONE', #23, #129, #74 ) ;
#212 = UNCERTAINTY_MEASURE_WITH_UNIT (LENGTH_MEASURE( 1.000000000000000082E-05 ), #328, 'distance_accuracy_value', 'NONE');
#213 = CARTESIAN_POINT ( 'NONE',  ( 0.1968005000000002114, 2.410111023955989620E-17, 0.9842519999999999047 ) ) ;
#214 = PRODUCT_RELATED_PRODUCT_CATEGORY ( 'part', '', ( #265 ) ) ;
#215 = ORIENTED_EDGE ( 'NONE', *, *, #278, .F. ) ;
#216 = VECTOR ( 'NONE', #136, 39.37007874015748143 ) ;
#217 = DIRECTION ( 'NONE',  ( 0.8660254037844400399, 0.0000000000000000000, 0.4999999999999976685 ) ) ;
#218 = FILL_AREA_STYLE_COLOUR ( '', #47 ) ;
#219 = EDGE_CURVE ( 'NONE', #75, #7, #112, .T. ) ;
#220 = CARTESIAN_POINT ( 'NONE',  ( 0.0000000000000000000, 0.0000000000000000000, 0.1092926946327301002 ) ) ;
#221 = VECTOR ( 'NONE', #217, 39.37007874015748143 ) ;
#222 = ORIENTED_EDGE ( 'NONE', *, *, #219, .T. ) ;
#223 =( NAMED_UNIT ( * ) SI_UNIT ( $, .STERADIAN. ) SOLID_ANGLE_UNIT ( ) );
#224 = PRESENTATION_STYLE_ASSIGNMENT (( #113 ) ) ;
#225 = DIRECTION ( 'NONE',  ( 0.0000000000000000000, 0.0000000000000000000, -1.000000000000000000 ) ) ;
#226 = DIRECTION ( 'NONE',  ( -1.000000000000000000, 0.0000000000000000000, 0.0000000000000000000 ) ) ;
#227 = ADVANCED_BREP_SHAPE_REPRESENTATION ( 'Micro_DMM-100-2120', ( #316, #155 ), #240 ) ;
#228 = CARTESIAN_POINT ( 'NONE',  ( 0.0000000000000000000, 0.0000000000000000000, 1.707404996040164512E-17 ) ) ;
#229 = ORIENTED_EDGE ( 'NONE', *, *, #125, .F. ) ;
#230 = ORIENTED_EDGE ( 'NONE', *, *, #106, .T. ) ;
#231 = FACE_BOUND ( 'NONE', #169, .T. ) ;
#232 = AXIS2_PLACEMENT_3D ( 'NONE', #210, #8, #190 ) ;
#233 = DIMENSIONAL_EXPONENTS ( 1.000000000000000000, 0.0000000000000000000, 0.0000000000000000000, 0.0000000000000000000, 0.0000000000000000000, 0.0000000000000000000, 0.0000000000000000000 ) ;
#234 = AXIS2_PLACEMENT_3D ( 'NONE', #144, #14, #284 ) ;
#235 = CARTESIAN_POINT ( 'NONE',  ( 0.1968504999999999838, 2.410723347355560646E-17, 2.834646000000000665 ) ) ;
#236 = CARTESIAN_POINT ( 'NONE',  ( 0.1968005000000001281, 2.410111023955988388E-17, 0.0000000000000000000 ) ) ;
#237 = COLOUR_RGB ( '',0.7921568627450980005, 0.8196078431372548767, 0.9333333333333333481 ) ;
#238 = VERTEX_POINT ( 'NONE', #81 ) ;
#239 = EDGE_CURVE ( 'NONE', #238, #295, #307, .T. ) ;
#240 =( GEOMETRIC_REPRESENTATION_CONTEXT ( 3 ) GLOBAL_UNCERTAINTY_ASSIGNED_CONTEXT ( ( #212 ) ) GLOBAL_UNIT_ASSIGNED_CONTEXT ( ( #328, #326, #153 ) ) REPRESENTATION_CONTEXT ( 'NONE', 'WORKASPACE' ) );
#241 = EDGE_LOOP ( 'NONE', ( #143, #230 ) ) ;
#242 = ADVANCED_FACE ( 'NONE', ( #231, #183 ), #161, .T. ) ;
#243 = CARTESIAN_POINT ( 'NONE',  ( 0.0000000000000000000, 0.0000000000000000000, 1.707404996040164512E-17 ) ) ;
#244 = CARTESIAN_POINT ( 'NONE',  ( -0.1968005000000001836, 0.0000000000000000000, 0.9842519999999999047 ) ) ;
#245 = AXIS2_PLACEMENT_3D ( 'NONE', #280, #6, #189 ) ;
#246 = PRODUCT_CONTEXT ( 'NONE', #126, 'mechanical' ) ;
#247 = ORIENTED_EDGE ( 'NONE', *, *, #208, .F. ) ;
#248 = PRESENTATION_STYLE_ASSIGNMENT (( #255 ) ) ;
#249 = DIRECTION ( 'NONE',  ( 0.0000000000000000000, 0.0000000000000000000, 1.000000000000000000 ) ) ;
#250 = VECTOR ( 'NONE', #109, 39.37007874015748143 ) ;
#251 = DIRECTION ( 'NONE',  ( -1.000000000000000000, 0.0000000000000000000, 0.0000000000000000000 ) ) ;
#252 = UNCERTAINTY_MEASURE_WITH_UNIT (LENGTH_MEASURE( 1.000000000000000082E-05 ), #128, 'distance_accuracy_value', 'NONE');
#253 = ORIENTED_EDGE ( 'NONE', *, *, #76, .F. ) ;
#254 = CARTESIAN_POINT ( 'NONE',  ( -0.1968005000000001281, 0.0000000000000000000, 0.0000000000000000000 ) ) ;
#255 = SURFACE_STYLE_USAGE ( .BOTH. , #100 ) ;
#256 = AXIS2_PLACEMENT_3D ( 'NONE', #162, #95, #286 ) ;
#257 = DIRECTION ( 'NONE',  ( 1.000000000000000000, 0.0000000000000000000, 0.0000000000000000000 ) ) ;
#258 = DIRECTION ( 'NONE',  ( -0.0000000000000000000, -0.0000000000000000000, -1.000000000000000000 ) ) ;
#259 = CARTESIAN_POINT ( 'NONE',  ( -0.1968504999999999838, 0.0000000000000000000, 2.834646000000000665 ) ) ;
#260 = EDGE_CURVE ( 'NONE', #295, #7, #202, .T. ) ;
#261 = FILL_AREA_STYLE ('',( #9 ) ) ;
#262 = AXIS2_PLACEMENT_3D ( 'NONE', #99, #258, #34 ) ;
#263 = DIRECTION ( 'NONE',  ( 0.0000000000000000000, 0.0000000000000000000, -1.000000000000000000 ) ) ;
#264 = ORIENTED_EDGE ( 'NONE', *, *, #59, .T. ) ;
#265 = PRODUCT ( 'Micro_DMM-100-2120', 'Micro_DMM-100-2120', '', ( #246 ) ) ;
#266 = ORIENTED_EDGE ( 'NONE', *, *, #260, .T. ) ;
#267 = EDGE_CURVE ( 'NONE', #172, #322, #119, .T. ) ;
#268 = DIRECTION ( 'NONE',  ( -1.000000000000000000, 0.0000000000000000000, 0.0000000000000000000 ) ) ;
#269 = EDGE_LOOP ( 'NONE', ( #253, #177, #215, #65 ) ) ;
#270 = ORIENTED_EDGE ( 'NONE', *, *, #287, .F. ) ;
#271 = AXIS2_PLACEMENT_3D ( 'NONE', #281, #38, #290 ) ;
#272 = DIRECTION ( 'NONE',  ( 1.000000000000000000, 0.0000000000000000000, 0.0000000000000000000 ) ) ;
#273 = FACE_OUTER_BOUND ( 'NONE', #285, .T. ) ;
#274 = CIRCLE ( 'NONE', #180, 0.1968504999999999838 ) ;
#275 = LENGTH_MEASURE_WITH_UNIT ( LENGTH_MEASURE( 0.02539999999999999897 ), #41 );
#276 = PRESENTATION_LAYER_ASSIGNMENT (  '', '', ( #104 ) ) ;
#277 = ADVANCED_FACE ( 'NONE', ( #137 ), #191, .F. ) ;
#278 = EDGE_CURVE ( 'NONE', #279, #322, #274, .T. ) ;
#279 = VERTEX_POINT ( 'NONE', #33 ) ;
#280 = CARTESIAN_POINT ( 'NONE',  ( 0.0000000000000000000, 0.0000000000000000000, 2.819646000000000097 ) ) ;
#281 = CARTESIAN_POINT ( 'NONE',  ( 0.0000000000000000000, 0.0000000000000000000, 1.707404996040164512E-17 ) ) ;
#282 = DIRECTION ( 'NONE',  ( -0.0000000000000000000, -0.0000000000000000000, -1.000000000000000000 ) ) ;
#283 = DIRECTION ( 'NONE',  ( 1.000000000000000000, 0.0000000000000000000, -0.0000000000000000000 ) ) ;
#284 = DIRECTION ( 'NONE',  ( -1.000000000000000000, 0.0000000000000000000, 0.0000000000000000000 ) ) ;
#285 = EDGE_LOOP ( 'NONE', ( #171, #309, #55, #196 ) ) ;
#286 = DIRECTION ( 'NONE',  ( -1.000000000000000000, 0.0000000000000000000, 0.0000000000000000000 ) ) ;
#287 = EDGE_CURVE ( 'NONE', #123, #75, #31, .T. ) ;
#288 = DIRECTION ( 'NONE',  ( 0.0000000000000000000, 0.0000000000000000000, 1.000000000000000000 ) ) ;
#289 = SURFACE_STYLE_FILL_AREA ( #261 ) ;
#290 = DIRECTION ( 'NONE',  ( -1.000000000000000000, 0.0000000000000000000, 0.0000000000000000000 ) ) ;
#291 = CIRCLE ( 'NONE', #2, 0.1968504999999999838 ) ;
#292 = ORIENTED_EDGE ( 'NONE', *, *, #219, .F. ) ;
#293 =( GEOMETRIC_REPRESENTATION_CONTEXT ( 3 ) GLOBAL_UNCERTAINTY_ASSIGNED_CONTEXT ( ( #115 ) ) GLOBAL_UNIT_ASSIGNED_CONTEXT ( ( #111, #89, #223 ) ) REPRESENTATION_CONTEXT ( 'NONE', 'WORKASPACE' ) );
#294 = EDGE_CURVE ( 'NONE', #322, #165, #91, .T. ) ;
#295 = VERTEX_POINT ( 'NONE', #188 ) ;
#296 =( NAMED_UNIT ( * ) PLANE_ANGLE_UNIT ( ) SI_UNIT ( $, .RADIAN. ) );
#297 = AXIS2_PLACEMENT_3D ( 'NONE', #40, #282, #226 ) ;
#298 = DIRECTION ( 'NONE',  ( 1.000000000000000000, 0.0000000000000000000, -0.0000000000000000000 ) ) ;
#299 = CONICAL_SURFACE ( 'NONE', #88, 0.1818505000000002481, 0.7853981633974312926 ) ;
#300 = LINE ( 'NONE', #173, #221 ) ;
#301 = EDGE_CURVE ( 'NONE', #318, #238, #58, .T. ) ;
#302 = EDGE_LOOP ( 'NONE', ( #68, #192, #62, #149 ) ) ;
#303 = CARTESIAN_POINT ( 'NONE',  ( -0.1818505000000002481, 0.0000000000000000000, 2.834646000000000665 ) ) ;
#304 = VECTOR ( 'NONE', #4, 39.37007874015748143 ) ;
#305 = APPLICATION_PROTOCOL_DEFINITION ( 'draft international standard', 'automotive_design', 1998, #126 ) ;
#306 = AXIS2_PLACEMENT_3D ( 'NONE', #18, #101, #268 ) ;
#307 = LINE ( 'NONE', #49, #194 ) ;
#308 = CARTESIAN_POINT ( 'NONE',  ( 0.1968005000000000448, 0.0000000000000000000, 0.1092926946327301002 ) ) ;
#309 = ORIENTED_EDGE ( 'NONE', *, *, #32, .F. ) ;
#310 = DIRECTION ( 'NONE',  ( 0.7071067811865354713, 8.659560562354783714E-17, -0.7071067811865594521 ) ) ;
#311 = ORIENTED_EDGE ( 'NONE', *, *, #294, .F. ) ;
#312 = CIRCLE ( 'NONE', #121, 0.1818505000000002481 ) ;
#313 = DIRECTION ( 'NONE',  ( 0.0000000000000000000, 0.0000000000000000000, 1.000000000000000000 ) ) ;
#314 = ADVANCED_FACE ( 'NONE', ( #61 ), #120, .T. ) ;
#315 = DIRECTION ( 'NONE',  ( 0.0000000000000000000, 0.0000000000000000000, 1.000000000000000000 ) ) ;
#316 = MANIFOLD_SOLID_BREP ( 'Cut-Revolve4', #179 ) ;
#317 = CIRCLE ( 'NONE', #306, 0.1968005000000001836 ) ;
#318 = VERTEX_POINT ( 'NONE', #48 ) ;
#319 = DIRECTION ( 'NONE',  ( -1.000000000000000000, 0.0000000000000000000, 0.0000000000000000000 ) ) ;
#320 = FILL_AREA_STYLE ('',( #218 ) ) ;
#321 = DIRECTION ( 'NONE',  ( -1.000000000000000000, 0.0000000000000000000, 0.0000000000000000000 ) ) ;
#322 = VERTEX_POINT ( 'NONE', #147 ) ;
#323 = DIRECTION ( 'NONE',  ( -0.0000000000000000000, -0.0000000000000000000, -1.000000000000000000 ) ) ;
#324 = ORIENTED_EDGE ( 'NONE', *, *, #59, .F. ) ;
#325 = SHAPE_DEFINITION_REPRESENTATION ( #15, #227 ) ;
#326 =( NAMED_UNIT ( * ) PLANE_ANGLE_UNIT ( ) SI_UNIT ( $, .RADIAN. ) );
#327 = CARTESIAN_POINT ( 'NONE',  ( 0.0000000000000000000, 0.0000000000000000000, 2.834646000000000665 ) ) ;
#328 =( CONVERSION_BASED_UNIT ( 'INCH', #275 ) LENGTH_UNIT ( ) NAMED_UNIT ( #233 ) );
#329 = LINE ( 'NONE', #303, #102 ) ;
ENDSEC;
END-ISO-10303-21;
