ISO-10303-21;
HEADER;
FILE_DESCRIPTION (( 'STEP AP214' ),
    '1' );
FILE_NAME ('Micro_SD-375.STEP',
    '2021-09-02T13:23:42',
    ( '' ),
    ( '' ),
    'SwSTEP 2.0',
    'SolidWorks 2020',
    '' );
FILE_SCHEMA (( 'AUTOMOTIVE_DESIGN' ));
ENDSEC;

DATA;
#1 = CONICAL_SURFACE ( 'NONE', #85, 65.52281426576882950, 1.029744258676657198 ) ;
#2 = CARTESIAN_POINT ( 'NONE',  ( -0.1875000000000000278, 0.0000000000000000000, 1.068049999999999944 ) ) ;
#3 = CONICAL_SURFACE ( 'NONE', #152, 0.1724999999999995981, 0.7853981633974357335 ) ;
#4 = FACE_OUTER_BOUND ( 'NONE', #112, .T. ) ;
#5 = EDGE_CURVE ( 'NONE', #99, #315, #46, .T. ) ;
#6 = ORIENTED_EDGE ( 'NONE', *, *, #5, .F. ) ;
#7 = EDGE_CURVE ( 'NONE', #222, #13, #168, .T. ) ;
#8 = CARTESIAN_POINT ( 'NONE',  ( 0.0000000000000000000, 0.0000000000000000000, 39.37007874015748143 ) ) ;
#9 = UNCERTAINTY_MEASURE_WITH_UNIT (LENGTH_MEASURE( 1.000000000000000082E-05 ), #208, 'distance_accuracy_value', 'NONE');
#10 = AXIS2_PLACEMENT_3D ( 'NONE', #194, #94, #290 ) ;
#11 = CONICAL_SURFACE ( 'NONE', #215, 0.1874500000000001165, 0.7853981633974491672 ) ;
#12 = SURFACE_STYLE_FILL_AREA ( #233 ) ;
#13 = VERTEX_POINT ( 'NONE', #218 ) ;
#14 = VERTEX_POINT ( 'NONE', #43 ) ;
#15 = DIRECTION ( 'NONE',  ( -0.0000000000000000000, -0.0000000000000000000, -1.000000000000000000 ) ) ;
#16 = DIRECTION ( 'NONE',  ( 1.000000000000000000, 0.0000000000000000000, 0.0000000000000000000 ) ) ;
#17 =( NAMED_UNIT ( * ) PLANE_ANGLE_UNIT ( ) SI_UNIT ( $, .RADIAN. ) );
#18 = ORIENTED_EDGE ( 'NONE', *, *, #304, .T. ) ;
#19 = EDGE_CURVE ( 'NONE', #99, #148, #227, .T. ) ;
#20 = DIRECTION ( 'NONE',  ( 0.0000000000000000000, 0.0000000000000000000, 1.000000000000000000 ) ) ;
#21 = DIRECTION ( 'NONE',  ( 1.000000000000000000, 0.0000000000000000000, 0.0000000000000000000 ) ) ;
#22 = CARTESIAN_POINT ( 'NONE',  ( 0.0000000000000000000, 0.0000000000000000000, 1.068000000000000060 ) ) ;
#23 = CARTESIAN_POINT ( 'NONE',  ( -0.1874500000000001165, 2.295600425001714852E-17, 1.068000000000000060 ) ) ;
#24 = CIRCLE ( 'NONE', #248, 0.1874500000000000055 ) ;
#25 = EDGE_CURVE ( 'NONE', #276, #14, #126, .T. ) ;
#26 = FILL_AREA_STYLE ('',( #285 ) ) ;
#27 = EDGE_CURVE ( 'NONE', #222, #111, #42, .T. ) ;
#28 = CARTESIAN_POINT ( 'NONE',  ( 0.1724999999999995981, 2.204364238465233357E-17, 2.500000000000000000 ) ) ;
#29 = PRESENTATION_LAYER_ASSIGNMENT (  '', '', ( #49 ) ) ;
#30 = AXIS2_PLACEMENT_3D ( 'NONE', #320, #71, #203 ) ;
#31 = ORIENTED_EDGE ( 'NONE', *, *, #58, .F. ) ;
#32 = DIRECTION ( 'NONE',  ( 1.000000000000000000, 0.0000000000000000000, 0.0000000000000000000 ) ) ;
#33 = PRODUCT_DEFINITION_CONTEXT ( 'detailed design', #274, 'design' ) ;
#34 = LINE ( 'NONE', #259, #195 ) ;
#35 = DIRECTION ( 'NONE',  ( -0.0000000000000000000, -0.0000000000000000000, -1.000000000000000000 ) ) ;
#36 = CONICAL_SURFACE ( 'NONE', #277, 65.52281426576882950, 1.029744258676657198 ) ;
#37 = ORIENTED_EDGE ( 'NONE', *, *, #261, .F. ) ;
#38 = ORIENTED_EDGE ( 'NONE', *, *, #322, .F. ) ;
#39 = DIRECTION ( 'NONE',  ( 1.000000000000000000, 0.0000000000000000000, -0.0000000000000000000 ) ) ;
#40 = ADVANCED_FACE ( 'NONE', ( #192 ), #281, .T. ) ;
#41 = CONICAL_SURFACE ( 'NONE', #165, 0.1874500000000001165, 0.7853981633974491672 ) ;
#42 = CIRCLE ( 'NONE', #10, 0.1724999999999995981 ) ;
#43 = CARTESIAN_POINT ( 'NONE',  ( 0.1875000000000000278, 2.296212748401287726E-17, 1.068049999999999944 ) ) ;
#44 = CARTESIAN_POINT ( 'NONE',  ( 0.0000000000000000000, 0.0000000000000000000, 2.500000000000000000 ) ) ;
#45 = ORIENTED_EDGE ( 'NONE', *, *, #304, .F. ) ;
#46 = LINE ( 'NONE', #263, #147 ) ;
#47 = CARTESIAN_POINT ( 'NONE',  ( 0.0000000000000000000, 0.0000000000000000000, 0.0000000000000000000 ) ) ;
#48 = ADVANCED_FACE ( 'NONE', ( #243 ), #41, .T. ) ;
#49 = STYLED_ITEM ( 'NONE', ( #278 ), #182 ) ;
#50 = PRODUCT_DEFINITION_FORMATION_WITH_SPECIFIED_SOURCE ( 'ANY', '', #265, .NOT_KNOWN. ) ;
#51 = UNCERTAINTY_MEASURE_WITH_UNIT (LENGTH_MEASURE( 1.000000000000000082E-05 ), #232, 'distance_accuracy_value', 'NONE');
#52 = EDGE_LOOP ( 'NONE', ( #100, #306, #56, #59 ) ) ;
#53 = ADVANCED_FACE ( 'NONE', ( #173 ), #1, .T. ) ;
#54 = DIRECTION ( 'NONE',  ( 1.000000000000000000, 0.0000000000000000000, 0.0000000000000000000 ) ) ;
#55 = EDGE_CURVE ( 'NONE', #283, #181, #124, .T. ) ;
#56 = ORIENTED_EDGE ( 'NONE', *, *, #105, .F. ) ;
#57 = SURFACE_STYLE_USAGE ( .BOTH. , #83 ) ;
#58 = EDGE_CURVE ( 'NONE', #111, #222, #271, .T. ) ;
#59 = ORIENTED_EDGE ( 'NONE', *, *, #62, .F. ) ;
#60 = CARTESIAN_POINT ( 'NONE',  ( 0.1874500000000001165, 0.0000000000000000000, 1.068000000000000060 ) ) ;
#61 = EDGE_LOOP ( 'NONE', ( #37, #308, #82, #185 ) ) ;
#62 = EDGE_CURVE ( 'NONE', #148, #181, #223, .T. ) ;
#63 = DIRECTION ( 'NONE',  ( -1.000000000000000000, 0.0000000000000000000, 0.0000000000000000000 ) ) ;
#64 = CARTESIAN_POINT ( 'NONE',  ( 0.0000000000000000000, 0.0000000000000000000, 2.500000000000000000 ) ) ;
#65 =( CONVERSION_BASED_UNIT ( 'INCH', #287 ) LENGTH_UNIT ( ) NAMED_UNIT ( #91 ) );
#66 = EDGE_CURVE ( 'NONE', #150, #13, #302, .T. ) ;
#67 = AXIS2_PLACEMENT_3D ( 'NONE', #284, #117, #216 ) ;
#68 = DIRECTION ( 'NONE',  ( -1.000000000000000000, 0.0000000000000000000, 0.0000000000000000000 ) ) ;
#69 = DIRECTION ( 'NONE',  ( 1.000000000000000000, 0.0000000000000000000, 0.0000000000000000000 ) ) ;
#70 = ORIENTED_EDGE ( 'NONE', *, *, #204, .T. ) ;
#71 = DIRECTION ( 'NONE',  ( -0.0000000000000000000, -0.0000000000000000000, -1.000000000000000000 ) ) ;
#72 = DIRECTION ( 'NONE',  ( 0.0000000000000000000, 0.0000000000000000000, 1.000000000000000000 ) ) ;
#73 = AXIS2_PLACEMENT_3D ( 'NONE', #295, #272, #146 ) ;
#74 = FACE_OUTER_BOUND ( 'NONE', #198, .T. ) ;
#75 = ADVANCED_FACE ( 'NONE', ( #279 ), #3, .T. ) ;
#76 = DIRECTION ( 'NONE',  ( 0.8571673007021137769, 0.0000000000000000000, 0.5150380749100518241 ) ) ;
#77 = ADVANCED_FACE ( 'NONE', ( #167 ), #36, .T. ) ;
#78 = UNCERTAINTY_MEASURE_WITH_UNIT (LENGTH_MEASURE( 1.000000000000000082E-05 ), #65, 'distance_accuracy_value', 'NONE');
#79 = DIRECTION ( 'NONE',  ( 1.000000000000000000, 0.0000000000000000000, 0.0000000000000000000 ) ) ;
#80 = SURFACE_SIDE_STYLE ('',( #133 ) ) ;
#81 = EDGE_CURVE ( 'NONE', #14, #276, #171, .T. ) ;
#82 = ORIENTED_EDGE ( 'NONE', *, *, #25, .T. ) ;
#83 = SURFACE_SIDE_STYLE ('',( #12 ) ) ;
#84 =( NAMED_UNIT ( * ) SI_UNIT ( $, .STERADIAN. ) SOLID_ANGLE_UNIT ( ) );
#85 = AXIS2_PLACEMENT_3D ( 'NONE', #244, #20, #153 ) ;
#86 = DIRECTION ( 'NONE',  ( -0.0000000000000000000, -0.0000000000000000000, -1.000000000000000000 ) ) ;
#87 = DIRECTION ( 'NONE',  ( 0.0000000000000000000, 0.0000000000000000000, -1.000000000000000000 ) ) ;
#88 = ORIENTED_EDGE ( 'NONE', *, *, #66, .T. ) ;
#89 = CARTESIAN_POINT ( 'NONE',  ( 0.0000000000000000000, 0.0000000000000000000, 2.500000000000000000 ) ) ;
#90 = PRODUCT_DEFINITION_SHAPE ( 'NONE', 'NONE',  #196 ) ;
#91 = DIMENSIONAL_EXPONENTS ( 1.000000000000000000, 0.0000000000000000000, 0.0000000000000000000, 0.0000000000000000000, 0.0000000000000000000, 0.0000000000000000000, 0.0000000000000000000 ) ;
#92 = AXIS2_PLACEMENT_3D ( 'NONE', #286, #318, #16 ) ;
#93 = ORIENTED_EDGE ( 'NONE', *, *, #27, .T. ) ;
#94 = DIRECTION ( 'NONE',  ( 0.0000000000000000000, 0.0000000000000000000, 1.000000000000000000 ) ) ;
#95 = CARTESIAN_POINT ( 'NONE',  ( 0.0000000000000000000, 0.0000000000000000000, 0.0000000000000000000 ) ) ;
#96 = EDGE_LOOP ( 'NONE', ( #213, #319, #134 ) ) ;
#97 = VECTOR ( 'NONE', #102, 39.37007874015748143 ) ;
#98 = AXIS2_PLACEMENT_3D ( 'NONE', #154, #125, #39 ) ;
#99 = VERTEX_POINT ( 'NONE', #301 ) ;
#100 = ORIENTED_EDGE ( 'NONE', *, *, #261, .T. ) ;
#101 = DIRECTION ( 'NONE',  ( -0.7071067811865481278, 8.659560562354940254E-17, 0.7071067811865469066 ) ) ;
#102 = DIRECTION ( 'NONE',  ( -0.0000000000000000000, -0.0000000000000000000, -1.000000000000000000 ) ) ;
#103 = CARTESIAN_POINT ( 'NONE',  ( -0.1875000000000000278, 0.0000000000000000000, 2.500000000000000000 ) ) ;
#104 = LINE ( 'NONE', #316, #205 ) ;
#105 = EDGE_CURVE ( 'NONE', #181, #315, #24, .T. ) ;
#106 = CARTESIAN_POINT ( 'NONE',  ( 0.0000000000000000000, 0.0000000000000000000, 0.0000000000000000000 ) ) ;
#107 = ORIENTED_EDGE ( 'NONE', *, *, #25, .F. ) ;
#108 = EDGE_CURVE ( 'NONE', #13, #150, #130, .T. ) ;
#109 = AXIS2_PLACEMENT_3D ( 'NONE', #201, #292, #54 ) ;
#110 = DIRECTION ( 'NONE',  ( -0.0000000000000000000, -0.0000000000000000000, -1.000000000000000000 ) ) ;
#111 = VERTEX_POINT ( 'NONE', #28 ) ;
#112 = EDGE_LOOP ( 'NONE', ( #6, #241, #121, #45 ) ) ;
#113 = CYLINDRICAL_SURFACE ( 'NONE', #273, 0.1875000000000000278 ) ;
#114 = EDGE_LOOP ( 'NONE', ( #38, #260, #220, #199 ) ) ;
#115 = COLOUR_RGB ( '',0.7921568627450980005, 0.8196078431372548767, 0.9333333333333333481 ) ;
#116 = VECTOR ( 'NONE', #264, 39.37007874015748143 ) ;
#117 = DIRECTION ( 'NONE',  ( -0.0000000000000000000, -0.0000000000000000000, -1.000000000000000000 ) ) ;
#118 = CARTESIAN_POINT ( 'NONE',  ( 0.1874500000000000055, 2.295600425001713927E-17, 0.1126313230367154833 ) ) ;
#119 = ORIENTED_EDGE ( 'NONE', *, *, #55, .F. ) ;
#120 = DIMENSIONAL_EXPONENTS ( 1.000000000000000000, 0.0000000000000000000, 0.0000000000000000000, 0.0000000000000000000, 0.0000000000000000000, 0.0000000000000000000, 0.0000000000000000000 ) ;
#121 = ORIENTED_EDGE ( 'NONE', *, *, #62, .T. ) ;
#122 = AXIS2_PLACEMENT_3D ( 'NONE', #64, #288, #68 ) ;
#123 = EDGE_LOOP ( 'NONE', ( #119, #143, #18 ) ) ;
#124 = LINE ( 'NONE', #47, #253 ) ;
#125 = DIRECTION ( 'NONE',  ( 0.0000000000000000000, 0.0000000000000000000, 1.000000000000000000 ) ) ;
#126 = CIRCLE ( 'NONE', #92, 0.1875000000000000278 ) ;
#127 = VECTOR ( 'NONE', #76, 39.37007874015748854 ) ;
#128 = CYLINDRICAL_SURFACE ( 'NONE', #30, 0.1874500000000000610 ) ;
#129 = LENGTH_MEASURE_WITH_UNIT ( LENGTH_MEASURE( 0.02539999999999999897 ), #157 );
#130 = CIRCLE ( 'NONE', #187, 0.1875000000000000278 ) ;
#131 = STYLED_ITEM ( 'NONE', ( #231 ), #236 ) ;
#132 = DIRECTION ( 'NONE',  ( 0.0000000000000000000, 0.0000000000000000000, 1.000000000000000000 ) ) ;
#133 = SURFACE_STYLE_FILL_AREA ( #26 ) ;
#134 = ORIENTED_EDGE ( 'NONE', *, *, #105, .T. ) ;
#135 = CARTESIAN_POINT ( 'NONE',  ( 0.0000000000000000000, 0.0000000000000000000, 2.500000000000000000 ) ) ;
#136 = LENGTH_MEASURE_WITH_UNIT ( LENGTH_MEASURE( 0.02539999999999999897 ), #162 );
#137 = PRODUCT_RELATED_PRODUCT_CATEGORY ( 'part', '', ( #265 ) ) ;
#138 = ORIENTED_EDGE ( 'NONE', *, *, #81, .T. ) ;
#139 = VECTOR ( 'NONE', #305, 39.37007874015748143 ) ;
#140 = CYLINDRICAL_SURFACE ( 'NONE', #214, 0.1874500000000000610 ) ;
#141 = VECTOR ( 'NONE', #101, 39.37007874015748143 ) ;
#142 = EDGE_LOOP ( 'NONE', ( #258, #145, #70, #138 ) ) ;
#143 = ORIENTED_EDGE ( 'NONE', *, *, #300, .T. ) ;
#144 = DIRECTION ( 'NONE',  ( -0.0000000000000000000, -0.0000000000000000000, -1.000000000000000000 ) ) ;
#145 = ORIENTED_EDGE ( 'NONE', *, *, #19, .F. ) ;
#146 = DIRECTION ( 'NONE',  ( -1.000000000000000000, 0.0000000000000000000, 0.0000000000000000000 ) ) ;
#147 = VECTOR ( 'NONE', #291, 39.37007874015748143 ) ;
#148 = VERTEX_POINT ( 'NONE', #307 ) ;
#149 = DIRECTION ( 'NONE',  ( -1.000000000000000000, 0.0000000000000000000, 0.0000000000000000000 ) ) ;
#150 = VERTEX_POINT ( 'NONE', #166 ) ;
#151 = ORIENTED_EDGE ( 'NONE', *, *, #7, .F. ) ;
#152 = AXIS2_PLACEMENT_3D ( 'NONE', #89, #257, #230 ) ;
#153 = DIRECTION ( 'NONE',  ( 1.000000000000000000, 0.0000000000000000000, 0.0000000000000000000 ) ) ;
#154 = CARTESIAN_POINT ( 'NONE',  ( 0.0000000000000000000, 0.0000000000000000000, 2.500000000000000000 ) ) ;
#155 =( GEOMETRIC_REPRESENTATION_CONTEXT ( 3 ) GLOBAL_UNCERTAINTY_ASSIGNED_CONTEXT ( ( #51 ) ) GLOBAL_UNIT_ASSIGNED_CONTEXT ( ( #232, #207, #234 ) ) REPRESENTATION_CONTEXT ( 'NONE', 'WORKASPACE' ) );
#156 = EDGE_CURVE ( 'NONE', #150, #14, #34, .T. ) ;
#157 =( LENGTH_UNIT ( ) NAMED_UNIT ( * ) SI_UNIT ( $, .METRE. ) );
#158 = MECHANICAL_DESIGN_GEOMETRIC_PRESENTATION_REPRESENTATION (  '', ( #49 ), #155 ) ;
#159 = EDGE_LOOP ( 'NONE', ( #298, #266, #107, #238 ) ) ;
#160 = FACE_OUTER_BOUND ( 'NONE', #159, .T. ) ;
#161 = APPLICATION_PROTOCOL_DEFINITION ( 'draft international standard', 'automotive_design', 1998, #274 ) ;
#162 =( LENGTH_UNIT ( ) NAMED_UNIT ( * ) SI_UNIT ( $, .METRE. ) );
#163 = ADVANCED_FACE ( 'NONE', ( #4 ), #140, .T. ) ;
#164 = EDGE_LOOP ( 'NONE', ( #31, #170, #312, #151 ) ) ;
#165 = AXIS2_PLACEMENT_3D ( 'NONE', #172, #269, #69 ) ;
#166 = CARTESIAN_POINT ( 'NONE',  ( 0.1875000000000000278, 2.296212748401287726E-17, 2.484999999999999432 ) ) ;
#167 = FACE_OUTER_BOUND ( 'NONE', #96, .T. ) ;
#168 = LINE ( 'NONE', #235, #202 ) ;
#169 = DIRECTION ( 'NONE',  ( 1.000000000000000000, 0.0000000000000000000, 0.0000000000000000000 ) ) ;
#170 = ORIENTED_EDGE ( 'NONE', *, *, #322, .T. ) ;
#171 = CIRCLE ( 'NONE', #311, 0.1875000000000000278 ) ;
#172 = CARTESIAN_POINT ( 'NONE',  ( 0.0000000000000000000, 0.0000000000000000000, 1.068000000000000060 ) ) ;
#173 = FACE_OUTER_BOUND ( 'NONE', #123, .T. ) ;
#174 = EDGE_LOOP ( 'NONE', ( #93, #211 ) ) ;
#175 = CLOSED_SHELL ( 'NONE', ( #77, #219, #48, #75, #189, #310, #293, #40, #226, #163, #53 ) ) ;
#176 = DIRECTION ( 'NONE',  ( 0.0000000000000000000, 0.0000000000000000000, 1.000000000000000000 ) ) ;
#177 = CARTESIAN_POINT ( 'NONE',  ( 0.0000000000000000000, 0.0000000000000000000, 2.500000000000000000 ) ) ;
#178 = AXIS2_PLACEMENT_3D ( 'NONE', #177, #72, #21 ) ;
#179 = SURFACE_STYLE_USAGE ( .BOTH. , #80 ) ;
#180 =( NAMED_UNIT ( * ) PLANE_ANGLE_UNIT ( ) SI_UNIT ( $, .RADIAN. ) );
#181 = VERTEX_POINT ( 'NONE', #280 ) ;
#182 = MANIFOLD_SOLID_BREP ( 'Cut-Revolve2', #175 ) ;
#183 = FILL_AREA_STYLE_COLOUR ( '', #115 ) ;
#184 = FACE_OUTER_BOUND ( 'NONE', #52, .T. ) ;
#185 = ORIENTED_EDGE ( 'NONE', *, *, #204, .F. ) ;
#186 = CARTESIAN_POINT ( 'NONE',  ( 0.0000000000000000000, 0.0000000000000000000, 1.068049999999999944 ) ) ;
#187 = AXIS2_PLACEMENT_3D ( 'NONE', #255, #87, #210 ) ;
#188 = DIRECTION ( 'NONE',  ( -0.0000000000000000000, -0.0000000000000000000, -1.000000000000000000 ) ) ;
#189 = ADVANCED_FACE ( 'NONE', ( #160 ), #113, .T. ) ;
#190 = DIRECTION ( 'NONE',  ( -0.7071067811865385799, 0.0000000000000000000, -0.7071067811865563435 ) ) ;
#191 = APPLICATION_PROTOCOL_DEFINITION ( 'draft international standard', 'automotive_design', 1998, #245 ) ;
#192 = FACE_OUTER_BOUND ( 'NONE', #114, .T. ) ;
#193 = DIRECTION ( 'NONE',  ( 0.7071067811865385799, 8.659560562354823157E-17, -0.7071067811865563435 ) ) ;
#194 = CARTESIAN_POINT ( 'NONE',  ( 0.0000000000000000000, 0.0000000000000000000, 2.500000000000000000 ) ) ;
#195 = VECTOR ( 'NONE', #188, 39.37007874015748143 ) ;
#196 = PRODUCT_DEFINITION ( 'UNKNOWN', '', #50, #33 ) ;
#197 = CIRCLE ( 'NONE', #73, 0.1874500000000000055 ) ;
#198 = EDGE_LOOP ( 'NONE', ( #229, #88, #317, #270 ) ) ;
#199 = ORIENTED_EDGE ( 'NONE', *, *, #66, .F. ) ;
#200 =( NAMED_UNIT ( * ) SI_UNIT ( $, .STERADIAN. ) SOLID_ANGLE_UNIT ( ) );
#201 = CARTESIAN_POINT ( 'NONE',  ( 0.0000000000000000000, 0.0000000000000000000, 2.484999999999999432 ) ) ;
#202 = VECTOR ( 'NONE', #190, 39.37007874015748854 ) ;
#203 = DIRECTION ( 'NONE',  ( -1.000000000000000000, 0.0000000000000000000, 0.0000000000000000000 ) ) ;
#204 = EDGE_CURVE ( 'NONE', #99, #14, #209, .T. ) ;
#205 = VECTOR ( 'NONE', #193, 39.37007874015748854 ) ;
#206 = DIRECTION ( 'NONE',  ( -1.000000000000000000, 0.0000000000000000000, 0.0000000000000000000 ) ) ;
#207 =( NAMED_UNIT ( * ) PLANE_ANGLE_UNIT ( ) SI_UNIT ( $, .RADIAN. ) );
#208 =( CONVERSION_BASED_UNIT ( 'INCH', #129 ) LENGTH_UNIT ( ) NAMED_UNIT ( #120 ) );
#209 = LINE ( 'NONE', #60, #139 ) ;
#210 = DIRECTION ( 'NONE',  ( 1.000000000000000000, 0.0000000000000000000, 0.0000000000000000000 ) ) ;
#211 = ORIENTED_EDGE ( 'NONE', *, *, #58, .T. ) ;
#212 = DIRECTION ( 'NONE',  ( 1.000000000000000000, 0.0000000000000000000, 0.0000000000000000000 ) ) ;
#213 = ORIENTED_EDGE ( 'NONE', *, *, #300, .F. ) ;
#214 = AXIS2_PLACEMENT_3D ( 'NONE', #106, #86, #206 ) ;
#215 = AXIS2_PLACEMENT_3D ( 'NONE', #247, #176, #169 ) ;
#216 = DIRECTION ( 'NONE',  ( -1.000000000000000000, 0.0000000000000000000, 0.0000000000000000000 ) ) ;
#217 = FACE_OUTER_BOUND ( 'NONE', #142, .T. ) ;
#218 = CARTESIAN_POINT ( 'NONE',  ( -0.1875000000000000278, 0.0000000000000000000, 2.484999999999999432 ) ) ;
#219 = ADVANCED_FACE ( 'NONE', ( #184 ), #128, .T. ) ;
#220 = ORIENTED_EDGE ( 'NONE', *, *, #7, .T. ) ;
#221 =( GEOMETRIC_REPRESENTATION_CONTEXT ( 3 ) GLOBAL_UNCERTAINTY_ASSIGNED_CONTEXT ( ( #78 ) ) GLOBAL_UNIT_ASSIGNED_CONTEXT ( ( #65, #17, #200 ) ) REPRESENTATION_CONTEXT ( 'NONE', 'WORKASPACE' ) );
#222 = VERTEX_POINT ( 'NONE', #262 ) ;
#223 = LINE ( 'NONE', #321, #97 ) ;
#224 = PLANE ( 'NONE',  #98 ) ;
#225 = LINE ( 'NONE', #95, #127 ) ;
#226 = ADVANCED_FACE ( 'NONE', ( #217 ), #11, .T. ) ;
#227 = CIRCLE ( 'NONE', #67, 0.1874500000000001165 ) ;
#228 = DIRECTION ( 'NONE',  ( -1.000000000000000000, 0.0000000000000000000, 0.0000000000000000000 ) ) ;
#229 = ORIENTED_EDGE ( 'NONE', *, *, #156, .F. ) ;
#230 = DIRECTION ( 'NONE',  ( -1.000000000000000000, 0.0000000000000000000, 0.0000000000000000000 ) ) ;
#231 = PRESENTATION_STYLE_ASSIGNMENT (( #179 ) ) ;
#232 =( CONVERSION_BASED_UNIT ( 'INCH', #136 ) LENGTH_UNIT ( ) NAMED_UNIT ( #313 ) );
#233 = FILL_AREA_STYLE ('',( #183 ) ) ;
#234 =( NAMED_UNIT ( * ) SI_UNIT ( $, .STERADIAN. ) SOLID_ANGLE_UNIT ( ) );
#235 = CARTESIAN_POINT ( 'NONE',  ( -0.1724999999999995981, 0.0000000000000000000, 2.500000000000000000 ) ) ;
#236 = ADVANCED_BREP_SHAPE_REPRESENTATION ( 'Micro_SD-375', ( #182, #282 ), #221 ) ;
#237 = EDGE_CURVE ( 'NONE', #13, #276, #323, .T. ) ;
#238 = ORIENTED_EDGE ( 'NONE', *, *, #237, .F. ) ;
#239 = CYLINDRICAL_SURFACE ( 'NONE', #297, 0.1875000000000000278 ) ;
#240 = MECHANICAL_DESIGN_GEOMETRIC_PRESENTATION_REPRESENTATION (  '', ( #131 ), #303 ) ;
#241 = ORIENTED_EDGE ( 'NONE', *, *, #19, .T. ) ;
#242 =( LENGTH_UNIT ( ) NAMED_UNIT ( * ) SI_UNIT ( $, .METRE. ) );
#243 = FACE_OUTER_BOUND ( 'NONE', #61, .T. ) ;
#244 = CARTESIAN_POINT ( 'NONE',  ( 0.0000000000000000000, 0.0000000000000000000, 39.37007874015748143 ) ) ;
#245 = APPLICATION_CONTEXT ( 'automotive_design' ) ;
#246 = DIRECTION ( 'NONE',  ( -0.8571673007021137769, 1.049727191138620298E-16, 0.5150380749100518241 ) ) ;
#247 = CARTESIAN_POINT ( 'NONE',  ( 0.0000000000000000000, 0.0000000000000000000, 1.068000000000000060 ) ) ;
#248 = AXIS2_PLACEMENT_3D ( 'NONE', #299, #35, #228 ) ;
#249 = COLOUR_RGB ( '',0.7921568627450980005, 0.8196078431372548767, 0.9333333333333333481 ) ;
#250 = EDGE_CURVE ( 'NONE', #148, #276, #268, .T. ) ;
#251 = SHAPE_DEFINITION_REPRESENTATION ( #90, #236 ) ;
#252 = CARTESIAN_POINT ( 'NONE',  ( 0.0000000000000000000, 0.0000000000000000000, 0.0000000000000000000 ) ) ;
#253 = VECTOR ( 'NONE', #246, 39.37007874015748854 ) ;
#254 = DIRECTION ( 'NONE',  ( 0.0000000000000000000, 0.0000000000000000000, 1.000000000000000000 ) ) ;
#255 = CARTESIAN_POINT ( 'NONE',  ( 0.0000000000000000000, 0.0000000000000000000, 2.484999999999999432 ) ) ;
#256 = DIRECTION ( 'NONE',  ( -1.000000000000000000, 0.0000000000000000000, 0.0000000000000000000 ) ) ;
#257 = DIRECTION ( 'NONE',  ( 0.0000000000000000000, 0.0000000000000000000, -1.000000000000000000 ) ) ;
#258 = ORIENTED_EDGE ( 'NONE', *, *, #250, .F. ) ;
#259 = CARTESIAN_POINT ( 'NONE',  ( 0.1875000000000000278, 2.296212748401287726E-17, 2.500000000000000000 ) ) ;
#260 = ORIENTED_EDGE ( 'NONE', *, *, #27, .F. ) ;
#261 = EDGE_CURVE ( 'NONE', #148, #99, #267, .T. ) ;
#262 = CARTESIAN_POINT ( 'NONE',  ( -0.1724999999999995981, 0.0000000000000000000, 2.500000000000000000 ) ) ;
#263 = CARTESIAN_POINT ( 'NONE',  ( 0.1874500000000000610, 2.295600425001714235E-17, 0.0000000000000000000 ) ) ;
#264 = DIRECTION ( 'NONE',  ( -0.0000000000000000000, -0.0000000000000000000, -1.000000000000000000 ) ) ;
#265 = PRODUCT ( 'Micro_SD-375', 'Micro_SD-375', '', ( #275 ) ) ;
#266 = ORIENTED_EDGE ( 'NONE', *, *, #156, .T. ) ;
#267 = CIRCLE ( 'NONE', #289, 0.1874500000000001165 ) ;
#268 = LINE ( 'NONE', #23, #141 ) ;
#269 = DIRECTION ( 'NONE',  ( 0.0000000000000000000, 0.0000000000000000000, 1.000000000000000000 ) ) ;
#270 = ORIENTED_EDGE ( 'NONE', *, *, #81, .F. ) ;
#271 = CIRCLE ( 'NONE', #178, 0.1724999999999995981 ) ;
#272 = DIRECTION ( 'NONE',  ( -0.0000000000000000000, -0.0000000000000000000, -1.000000000000000000 ) ) ;
#273 = AXIS2_PLACEMENT_3D ( 'NONE', #135, #110, #256 ) ;
#274 = APPLICATION_CONTEXT ( 'automotive_design' ) ;
#275 = PRODUCT_CONTEXT ( 'NONE', #245, 'mechanical' ) ;
#276 = VERTEX_POINT ( 'NONE', #2 ) ;
#277 = AXIS2_PLACEMENT_3D ( 'NONE', #8, #132, #32 ) ;
#278 = PRESENTATION_STYLE_ASSIGNMENT (( #57 ) ) ;
#279 = FACE_OUTER_BOUND ( 'NONE', #164, .T. ) ;
#280 = CARTESIAN_POINT ( 'NONE',  ( -0.1874500000000000055, 0.0000000000000000000, 0.1126313230367154833 ) ) ;
#281 = CONICAL_SURFACE ( 'NONE', #122, 0.1724999999999995981, 0.7853981633974357335 ) ;
#282 = AXIS2_PLACEMENT_3D ( 'NONE', #252, #254, #79 ) ;
#283 = VERTEX_POINT ( 'NONE', #296 ) ;
#284 = CARTESIAN_POINT ( 'NONE',  ( 0.0000000000000000000, 0.0000000000000000000, 1.068000000000000060 ) ) ;
#285 = FILL_AREA_STYLE_COLOUR ( '', #249 ) ;
#286 = CARTESIAN_POINT ( 'NONE',  ( 0.0000000000000000000, 0.0000000000000000000, 1.068049999999999944 ) ) ;
#287 = LENGTH_MEASURE_WITH_UNIT ( LENGTH_MEASURE( 0.02539999999999999897 ), #242 );
#288 = DIRECTION ( 'NONE',  ( 0.0000000000000000000, 0.0000000000000000000, -1.000000000000000000 ) ) ;
#289 = AXIS2_PLACEMENT_3D ( 'NONE', #22, #15, #63 ) ;
#290 = DIRECTION ( 'NONE',  ( 1.000000000000000000, 0.0000000000000000000, 0.0000000000000000000 ) ) ;
#291 = DIRECTION ( 'NONE',  ( -0.0000000000000000000, -0.0000000000000000000, -1.000000000000000000 ) ) ;
#292 = DIRECTION ( 'NONE',  ( 0.0000000000000000000, 0.0000000000000000000, -1.000000000000000000 ) ) ;
#293 = ADVANCED_FACE ( 'NONE', ( #314 ), #224, .T. ) ;
#294 = PRESENTATION_LAYER_ASSIGNMENT (  '', '', ( #131 ) ) ;
#295 = CARTESIAN_POINT ( 'NONE',  ( 0.0000000000000000000, 0.0000000000000000000, 0.1126313230367154833 ) ) ;
#296 = CARTESIAN_POINT ( 'NONE',  ( 0.0000000000000000000, 0.0000000000000000000, 0.0000000000000000000 ) ) ;
#297 = AXIS2_PLACEMENT_3D ( 'NONE', #44, #144, #149 ) ;
#298 = ORIENTED_EDGE ( 'NONE', *, *, #108, .T. ) ;
#299 = CARTESIAN_POINT ( 'NONE',  ( 0.0000000000000000000, 0.0000000000000000000, 0.1126313230367154833 ) ) ;
#300 = EDGE_CURVE ( 'NONE', #283, #315, #225, .T. ) ;
#301 = CARTESIAN_POINT ( 'NONE',  ( 0.1874500000000001165, 0.0000000000000000000, 1.068000000000000060 ) ) ;
#302 = CIRCLE ( 'NONE', #109, 0.1875000000000000278 ) ;
#303 =( GEOMETRIC_REPRESENTATION_CONTEXT ( 3 ) GLOBAL_UNCERTAINTY_ASSIGNED_CONTEXT ( ( #9 ) ) GLOBAL_UNIT_ASSIGNED_CONTEXT ( ( #208, #180, #84 ) ) REPRESENTATION_CONTEXT ( 'NONE', 'WORKASPACE' ) );
#304 = EDGE_CURVE ( 'NONE', #315, #181, #197, .T. ) ;
#305 = DIRECTION ( 'NONE',  ( 0.7071067811865481278, 0.0000000000000000000, 0.7071067811865469066 ) ) ;
#306 = ORIENTED_EDGE ( 'NONE', *, *, #5, .T. ) ;
#307 = CARTESIAN_POINT ( 'NONE',  ( -0.1874500000000001165, 2.295906586701500980E-17, 1.068000000000000060 ) ) ;
#308 = ORIENTED_EDGE ( 'NONE', *, *, #250, .T. ) ;
#309 = DIRECTION ( 'NONE',  ( -0.0000000000000000000, -0.0000000000000000000, -1.000000000000000000 ) ) ;
#310 = ADVANCED_FACE ( 'NONE', ( #74 ), #239, .T. ) ;
#311 = AXIS2_PLACEMENT_3D ( 'NONE', #186, #309, #212 ) ;
#312 = ORIENTED_EDGE ( 'NONE', *, *, #108, .F. ) ;
#313 = DIMENSIONAL_EXPONENTS ( 1.000000000000000000, 0.0000000000000000000, 0.0000000000000000000, 0.0000000000000000000, 0.0000000000000000000, 0.0000000000000000000, 0.0000000000000000000 ) ;
#314 = FACE_OUTER_BOUND ( 'NONE', #174, .T. ) ;
#315 = VERTEX_POINT ( 'NONE', #118 ) ;
#316 = CARTESIAN_POINT ( 'NONE',  ( 0.1724999999999995981, 2.112515728529179297E-17, 2.500000000000000000 ) ) ;
#317 = ORIENTED_EDGE ( 'NONE', *, *, #237, .T. ) ;
#318 = DIRECTION ( 'NONE',  ( -0.0000000000000000000, -0.0000000000000000000, -1.000000000000000000 ) ) ;
#319 = ORIENTED_EDGE ( 'NONE', *, *, #55, .T. ) ;
#320 = CARTESIAN_POINT ( 'NONE',  ( 0.0000000000000000000, 0.0000000000000000000, 0.0000000000000000000 ) ) ;
#321 = CARTESIAN_POINT ( 'NONE',  ( -0.1874500000000000610, 0.0000000000000000000, 0.0000000000000000000 ) ) ;
#322 = EDGE_CURVE ( 'NONE', #111, #150, #104, .T. ) ;
#323 = LINE ( 'NONE', #103, #116 ) ;
ENDSEC;
END-ISO-10303-21;
