ISO-10303-21;
HEADER;
FILE_DESCRIPTION (( 'STEP AP214' ),
    '1' );
FILE_NAME ('82465.STEP',
    '2023-06-30T22:43:28',
    ( '' ),
    ( '' ),
    'SwSTEP 2.0',
    'SolidWorks 2023',
    '' );
FILE_SCHEMA (( 'AUTOMOTIVE_DESIGN' ));
ENDSEC;

DATA;
#1 = SURFACE_STYLE_USAGE ( .BOTH. , #239 ) ;
#2 =( NAMED_UNIT ( * ) SI_UNIT ( $, .STERADIAN. ) SOLID_ANGLE_UNIT ( ) );
#3 = SURFACE_STYLE_FILL_AREA ( #266 ) ;
#4 = PRESENTATION_LAYER_ASSIGNMENT (  '', '', ( #217 ) ) ;
#5 = PRESENTATION_LAYER_ASSIGNMENT (  '', '', ( #235 ) ) ;
#6 =( CONVERSION_BASED_UNIT ( 'INCH', #264 ) LENGTH_UNIT ( ) NAMED_UNIT ( #223 ) );
#7 = CARTESIAN_POINT ( 'NONE',  ( 0.000000000000000000, 2.500000000000000000, 0.000000000000000000 ) ) ;
#8 = ORIENTED_EDGE ( 'NONE', *, *, #190, .F. ) ;
#9 =( LENGTH_UNIT ( ) NAMED_UNIT ( * ) SI_UNIT ( $, .METRE. ) );
#10 = AXIS2_PLACEMENT_3D ( 'NONE', #299, #144, #294 ) ;
#11 = EDGE_LOOP ( 'NONE', ( #278, #276, #188, #279 ) ) ;
#12 = ADVANCED_FACE ( 'NONE', ( #319 ), #51, .T. ) ;
#13 = SURFACE_SIDE_STYLE ('',( #333 ) ) ;
#14 = ORIENTED_EDGE ( 'NONE', *, *, #353, .F. ) ;
#15 =( GEOMETRIC_REPRESENTATION_CONTEXT ( 3 ) GLOBAL_UNCERTAINTY_ASSIGNED_CONTEXT ( ( #342 ) ) GLOBAL_UNIT_ASSIGNED_CONTEXT ( ( #315, #70, #269 ) ) REPRESENTATION_CONTEXT ( 'NONE', 'WORKASPACE' ) );
#16 = ORIENTED_EDGE ( 'NONE', *, *, #288, .T. ) ;
#17 =( NAMED_UNIT ( * ) SI_UNIT ( $, .STERADIAN. ) SOLID_ANGLE_UNIT ( ) );
#18 = CIRCLE ( 'NONE', #268, 0.2499999999999996947 ) ;
#19 = PRESENTATION_LAYER_ASSIGNMENT (  '', '', ( #183 ) ) ;
#20 = FACE_OUTER_BOUND ( 'NONE', #94, .T. ) ;
#21 = DIRECTION ( 'NONE',  ( -1.000000000000000000, 0.000000000000000000, 0.000000000000000000 ) ) ;
#22 = FACE_OUTER_BOUND ( 'NONE', #36, .T. ) ;
#23 = CARTESIAN_POINT ( 'NONE',  ( -1.224646799147353207E-16, 5.000000000000000000, 0.000000000000000000 ) ) ;
#24 = FILL_AREA_STYLE ('',( #176 ) ) ;
#25 = FILL_AREA_STYLE_COLOUR ( '', #168 ) ;
#26 = PRODUCT_RELATED_PRODUCT_CATEGORY ( 'part', '', ( #228 ) ) ;
#27 = CARTESIAN_POINT ( 'NONE',  ( 0.000000000000000000, 0.2500000000000000000, 0.000000000000000000 ) ) ;
#28 = LINE ( 'NONE', #218, #30 ) ;
#29 = VECTOR ( 'NONE', #170, 39.37007874015748143 ) ;
#30 = VECTOR ( 'NONE', #150, 39.37007874015748143 ) ;
#31 = CLOSED_SHELL ( 'NONE', ( #270, #12, #105, #295, #215 ) ) ;
#32 = AXIS2_PLACEMENT_3D ( 'NONE', #303, #208, #33 ) ;
#33 = DIRECTION ( 'NONE',  ( -1.000000000000000000, 0.000000000000000000, 0.000000000000000000 ) ) ;
#34 =( NAMED_UNIT ( * ) SI_UNIT ( $, .STERADIAN. ) SOLID_ANGLE_UNIT ( ) );
#35 = APPLICATION_CONTEXT ( 'automotive_design' ) ;
#36 = EDGE_LOOP ( 'NONE', ( #42, #244, #248, #273 ) ) ;
#37 = PLANE ( 'NONE',  #189 ) ;
#38 = ORIENTED_EDGE ( 'NONE', *, *, #49, .F. ) ;
#39 = EDGE_CURVE ( 'NONE', #166, #133, #47, .T. ) ;
#40 = COLOUR_RGB ( '',1.000000000000000000, 0.000000000000000000, 0.000000000000000000 ) ;
#41 = ORIENTED_EDGE ( 'NONE', *, *, #185, .T. ) ;
#42 = ORIENTED_EDGE ( 'NONE', *, *, #328, .F. ) ;
#43 = EDGE_LOOP ( 'NONE', ( #338, #16 ) ) ;
#44 =( GEOMETRIC_REPRESENTATION_CONTEXT ( 3 ) GLOBAL_UNCERTAINTY_ASSIGNED_CONTEXT ( ( #85 ) ) GLOBAL_UNIT_ASSIGNED_CONTEXT ( ( #165, #193, #17 ) ) REPRESENTATION_CONTEXT ( 'NONE', 'WORKASPACE' ) );
#45 =( NAMED_UNIT ( * ) SI_UNIT ( $, .STERADIAN. ) SOLID_ANGLE_UNIT ( ) );
#46 = DIMENSIONAL_EXPONENTS ( 1.000000000000000000, 0.000000000000000000, 0.000000000000000000, 0.000000000000000000, 0.000000000000000000, 0.000000000000000000, 0.000000000000000000 ) ;
#47 = LINE ( 'NONE', #76, #29 ) ;
#48 = SURFACE_SIDE_STYLE ('',( #82 ) ) ;
#49 = EDGE_CURVE ( 'NONE', #106, #108, #63, .T. ) ;
#50 =( GEOMETRIC_REPRESENTATION_CONTEXT ( 3 ) GLOBAL_UNCERTAINTY_ASSIGNED_CONTEXT ( ( #293 ) ) GLOBAL_UNIT_ASSIGNED_CONTEXT ( ( #58, #327, #60 ) ) REPRESENTATION_CONTEXT ( 'NONE', 'WORKASPACE' ) );
#51 = CYLINDRICAL_SURFACE ( 'NONE', #301, 0.2499999999999998612 ) ;
#52 = PRESENTATION_LAYER_ASSIGNMENT (  '', '', ( #56 ) ) ;
#53 = FACE_OUTER_BOUND ( 'NONE', #305, .T. ) ;
#54 = PRESENTATION_STYLE_ASSIGNMENT (( #258 ) ) ;
#55 = DIRECTION ( 'NONE',  ( -1.000000000000000000, 0.000000000000000000, 0.000000000000000000 ) ) ;
#56 = STYLED_ITEM ( 'NONE', ( #107 ), #270 ) ;
#57 = DIRECTION ( 'NONE',  ( 0.000000000000000000, 0.000000000000000000, -1.000000000000000000 ) ) ;
#58 =( CONVERSION_BASED_UNIT ( 'INCH', #236 ) LENGTH_UNIT ( ) NAMED_UNIT ( #162 ) );
#59 = DIRECTION ( 'NONE',  ( -1.000000000000000000, -1.247009578300461253E-16, 0.000000000000000000 ) ) ;
#60 =( NAMED_UNIT ( * ) SI_UNIT ( $, .STERADIAN. ) SOLID_ANGLE_UNIT ( ) );
#61 = AXIS2_PLACEMENT_3D ( 'NONE', #212, #149, #55 ) ;
#62 =( NAMED_UNIT ( * ) PLANE_ANGLE_UNIT ( ) SI_UNIT ( $, .RADIAN. ) );
#63 = CIRCLE ( 'NONE', #131, 0.2500000000000000000 ) ;
#64 = ORIENTED_EDGE ( 'NONE', *, *, #118, .F. ) ;
#65 = AXIS2_PLACEMENT_3D ( 'NONE', #186, #120, #179 ) ;
#66 = VERTEX_POINT ( 'NONE', #71 ) ;
#67 = ORIENTED_EDGE ( 'NONE', *, *, #39, .T. ) ;
#68 = CARTESIAN_POINT ( 'NONE',  ( 0.000000000000000000, 0.2500000000000000000, 0.000000000000000000 ) ) ;
#69 = AXIS2_PLACEMENT_3D ( 'NONE', #23, #373, #21 ) ;
#70 =( NAMED_UNIT ( * ) PLANE_ANGLE_UNIT ( ) SI_UNIT ( $, .RADIAN. ) );
#71 = CARTESIAN_POINT ( 'NONE',  ( 0.2500000000000000000, 0.2500000000000000000, 0.000000000000000000 ) ) ;
#72 = DIRECTION ( 'NONE',  ( -1.000000000000000000, 0.000000000000000000, 0.000000000000000000 ) ) ;
#73 = ORIENTED_EDGE ( 'NONE', *, *, #140, .F. ) ;
#74 = CARTESIAN_POINT ( 'NONE',  ( -3.061616997868383018E-17, 0.2500000000000000000, 0.000000000000000000 ) ) ;
#75 = COLOUR_RGB ( '',0.7921568627450980005, 0.8196078431372548767, 0.9333333333333333481 ) ;
#76 = CARTESIAN_POINT ( 'NONE',  ( -0.2499999999999998057, 5.000000000000000000, 0.000000000000000000 ) ) ;
#77 = MECHANICAL_DESIGN_GEOMETRIC_PRESENTATION_REPRESENTATION (  '', ( #217 ), #284 ) ;
#78 =( GEOMETRIC_REPRESENTATION_CONTEXT ( 3 ) GLOBAL_UNCERTAINTY_ASSIGNED_CONTEXT ( ( #155 ) ) GLOBAL_UNIT_ASSIGNED_CONTEXT ( ( #232, #287, #45 ) ) REPRESENTATION_CONTEXT ( 'NONE', 'WORKASPACE' ) );
#79 = FILL_AREA_STYLE_COLOUR ( '', #40 ) ;
#80 = LINE ( 'NONE', #206, #317 ) ;
#81 = UNCERTAINTY_MEASURE_WITH_UNIT (LENGTH_MEASURE( 1.000000000000000082E-05 ), #6, 'distance_accuracy_value', 'NONE');
#82 = SURFACE_STYLE_FILL_AREA ( #318 ) ;
#83 = FILL_AREA_STYLE ('',( #79 ) ) ;
#84 = DIRECTION ( 'NONE',  ( -0.000000000000000000, -1.000000000000000000, -0.000000000000000000 ) ) ;
#85 = UNCERTAINTY_MEASURE_WITH_UNIT (LENGTH_MEASURE( 1.000000000000000082E-05 ), #165, 'distance_accuracy_value', 'NONE');
#86 =( GEOMETRIC_REPRESENTATION_CONTEXT ( 3 ) GLOBAL_UNCERTAINTY_ASSIGNED_CONTEXT ( ( #81 ) ) GLOBAL_UNIT_ASSIGNED_CONTEXT ( ( #6, #331, #2 ) ) REPRESENTATION_CONTEXT ( 'NONE', 'WORKASPACE' ) );
#87 = PRESENTATION_LAYER_ASSIGNMENT (  '', '', ( #356 ) ) ;
#88 = DIRECTION ( 'NONE',  ( 1.000000000000000000, 0.000000000000000000, -1.224646799147353207E-16 ) ) ;
#89 =( LENGTH_UNIT ( ) NAMED_UNIT ( * ) SI_UNIT ( $, .METRE. ) );
#90 = CARTESIAN_POINT ( 'NONE',  ( 0.000000000000000000, 2.500000000000000000, -0.2499999999999996947 ) ) ;
#91 = PRESENTATION_STYLE_ASSIGNMENT (( #160 ) ) ;
#92 = CARTESIAN_POINT ( 'NONE',  ( 0.000000000000000000, 2.500000000000000000, 0.000000000000000000 ) ) ;
#93 =( NAMED_UNIT ( * ) SI_UNIT ( $, .STERADIAN. ) SOLID_ANGLE_UNIT ( ) );
#94 = EDGE_LOOP ( 'NONE', ( #163, #161 ) ) ;
#95 = CIRCLE ( 'NONE', #65, 0.2500000000000000000 ) ;
#96 = CIRCLE ( 'NONE', #191, 0.2500000000000000000 ) ;
#97 = VERTEX_POINT ( 'NONE', #290 ) ;
#98 = CARTESIAN_POINT ( 'NONE',  ( 0.000000000000000000, 0.000000000000000000, 0.000000000000000000 ) ) ;
#99 = PRODUCT_DEFINITION_CONTEXT ( 'detailed design', #35, 'design' ) ;
#100 = DIMENSIONAL_EXPONENTS ( 1.000000000000000000, 0.000000000000000000, 0.000000000000000000, 0.000000000000000000, 0.000000000000000000, 0.000000000000000000, 0.000000000000000000 ) ;
#101 = APPLICATION_PROTOCOL_DEFINITION ( 'draft international standard', 'automotive_design', 1998, #370 ) ;
#102 = DIRECTION ( 'NONE',  ( 0.000000000000000000, 0.000000000000000000, -1.000000000000000000 ) ) ;
#103 = SHAPE_DEFINITION_REPRESENTATION ( #348, #350 ) ;
#104 = CIRCLE ( 'NONE', #296, 0.2500000000000000000 ) ;
#105 = ADVANCED_FACE ( 'NONE', ( #20 ), #204, .T. ) ;
#106 = VERTEX_POINT ( 'NONE', #297 ) ;
#107 = PRESENTATION_STYLE_ASSIGNMENT (( #115 ) ) ;
#108 = VERTEX_POINT ( 'NONE', #349 ) ;
#109 = DIRECTION ( 'NONE',  ( 0.000000000000000000, 0.000000000000000000, 1.000000000000000000 ) ) ;
#110 = AXIS2_PLACEMENT_3D ( 'NONE', #74, #316, #171 ) ;
#111 = CARTESIAN_POINT ( 'NONE',  ( 0.000000000000000000, 0.000000000000000000, 0.000000000000000000 ) ) ;
#112 = DIMENSIONAL_EXPONENTS ( 1.000000000000000000, 0.000000000000000000, 0.000000000000000000, 0.000000000000000000, 0.000000000000000000, 0.000000000000000000, 0.000000000000000000 ) ;
#113 = FACE_OUTER_BOUND ( 'NONE', #197, .T. ) ;
#114 = DIRECTION ( 'NONE',  ( -1.000000000000000000, 0.000000000000000000, 0.000000000000000000 ) ) ;
#115 = SURFACE_STYLE_USAGE ( .BOTH. , #136 ) ;
#116 = FILL_AREA_STYLE_COLOUR ( '', #75 ) ;
#117 = DIRECTION ( 'NONE',  ( 0.000000000000000000, 0.000000000000000000, -1.000000000000000000 ) ) ;
#118 = EDGE_CURVE ( 'NONE', #66, #106, #96, .T. ) ;
#119 = AXIS2_PLACEMENT_3D ( 'NONE', #368, #109, #259 ) ;
#120 = DIRECTION ( 'NONE',  ( -0.000000000000000000, -1.000000000000000000, -0.000000000000000000 ) ) ;
#121 = DIRECTION ( 'NONE',  ( 0.000000000000000000, 1.000000000000000000, 0.000000000000000000 ) ) ;
#122 = CARTESIAN_POINT ( 'NONE',  ( 0.2499999999999996947, 5.000000000000000000, 3.061616997868380553E-17 ) ) ;
#123 = DIRECTION ( 'NONE',  ( -0.000000000000000000, -1.000000000000000000, -0.000000000000000000 ) ) ;
#124 = DIRECTION ( 'NONE',  ( -1.247009578300461253E-16, 1.000000000000000000, 0.000000000000000000 ) ) ;
#125 = LENGTH_MEASURE_WITH_UNIT ( LENGTH_MEASURE( 0.02539999999999999897 ), #355 );
#126 = MANIFOLD_SOLID_BREP ( 'Revolve - Cutting Edge', #31 ) ;
#127 = LENGTH_MEASURE_WITH_UNIT ( LENGTH_MEASURE( 0.02539999999999999897 ), #89 );
#128 = ORIENTED_EDGE ( 'NONE', *, *, #288, .F. ) ;
#129 = ORIENTED_EDGE ( 'NONE', *, *, #49, .T. ) ;
#130 = EDGE_CURVE ( 'NONE', #97, #66, #372, .T. ) ;
#131 = AXIS2_PLACEMENT_3D ( 'NONE', #68, #339, #102 ) ;
#132 = MECHANICAL_DESIGN_GEOMETRIC_PRESENTATION_REPRESENTATION (  '', ( #56 ), #175 ) ;
#133 = VERTEX_POINT ( 'NONE', #180 ) ;
#134 = SURFACE_STYLE_FILL_AREA ( #83 ) ;
#135 = ORIENTED_EDGE ( 'NONE', *, *, #224, .F. ) ;
#136 = SURFACE_SIDE_STYLE ('',( #134 ) ) ;
#137 = FILL_AREA_STYLE ('',( #314 ) ) ;
#138 = ORIENTED_EDGE ( 'NONE', *, *, #353, .T. ) ;
#139 = UNCERTAINTY_MEASURE_WITH_UNIT (LENGTH_MEASURE( 1.000000000000000082E-05 ), #325, 'distance_accuracy_value', 'NONE');
#140 = EDGE_CURVE ( 'NONE', #247, #166, #358, .T. ) ;
#141 = EDGE_CURVE ( 'NONE', #166, #247, #282, .T. ) ;
#142 = CARTESIAN_POINT ( 'NONE',  ( -1.224646799147353207E-16, 5.000000000000000000, 0.000000000000000000 ) ) ;
#143 = AXIS2_PLACEMENT_3D ( 'NONE', #98, #360, #222 ) ;
#144 = DIRECTION ( 'NONE',  ( -1.247009578300461253E-16, 1.000000000000000000, -0.000000000000000000 ) ) ;
#145 = DIRECTION ( 'NONE',  ( 0.000000000000000000, 0.000000000000000000, -1.000000000000000000 ) ) ;
#146 = DIRECTION ( 'NONE',  ( 0.000000000000000000, 0.000000000000000000, -1.000000000000000000 ) ) ;
#147 = UNCERTAINTY_MEASURE_WITH_UNIT (LENGTH_MEASURE( 1.000000000000000082E-05 ), #227, 'distance_accuracy_value', 'NONE');
#148 = LENGTH_MEASURE_WITH_UNIT ( LENGTH_MEASURE( 0.02539999999999999897 ), #9 );
#149 = DIRECTION ( 'NONE',  ( -1.247009578300461253E-16, 1.000000000000000000, -0.000000000000000000 ) ) ;
#150 = DIRECTION ( 'NONE',  ( -0.000000000000000000, -1.000000000000000000, -0.000000000000000000 ) ) ;
#151 = CYLINDRICAL_SURFACE ( 'NONE', #267, 0.2499999999999996669 ) ;
#152 = VECTOR ( 'NONE', #209, 39.37007874015748143 ) ;
#153 = CARTESIAN_POINT ( 'NONE',  ( 0.000000000000000000, 0.000000000000000000, 0.000000000000000000 ) ) ;
#154 = CARTESIAN_POINT ( 'NONE',  ( 0.000000000000000000, 2.500000000000000000, 0.000000000000000000 ) ) ;
#155 = UNCERTAINTY_MEASURE_WITH_UNIT (LENGTH_MEASURE( 1.000000000000000082E-05 ), #232, 'distance_accuracy_value', 'NONE');
#156 = CARTESIAN_POINT ( 'NONE',  ( 3.061616997868379936E-17, 2.500000000000000000, 0.2499999999999996947 ) ) ;
#157 = ORIENTED_EDGE ( 'NONE', *, *, #141, .F. ) ;
#158 = STYLED_ITEM ( 'NONE', ( #207 ), #295 ) ;
#159 = COLOUR_RGB ( '',1.000000000000000000, 0.000000000000000000, 0.000000000000000000 ) ;
#160 = SURFACE_STYLE_USAGE ( .BOTH. , #13 ) ;
#161 = ORIENTED_EDGE ( 'NONE', *, *, #336, .F. ) ;
#162 = DIMENSIONAL_EXPONENTS ( 1.000000000000000000, 0.000000000000000000, 0.000000000000000000, 0.000000000000000000, 0.000000000000000000, 0.000000000000000000, 0.000000000000000000 ) ;
#163 = ORIENTED_EDGE ( 'NONE', *, *, #185, .F. ) ;
#164 = AXIS2_PLACEMENT_3D ( 'NONE', #213, #300, #88 ) ;
#165 =( CONVERSION_BASED_UNIT ( 'INCH', #148 ) LENGTH_UNIT ( ) NAMED_UNIT ( #312 ) );
#166 = VERTEX_POINT ( 'NONE', #330 ) ;
#167 = SURFACE_STYLE_USAGE ( .BOTH. , #48 ) ;
#168 = COLOUR_RGB ( '',0.7921568627450980005, 0.8196078431372548767, 0.9333333333333333481 ) ;
#169 = MECHANICAL_DESIGN_GEOMETRIC_PRESENTATION_REPRESENTATION (  '', ( #183 ), #50 ) ;
#170 = DIRECTION ( 'NONE',  ( -1.247009578300461253E-16, 1.000000000000000000, -0.000000000000000000 ) ) ;
#171 = DIRECTION ( 'NONE',  ( 1.000000000000000000, 0.000000000000000000, 0.000000000000000000 ) ) ;
#172 =( NAMED_UNIT ( * ) PLANE_ANGLE_UNIT ( ) SI_UNIT ( $, .RADIAN. ) );
#173 = DIRECTION ( 'NONE',  ( -1.247009578300461253E-16, 1.000000000000000000, -0.000000000000000000 ) ) ;
#174 = CARTESIAN_POINT ( 'NONE',  ( -3.061616997868383018E-17, 0.2500000000000000000, 0.000000000000000000 ) ) ;
#175 =( GEOMETRIC_REPRESENTATION_CONTEXT ( 3 ) GLOBAL_UNCERTAINTY_ASSIGNED_CONTEXT ( ( #139 ) ) GLOBAL_UNIT_ASSIGNED_CONTEXT ( ( #325, #172, #229 ) ) REPRESENTATION_CONTEXT ( 'NONE', 'WORKASPACE' ) );
#176 = FILL_AREA_STYLE_COLOUR ( '', #219 ) ;
#177 = ADVANCED_FACE ( 'NONE', ( #265 ), #151, .T. ) ;
#178 = DIRECTION ( 'NONE',  ( -1.247009578300461253E-16, 1.000000000000000000, -0.000000000000000000 ) ) ;
#179 = DIRECTION ( 'NONE',  ( 0.000000000000000000, 0.000000000000000000, -1.000000000000000000 ) ) ;
#180 = CARTESIAN_POINT ( 'NONE',  ( -0.2499999999999999722, 5.000000000000000000, 0.000000000000000000 ) ) ;
#181 = FACE_OUTER_BOUND ( 'NONE', #194, .T. ) ;
#182 = DIRECTION ( 'NONE',  ( -0.000000000000000000, -1.000000000000000000, -0.000000000000000000 ) ) ;
#183 = STYLED_ITEM ( 'NONE', ( #210 ), #126 ) ;
#184 = CIRCLE ( 'NONE', #164, 0.2500000000000000000 ) ;
#185 = EDGE_CURVE ( 'NONE', #359, #332, #277, .T. ) ;
#186 = CARTESIAN_POINT ( 'NONE',  ( 0.000000000000000000, 0.2500000000000000000, 0.000000000000000000 ) ) ;
#187 = ORIENTED_EDGE ( 'NONE', *, *, #224, .T. ) ;
#188 = ORIENTED_EDGE ( 'NONE', *, *, #202, .F. ) ;
#189 = AXIS2_PLACEMENT_3D ( 'NONE', #351, #124, #59 ) ;
#190 = EDGE_CURVE ( 'NONE', #247, #354, #80, .T. ) ;
#191 = AXIS2_PLACEMENT_3D ( 'NONE', #322, #84, #117 ) ;
#192 =( NAMED_UNIT ( * ) PLANE_ANGLE_UNIT ( ) SI_UNIT ( $, .RADIAN. ) );
#193 =( NAMED_UNIT ( * ) PLANE_ANGLE_UNIT ( ) SI_UNIT ( $, .RADIAN. ) );
#194 = EDGE_LOOP ( 'NONE', ( #157, #73 ) ) ;
#195 = SURFACE_SIDE_STYLE ('',( #361 ) ) ;
#196 = CLOSED_SHELL ( 'NONE', ( #177, #321, #246, #255 ) ) ;
#197 = EDGE_LOOP ( 'NONE', ( #135, #249, #138, #313, #38 ) ) ;
#198 = LENGTH_MEASURE_WITH_UNIT ( LENGTH_MEASURE( 0.02539999999999999897 ), #286 );
#199 = CYLINDRICAL_SURFACE ( 'NONE', #347, 0.2499999999999998612 ) ;
#200 = FILL_AREA_STYLE_COLOUR ( '', #326 ) ;
#201 = MECHANICAL_DESIGN_GEOMETRIC_PRESENTATION_REPRESENTATION (  '', ( #356 ), #78 ) ;
#202 = EDGE_CURVE ( 'NONE', #133, #354, #308, .T. ) ;
#203 = AXIS2_PLACEMENT_3D ( 'NONE', #142, #261, #364 ) ;
#204 = PLANE ( 'NONE',  #254 ) ;
#205 = FACE_OUTER_BOUND ( 'NONE', #309, .T. ) ;
#206 = CARTESIAN_POINT ( 'NONE',  ( 0.2499999999999995282, 5.000000000000000000, 3.061616997868378704E-17 ) ) ;
#207 = PRESENTATION_STYLE_ASSIGNMENT (( #167 ) ) ;
#208 = DIRECTION ( 'NONE',  ( -1.247009578300461253E-16, 1.000000000000000000, -0.000000000000000000 ) ) ;
#209 = DIRECTION ( 'NONE',  ( -0.000000000000000000, -1.000000000000000000, -0.000000000000000000 ) ) ;
#210 = PRESENTATION_STYLE_ASSIGNMENT (( #1 ) ) ;
#211 = DIRECTION ( 'NONE',  ( -0.000000000000000000, -1.000000000000000000, -0.000000000000000000 ) ) ;
#212 = CARTESIAN_POINT ( 'NONE',  ( 1.892877146603800049E-16, 2.500000000000000000, 0.000000000000000000 ) ) ;
#213 = CARTESIAN_POINT ( 'NONE',  ( -3.061616997868383018E-17, 0.2500000000000000000, 0.000000000000000000 ) ) ;
#214 = FILL_AREA_STYLE ('',( #116 ) ) ;
#215 = ADVANCED_FACE ( 'NONE', ( #22 ), #341, .T. ) ;
#216 = PRODUCT_DEFINITION ( 'UNKNOWN', '', #243, #99 ) ;
#217 = STYLED_ITEM ( 'NONE', ( #242 ), #369 ) ;
#218 = CARTESIAN_POINT ( 'NONE',  ( 0.000000000000000000, 0.000000000000000000, -0.2499999999999998612 ) ) ;
#219 = COLOUR_RGB ( '',1.000000000000000000, 0.000000000000000000, 0.000000000000000000 ) ;
#220 = ORIENTED_EDGE ( 'NONE', *, *, #140, .T. ) ;
#221 = DIMENSIONAL_EXPONENTS ( 1.000000000000000000, 0.000000000000000000, 0.000000000000000000, 0.000000000000000000, 0.000000000000000000, 0.000000000000000000, 0.000000000000000000 ) ;
#222 = DIRECTION ( 'NONE',  ( 1.000000000000000000, 0.000000000000000000, 0.000000000000000000 ) ) ;
#223 = DIMENSIONAL_EXPONENTS ( 1.000000000000000000, 0.000000000000000000, 0.000000000000000000, 0.000000000000000000, 0.000000000000000000, 0.000000000000000000, 0.000000000000000000 ) ;
#224 = EDGE_CURVE ( 'NONE', #332, #106, #324, .T. ) ;
#225 = DIRECTION ( 'NONE',  ( -0.000000000000000000, -1.000000000000000000, -0.000000000000000000 ) ) ;
#226 = MECHANICAL_DESIGN_GEOMETRIC_PRESENTATION_REPRESENTATION (  '', ( #302 ), #234 ) ;
#227 =( CONVERSION_BASED_UNIT ( 'INCH', #125 ) LENGTH_UNIT ( ) NAMED_UNIT ( #100 ) );
#228 = PRODUCT ( '82465', '82465', '', ( #251 ) ) ;
#229 =( NAMED_UNIT ( * ) SI_UNIT ( $, .STERADIAN. ) SOLID_ANGLE_UNIT ( ) );
#230 = PRESENTATION_STYLE_ASSIGNMENT (( #365 ) ) ;
#231 = CYLINDRICAL_SURFACE ( 'NONE', #69, 0.2499999999999996669 ) ;
#232 =( CONVERSION_BASED_UNIT ( 'INCH', #252 ) LENGTH_UNIT ( ) NAMED_UNIT ( #112 ) );
#233 = SPHERICAL_SURFACE ( 'NONE', #110, 0.2500000000000000000 ) ;
#234 =( GEOMETRIC_REPRESENTATION_CONTEXT ( 3 ) GLOBAL_UNCERTAINTY_ASSIGNED_CONTEXT ( ( #147 ) ) GLOBAL_UNIT_ASSIGNED_CONTEXT ( ( #227, #192, #93 ) ) REPRESENTATION_CONTEXT ( 'NONE', 'WORKASPACE' ) );
#235 = STYLED_ITEM ( 'NONE', ( #230 ), #105 ) ;
#236 = LENGTH_MEASURE_WITH_UNIT ( LENGTH_MEASURE( 0.02539999999999999897 ), #263 );
#237 = SURFACE_STYLE_FILL_AREA ( #214 ) ;
#238 = PRESENTATION_LAYER_ASSIGNMENT (  '', '', ( #302 ) ) ;
#239 = SURFACE_SIDE_STYLE ('',( #237 ) ) ;
#240 = SURFACE_SIDE_STYLE ('',( #3 ) ) ;
#241 = DIRECTION ( 'NONE',  ( 0.000000000000000000, -0.000000000000000000, 1.000000000000000000 ) ) ;
#242 = PRESENTATION_STYLE_ASSIGNMENT (( #271 ) ) ;
#243 = PRODUCT_DEFINITION_FORMATION_WITH_SPECIFIED_SOURCE ( 'ANY', '', #228, .NOT_KNOWN. ) ;
#244 = ORIENTED_EDGE ( 'NONE', *, *, #346, .T. ) ;
#245 =( CONVERSION_BASED_UNIT ( 'INCH', #127 ) LENGTH_UNIT ( ) NAMED_UNIT ( #280 ) );
#246 = ADVANCED_FACE ( 'NONE', ( #205 ), #231, .T. ) ;
#247 = VERTEX_POINT ( 'NONE', #320 ) ;
#248 = ORIENTED_EDGE ( 'NONE', *, *, #130, .T. ) ;
#249 = ORIENTED_EDGE ( 'NONE', *, *, #336, .T. ) ;
#250 = DIRECTION ( 'NONE',  ( 0.000000000000000000, 0.000000000000000000, -1.000000000000000000 ) ) ;
#251 = PRODUCT_CONTEXT ( 'NONE', #370, 'mechanical' ) ;
#252 = LENGTH_MEASURE_WITH_UNIT ( LENGTH_MEASURE( 0.02539999999999999897 ), #289 );
#253 = MECHANICAL_DESIGN_GEOMETRIC_PRESENTATION_REPRESENTATION (  '', ( #158 ), #86 ) ;
#254 = AXIS2_PLACEMENT_3D ( 'NONE', #154, #121, #241 ) ;
#255 = ADVANCED_FACE ( 'NONE', ( #345 ), #371, .F. ) ;
#256 = FILL_AREA_STYLE ('',( #292 ) ) ;
#257 = CARTESIAN_POINT ( 'NONE',  ( 3.061616997868381785E-17, 0.000000000000000000, 0.2499999999999998612 ) ) ;
#258 = SURFACE_STYLE_USAGE ( .BOTH. , #260 ) ;
#259 = DIRECTION ( 'NONE',  ( 1.000000000000000000, 0.000000000000000000, 0.000000000000000000 ) ) ;
#260 = SURFACE_SIDE_STYLE ('',( #367 ) ) ;
#261 = DIRECTION ( 'NONE',  ( -1.247009578300461253E-16, 1.000000000000000000, -0.000000000000000000 ) ) ;
#262 =( LENGTH_UNIT ( ) NAMED_UNIT ( * ) SI_UNIT ( $, .METRE. ) );
#263 =( LENGTH_UNIT ( ) NAMED_UNIT ( * ) SI_UNIT ( $, .METRE. ) );
#264 = LENGTH_MEASURE_WITH_UNIT ( LENGTH_MEASURE( 0.02539999999999999897 ), #262 );
#265 = FACE_OUTER_BOUND ( 'NONE', #11, .T. ) ;
#266 = FILL_AREA_STYLE ('',( #25 ) ) ;
#267 = AXIS2_PLACEMENT_3D ( 'NONE', #272, #173, #114 ) ;
#268 = AXIS2_PLACEMENT_3D ( 'NONE', #92, #211, #329 ) ;
#269 =( NAMED_UNIT ( * ) SI_UNIT ( $, .STERADIAN. ) SOLID_ANGLE_UNIT ( ) );
#270 = ADVANCED_FACE ( 'NONE', ( #53 ), #233, .T. ) ;
#271 = SURFACE_STYLE_USAGE ( .BOTH. , #240 ) ;
#272 = CARTESIAN_POINT ( 'NONE',  ( -1.224646799147353207E-16, 5.000000000000000000, 0.000000000000000000 ) ) ;
#273 = ORIENTED_EDGE ( 'NONE', *, *, #283, .T. ) ;
#274 = DIRECTION ( 'NONE',  ( -0.000000000000000000, -1.000000000000000000, -0.000000000000000000 ) ) ;
#275 = AXIS2_PLACEMENT_3D ( 'NONE', #7, #123, #146 ) ;
#276 = ORIENTED_EDGE ( 'NONE', *, *, #190, .T. ) ;
#277 = CIRCLE ( 'NONE', #275, 0.2499999999999996947 ) ;
#278 = ORIENTED_EDGE ( 'NONE', *, *, #141, .T. ) ;
#279 = ORIENTED_EDGE ( 'NONE', *, *, #39, .F. ) ;
#280 = DIMENSIONAL_EXPONENTS ( 1.000000000000000000, 0.000000000000000000, 0.000000000000000000, 0.000000000000000000, 0.000000000000000000, 0.000000000000000000, 0.000000000000000000 ) ;
#281 = EDGE_LOOP ( 'NONE', ( #41, #187, #64, #335, #14 ) ) ;
#282 = CIRCLE ( 'NONE', #32, 0.2499999999999995282 ) ;
#283 = EDGE_CURVE ( 'NONE', #66, #307, #104, .T. ) ;
#284 =( GEOMETRIC_REPRESENTATION_CONTEXT ( 3 ) GLOBAL_UNCERTAINTY_ASSIGNED_CONTEXT ( ( #323 ) ) GLOBAL_UNIT_ASSIGNED_CONTEXT ( ( #245, #62, #34 ) ) REPRESENTATION_CONTEXT ( 'NONE', 'WORKASPACE' ) );
#285 = AXIS2_PLACEMENT_3D ( 'NONE', #27, #182, #57 ) ;
#286 =( LENGTH_UNIT ( ) NAMED_UNIT ( * ) SI_UNIT ( $, .METRE. ) );
#287 =( NAMED_UNIT ( * ) PLANE_ANGLE_UNIT ( ) SI_UNIT ( $, .RADIAN. ) );
#288 = EDGE_CURVE ( 'NONE', #354, #133, #352, .T. ) ;
#289 =( LENGTH_UNIT ( ) NAMED_UNIT ( * ) SI_UNIT ( $, .METRE. ) );
#290 = CARTESIAN_POINT ( 'NONE',  ( 0.000000000000000000, 0.2500000000000000000, -0.2500000000000000000 ) ) ;
#291 = LENGTH_MEASURE_WITH_UNIT ( LENGTH_MEASURE( 0.02539999999999999897 ), #340 );
#292 = FILL_AREA_STYLE_COLOUR ( '', #343 ) ;
#293 = UNCERTAINTY_MEASURE_WITH_UNIT (LENGTH_MEASURE( 1.000000000000000082E-05 ), #58, 'distance_accuracy_value', 'NONE');
#294 = DIRECTION ( 'NONE',  ( -1.000000000000000000, 0.000000000000000000, 0.000000000000000000 ) ) ;
#295 = ADVANCED_FACE ( 'NONE', ( #113 ), #199, .T. ) ;
#296 = AXIS2_PLACEMENT_3D ( 'NONE', #174, #145, #72 ) ;
#297 = CARTESIAN_POINT ( 'NONE',  ( 3.061616997868383018E-17, 0.2500000000000000000, 0.2499999999999999722 ) ) ;
#298 = CARTESIAN_POINT ( 'NONE',  ( 0.2499999999999996947, 5.000000000000000000, 0.000000000000000000 ) ) ;
#299 = CARTESIAN_POINT ( 'NONE',  ( -1.224646799147353207E-16, 5.000000000000000000, 0.000000000000000000 ) ) ;
#300 = DIRECTION ( 'NONE',  ( 1.224646799147353207E-16, -0.000000000000000000, 1.000000000000000000 ) ) ;
#301 = AXIS2_PLACEMENT_3D ( 'NONE', #111, #225, #250 ) ;
#302 = STYLED_ITEM ( 'NONE', ( #91 ), #215 ) ;
#303 = CARTESIAN_POINT ( 'NONE',  ( 1.892877146603800049E-16, 2.500000000000000000, 0.000000000000000000 ) ) ;
#304 = DIRECTION ( 'NONE',  ( 0.000000000000000000, 0.000000000000000000, -1.000000000000000000 ) ) ;
#305 = EDGE_LOOP ( 'NONE', ( #129, #311, #337, #357 ) ) ;
#306 = CARTESIAN_POINT ( 'NONE',  ( -1.530808498934191509E-17, 0.000000000000000000, 0.000000000000000000 ) ) ;
#307 = VERTEX_POINT ( 'NONE', #306 ) ;
#308 = CIRCLE ( 'NONE', #10, 0.2499999999999998335 ) ;
#309 = EDGE_LOOP ( 'NONE', ( #8, #220, #67, #128 ) ) ;
#310 = APPLICATION_PROTOCOL_DEFINITION ( 'draft international standard', 'automotive_design', 1998, #35 ) ;
#311 = ORIENTED_EDGE ( 'NONE', *, *, #328, .T. ) ;
#312 = DIMENSIONAL_EXPONENTS ( 1.000000000000000000, 0.000000000000000000, 0.000000000000000000, 0.000000000000000000, 0.000000000000000000, 0.000000000000000000, 0.000000000000000000 ) ;
#313 = ORIENTED_EDGE ( 'NONE', *, *, #346, .F. ) ;
#314 = FILL_AREA_STYLE_COLOUR ( '', #159 ) ;
#315 =( CONVERSION_BASED_UNIT ( 'INCH', #198 ) LENGTH_UNIT ( ) NAMED_UNIT ( #46 ) );
#316 = DIRECTION ( 'NONE',  ( 0.000000000000000000, 0.000000000000000000, 1.000000000000000000 ) ) ;
#317 = VECTOR ( 'NONE', #178, 39.37007874015748143 ) ;
#318 = FILL_AREA_STYLE ('',( #200 ) ) ;
#319 = FACE_OUTER_BOUND ( 'NONE', #281, .T. ) ;
#320 = CARTESIAN_POINT ( 'NONE',  ( 0.2499999999999997224, 2.500000000000000000, 3.061616997868380553E-17 ) ) ;
#321 = ADVANCED_FACE ( 'NONE', ( #181 ), #37, .F. ) ;
#322 = CARTESIAN_POINT ( 'NONE',  ( 0.000000000000000000, 0.2500000000000000000, 0.000000000000000000 ) ) ;
#323 = UNCERTAINTY_MEASURE_WITH_UNIT (LENGTH_MEASURE( 1.000000000000000082E-05 ), #245, 'distance_accuracy_value', 'NONE');
#324 = LINE ( 'NONE', #257, #152 ) ;
#325 =( CONVERSION_BASED_UNIT ( 'INCH', #291 ) LENGTH_UNIT ( ) NAMED_UNIT ( #221 ) );
#326 = COLOUR_RGB ( '',1.000000000000000000, 0.000000000000000000, 0.000000000000000000 ) ;
#327 =( NAMED_UNIT ( * ) PLANE_ANGLE_UNIT ( ) SI_UNIT ( $, .RADIAN. ) );
#328 = EDGE_CURVE ( 'NONE', #108, #307, #184, .T. ) ;
#329 = DIRECTION ( 'NONE',  ( 0.000000000000000000, 0.000000000000000000, -1.000000000000000000 ) ) ;
#330 = CARTESIAN_POINT ( 'NONE',  ( -0.2499999999999993061, 2.500000000000000000, 0.000000000000000000 ) ) ;
#331 =( NAMED_UNIT ( * ) PLANE_ANGLE_UNIT ( ) SI_UNIT ( $, .RADIAN. ) );
#332 = VERTEX_POINT ( 'NONE', #156 ) ;
#333 = SURFACE_STYLE_FILL_AREA ( #24 ) ;
#334 = AXIS2_PLACEMENT_3D ( 'NONE', #298, #344, #366 ) ;
#335 = ORIENTED_EDGE ( 'NONE', *, *, #130, .F. ) ;
#336 = EDGE_CURVE ( 'NONE', #332, #359, #18, .T. ) ;
#337 = ORIENTED_EDGE ( 'NONE', *, *, #283, .F. ) ;
#338 = ORIENTED_EDGE ( 'NONE', *, *, #202, .T. ) ;
#339 = DIRECTION ( 'NONE',  ( -0.000000000000000000, -1.000000000000000000, -0.000000000000000000 ) ) ;
#340 =( LENGTH_UNIT ( ) NAMED_UNIT ( * ) SI_UNIT ( $, .METRE. ) );
#341 = SPHERICAL_SURFACE ( 'NONE', #119, 0.2500000000000000000 ) ;
#342 = UNCERTAINTY_MEASURE_WITH_UNIT (LENGTH_MEASURE( 1.000000000000000082E-05 ), #315, 'distance_accuracy_value', 'NONE');
#343 = COLOUR_RGB ( '',1.000000000000000000, 0.000000000000000000, 0.000000000000000000 ) ;
#344 = DIRECTION ( 'NONE',  ( 1.247009578300461253E-16, -1.000000000000000000, 0.000000000000000000 ) ) ;
#345 = FACE_OUTER_BOUND ( 'NONE', #43, .T. ) ;
#346 = EDGE_CURVE ( 'NONE', #108, #97, #95, .T. ) ;
#347 = AXIS2_PLACEMENT_3D ( 'NONE', #153, #274, #304 ) ;
#348 = PRODUCT_DEFINITION_SHAPE ( 'NONE', 'NONE',  #216 ) ;
#349 = CARTESIAN_POINT ( 'NONE',  ( -0.2500000000000000000, 0.2500000000000000000, 3.061616997868382402E-17 ) ) ;
#350 = ADVANCED_BREP_SHAPE_REPRESENTATION ( '82465', ( #126, #369, #143 ), #44 ) ;
#351 = CARTESIAN_POINT ( 'NONE',  ( 1.892877146603800049E-16, 2.500000000000000000, 0.000000000000000000 ) ) ;
#352 = CIRCLE ( 'NONE', #203, 0.2499999999999998335 ) ;
#353 = EDGE_CURVE ( 'NONE', #359, #97, #28, .T. ) ;
#354 = VERTEX_POINT ( 'NONE', #122 ) ;
#355 =( LENGTH_UNIT ( ) NAMED_UNIT ( * ) SI_UNIT ( $, .METRE. ) );
#356 = STYLED_ITEM ( 'NONE', ( #54 ), #12 ) ;
#357 = ORIENTED_EDGE ( 'NONE', *, *, #118, .T. ) ;
#358 = CIRCLE ( 'NONE', #61, 0.2499999999999995282 ) ;
#359 = VERTEX_POINT ( 'NONE', #90 ) ;
#360 = DIRECTION ( 'NONE',  ( 0.000000000000000000, 0.000000000000000000, 1.000000000000000000 ) ) ;
#361 = SURFACE_STYLE_FILL_AREA ( #256 ) ;
#362 = PRESENTATION_LAYER_ASSIGNMENT (  '', '', ( #158 ) ) ;
#363 = MECHANICAL_DESIGN_GEOMETRIC_PRESENTATION_REPRESENTATION (  '', ( #235 ), #15 ) ;
#364 = DIRECTION ( 'NONE',  ( -1.000000000000000000, 0.000000000000000000, 0.000000000000000000 ) ) ;
#365 = SURFACE_STYLE_USAGE ( .BOTH. , #195 ) ;
#366 = DIRECTION ( 'NONE',  ( 1.000000000000000000, 1.247009578300461253E-16, 0.000000000000000000 ) ) ;
#367 = SURFACE_STYLE_FILL_AREA ( #137 ) ;
#368 = CARTESIAN_POINT ( 'NONE',  ( -3.061616997868383018E-17, 0.2500000000000000000, 0.000000000000000000 ) ) ;
#369 = MANIFOLD_SOLID_BREP ( 'Revolve - Tool Body (Straight Shanked)', #196 ) ;
#370 = APPLICATION_CONTEXT ( 'automotive_design' ) ;
#371 = PLANE ( 'NONE',  #334 ) ;
#372 = CIRCLE ( 'NONE', #285, 0.2500000000000000000 ) ;
#373 = DIRECTION ( 'NONE',  ( -1.247009578300461253E-16, 1.000000000000000000, -0.000000000000000000 ) ) ;
ENDSEC;
END-ISO-10303-21;
