ISO-10303-21;
HEADER;
FILE_DESCRIPTION (( 'STEP AP214' ),
    '1' );
FILE_NAME ('Micro_RME-013-2.STEP',
    '2021-09-01T22:27:40',
    ( '' ),
    ( '' ),
    'SwSTEP 2.0',
    'SolidWorks 2020',
    '' );
FILE_SCHEMA (( 'AUTOMOTIVE_DESIGN' ));
ENDSEC;

DATA;
#1 = ORIENTED_EDGE ( 'NONE', *, *, #6, .F. ) ;
#2 = CIRCLE ( 'NONE', #181, 0.06250000000000002776 ) ;
#3 = DIMENSIONAL_EXPONENTS ( 1.000000000000000000, 0.0000000000000000000, 0.0000000000000000000, 0.0000000000000000000, 0.0000000000000000000, 0.0000000000000000000, 0.0000000000000000000 ) ;
#4 = DIRECTION ( 'NONE',  ( 0.0000000000000000000, 0.0000000000000000000, 1.000000000000000000 ) ) ;
#5 = LINE ( 'NONE', #182, #97 ) ;
#6 = EDGE_CURVE ( 'NONE', #45, #156, #296, .T. ) ;
#7 = ORIENTED_EDGE ( 'NONE', *, *, #187, .F. ) ;
#8 = LENGTH_MEASURE_WITH_UNIT ( LENGTH_MEASURE( 0.02539999999999999897 ), #30 );
#9 = ORIENTED_EDGE ( 'NONE', *, *, #194, .T. ) ;
#10 = ORIENTED_EDGE ( 'NONE', *, *, #194, .F. ) ;
#11 = CARTESIAN_POINT ( 'NONE',  ( 0.006493500000000005344, 0.0000000000000000000, 0.03899999999999999994 ) ) ;
#12 = DIRECTION ( 'NONE',  ( -1.224646799147353454E-16, -0.0000000000000000000, -1.000000000000000000 ) ) ;
#13 = PRODUCT_DEFINITION_FORMATION_WITH_SPECIFIED_SOURCE ( 'ANY', '', #79, .NOT_KNOWN. ) ;
#14 = DIRECTION ( 'NONE',  ( 0.7071067811865462405, 8.659560562354916834E-17, -0.7071067811865486830 ) ) ;
#15 = FACE_OUTER_BOUND ( 'NONE', #29, .T. ) ;
#16 = DIRECTION ( 'NONE',  ( -1.224646799147353454E-16, -0.0000000000000000000, -1.000000000000000000 ) ) ;
#17 = DIRECTION ( 'NONE',  ( -1.000000000000000000, 0.0000000000000000000, 1.224646799147353700E-16 ) ) ;
#18 = AXIS2_PLACEMENT_3D ( 'NONE', #185, #161, #143 ) ;
#19 = CARTESIAN_POINT ( 'NONE',  ( 4.367441288656881593E-17, 0.0000000000000000000, 0.3566286452304176513 ) ) ;
#20 = VECTOR ( 'NONE', #14, 39.37007874015748854 ) ;
#21 = ORIENTED_EDGE ( 'NONE', *, *, #265, .T. ) ;
#22 = EDGE_CURVE ( 'NONE', #202, #83, #24, .T. ) ;
#23 = ORIENTED_EDGE ( 'NONE', *, *, #212, .F. ) ;
#24 = CIRCLE ( 'NONE', #58, 0.04750000000000064587 ) ;
#25 = AXIS2_PLACEMENT_3D ( 'NONE', #42, #221, #134 ) ;
#26 = VERTEX_POINT ( 'NONE', #122 ) ;
#27 = ADVANCED_FACE ( 'NONE', ( #261 ), #211, .T. ) ;
#28 = DIRECTION ( 'NONE',  ( -1.000000000000000000, 0.0000000000000000000, 0.0000000000000000000 ) ) ;
#29 = EDGE_LOOP ( 'NONE', ( #299, #9, #204, #7 ) ) ;
#30 =( LENGTH_UNIT ( ) NAMED_UNIT ( * ) SI_UNIT ( $, .METRE. ) );
#31 = AXIS2_PLACEMENT_3D ( 'NONE', #192, #291, #91 ) ;
#32 = CARTESIAN_POINT ( 'NONE',  ( -0.04750000000000064587, 0.0000000000000000000, 1.500000000000000222 ) ) ;
#33 = ORIENTED_EDGE ( 'NONE', *, *, #22, .F. ) ;
#34 = LENGTH_MEASURE_WITH_UNIT ( LENGTH_MEASURE( 0.02539999999999999897 ), #213 );
#35 = LINE ( 'NONE', #85, #95 ) ;
#36 = LINE ( 'NONE', #239, #196 ) ;
#37 = AXIS2_PLACEMENT_3D ( 'NONE', #54, #144, #101 ) ;
#38 = DIRECTION ( 'NONE',  ( -1.224646799147353454E-16, -0.0000000000000000000, -1.000000000000000000 ) ) ;
#39 = CONICAL_SURFACE ( 'NONE', #207, 0.04750000000000064587, 0.7853981633974466137 ) ;
#40 = DIRECTION ( 'NONE',  ( 1.000000000000000000, 0.0000000000000000000, -0.0000000000000000000 ) ) ;
#41 = CARTESIAN_POINT ( 'NONE',  ( 0.0000000000000000000, 0.0000000000000000000, 1.500000000000000222 ) ) ;
#42 = CARTESIAN_POINT ( 'NONE',  ( 0.0000000000000000000, 0.0000000000000000000, 1.500000000000000222 ) ) ;
#43 = ORIENTED_EDGE ( 'NONE', *, *, #276, .F. ) ;
#44 = ADVANCED_FACE ( 'NONE', ( #280 ), #223, .T. ) ;
#45 = VERTEX_POINT ( 'NONE', #140 ) ;
#46 =( GEOMETRIC_REPRESENTATION_CONTEXT ( 3 ) GLOBAL_UNCERTAINTY_ASSIGNED_CONTEXT ( ( #160 ) ) GLOBAL_UNIT_ASSIGNED_CONTEXT ( ( #124, #98, #70 ) ) REPRESENTATION_CONTEXT ( 'NONE', 'WORKASPACE' ) );
#47 = ORIENTED_EDGE ( 'NONE', *, *, #170, .T. ) ;
#48 = PRODUCT_DEFINITION_SHAPE ( 'NONE', 'NONE',  #290 ) ;
#49 = VERTEX_POINT ( 'NONE', #208 ) ;
#50 = FILL_AREA_STYLE ('',( #139 ) ) ;
#51 = VECTOR ( 'NONE', #237, 39.37007874015748143 ) ;
#52 = FACE_OUTER_BOUND ( 'NONE', #225, .T. ) ;
#53 = SURFACE_STYLE_USAGE ( .BOTH. , #273 ) ;
#54 = CARTESIAN_POINT ( 'NONE',  ( 4.776122516674678488E-18, 0.0000000000000000000, 0.03899999999999999994 ) ) ;
#55 = DIMENSIONAL_EXPONENTS ( 1.000000000000000000, 0.0000000000000000000, 0.0000000000000000000, 0.0000000000000000000, 0.0000000000000000000, 0.0000000000000000000, 0.0000000000000000000 ) ;
#56 = DIRECTION ( 'NONE',  ( 1.000000000000000000, 0.0000000000000000000, 0.0000000000000000000 ) ) ;
#57 = LINE ( 'NONE', #105, #20 ) ;
#58 = AXIS2_PLACEMENT_3D ( 'NONE', #283, #4, #120 ) ;
#59 = AXIS2_PLACEMENT_3D ( 'NONE', #88, #16, #17 ) ;
#60 = EDGE_LOOP ( 'NONE', ( #80, #84, #285, #271 ) ) ;
#61 = CARTESIAN_POINT ( 'NONE',  ( 9.738690148714772880E-35, 0.0000000000000000000, 7.952243990263336597E-19 ) ) ;
#62 = ADVANCED_FACE ( 'NONE', ( #82 ), #191, .T. ) ;
#63 = DIRECTION ( 'NONE',  ( -1.000000000000000000, 0.0000000000000000000, 1.224646799147353454E-16 ) ) ;
#64 = SURFACE_SIDE_STYLE ('',( #87 ) ) ;
#65 = PLANE ( 'NONE',  #234 ) ;
#66 = FACE_OUTER_BOUND ( 'NONE', #215, .T. ) ;
#67 = ADVANCED_FACE ( 'NONE', ( #52 ), #269, .T. ) ;
#68 = APPLICATION_PROTOCOL_DEFINITION ( 'draft international standard', 'automotive_design', 1998, #210 ) ;
#69 = DIRECTION ( 'NONE',  ( 0.0000000000000000000, 0.0000000000000000000, 1.000000000000000000 ) ) ;
#70 =( NAMED_UNIT ( * ) SI_UNIT ( $, .STERADIAN. ) SOLID_ANGLE_UNIT ( ) );
#71 = DIRECTION ( 'NONE',  ( -1.224646799147353454E-16, -0.0000000000000000000, -1.000000000000000000 ) ) ;
#72 = APPLICATION_PROTOCOL_DEFINITION ( 'draft international standard', 'automotive_design', 1998, #266 ) ;
#73 = PRESENTATION_LAYER_ASSIGNMENT (  '', '', ( #220 ) ) ;
#74 = ORIENTED_EDGE ( 'NONE', *, *, #276, .T. ) ;
#75 = EDGE_CURVE ( 'NONE', #121, #178, #183, .T. ) ;
#76 = CIRCLE ( 'NONE', #279, 0.006493499999999996670 ) ;
#77 = ORIENTED_EDGE ( 'NONE', *, *, #265, .F. ) ;
#78 = ORIENTED_EDGE ( 'NONE', *, *, #170, .F. ) ;
#79 = PRODUCT ( 'Micro_RME-013-2', 'Micro_RME-013-2', '', ( #125 ) ) ;
#80 = ORIENTED_EDGE ( 'NONE', *, *, #6, .T. ) ;
#81 = DIMENSIONAL_EXPONENTS ( 1.000000000000000000, 0.0000000000000000000, 0.0000000000000000000, 0.0000000000000000000, 0.0000000000000000000, 0.0000000000000000000, 0.0000000000000000000 ) ;
#82 = FACE_OUTER_BOUND ( 'NONE', #126, .T. ) ;
#83 = VERTEX_POINT ( 'NONE', #32 ) ;
#84 = ORIENTED_EDGE ( 'NONE', *, *, #241, .T. ) ;
#85 = CARTESIAN_POINT ( 'NONE',  ( 0.06250000000000002776, 7.654042494670959086E-18, 1.500000000000000222 ) ) ;
#86 = DIRECTION ( 'NONE',  ( 0.0000000000000000000, 0.0000000000000000000, -1.000000000000000000 ) ) ;
#87 = SURFACE_STYLE_FILL_AREA ( #166 ) ;
#88 = CARTESIAN_POINT ( 'NONE',  ( 9.738690148714772880E-35, 0.0000000000000000000, 7.952243990263336597E-19 ) ) ;
#89 = DIRECTION ( 'NONE',  ( -1.000000000000000000, 0.0000000000000000000, 1.224646799147353700E-16 ) ) ;
#90 = ADVANCED_FACE ( 'NONE', ( #129 ), #167, .T. ) ;
#91 = DIRECTION ( 'NONE',  ( -1.000000000000000000, 0.0000000000000000000, 0.0000000000000000000 ) ) ;
#92 = DIRECTION ( 'NONE',  ( 0.0000000000000000000, 0.0000000000000000000, 1.000000000000000000 ) ) ;
#93 = CARTESIAN_POINT ( 'NONE',  ( -0.06249999999999997918, 0.0000000000000000000, 0.3566286452304176513 ) ) ;
#94 = DIRECTION ( 'NONE',  ( 0.0000000000000000000, 0.0000000000000000000, -1.000000000000000000 ) ) ;
#95 = VECTOR ( 'NONE', #146, 39.37007874015748143 ) ;
#96 = ORIENTED_EDGE ( 'NONE', *, *, #75, .F. ) ;
#97 = VECTOR ( 'NONE', #281, 39.37007874015748143 ) ;
#98 =( NAMED_UNIT ( * ) PLANE_ANGLE_UNIT ( ) SI_UNIT ( $, .RADIAN. ) );
#99 =( GEOMETRIC_REPRESENTATION_CONTEXT ( 3 ) GLOBAL_UNCERTAINTY_ASSIGNED_CONTEXT ( ( #175 ) ) GLOBAL_UNIT_ASSIGNED_CONTEXT ( ( #102, #292, #272 ) ) REPRESENTATION_CONTEXT ( 'NONE', 'WORKASPACE' ) );
#100 = SURFACE_STYLE_USAGE ( .BOTH. , #64 ) ;
#101 = DIRECTION ( 'NONE',  ( 1.000000000000000000, 0.0000000000000000000, 0.0000000000000000000 ) ) ;
#102 =( CONVERSION_BASED_UNIT ( 'INCH', #8 ) LENGTH_UNIT ( ) NAMED_UNIT ( #55 ) );
#103 = EDGE_LOOP ( 'NONE', ( #206, #47, #115, #23 ) ) ;
#104 = ADVANCED_FACE ( 'NONE', ( #66 ), #259, .T. ) ;
#105 = CARTESIAN_POINT ( 'NONE',  ( 0.04750000000000064587, 5.817072295950006528E-18, 1.500000000000000222 ) ) ;
#106 = ORIENTED_EDGE ( 'NONE', *, *, #235, .T. ) ;
#107 = DIRECTION ( 'NONE',  ( -1.000000000000000000, 0.0000000000000000000, 1.224646799147353454E-16 ) ) ;
#108 = DIRECTION ( 'NONE',  ( -1.224646799147353454E-16, -0.0000000000000000000, -1.000000000000000000 ) ) ;
#109 = CYLINDRICAL_SURFACE ( 'NONE', #31, 0.06250000000000002776 ) ;
#110 = DIRECTION ( 'NONE',  ( -1.000000000000000000, 0.0000000000000000000, 0.0000000000000000000 ) ) ;
#111 = CARTESIAN_POINT ( 'NONE',  ( 0.0000000000000000000, 0.0000000000000000000, 1.500000000000000222 ) ) ;
#112 = DIRECTION ( 'NONE',  ( -1.224646799147353454E-16, -0.0000000000000000000, -1.000000000000000000 ) ) ;
#113 = EDGE_CURVE ( 'NONE', #178, #277, #203, .T. ) ;
#114 = MECHANICAL_DESIGN_GEOMETRIC_PRESENTATION_REPRESENTATION (  '', ( #220 ), #189 ) ;
#115 = ORIENTED_EDGE ( 'NONE', *, *, #174, .F. ) ;
#116 = ORIENTED_EDGE ( 'NONE', *, *, #226, .F. ) ;
#117 = CIRCLE ( 'NONE', #18, 0.006493500000000001007 ) ;
#118 = EDGE_LOOP ( 'NONE', ( #138, #123 ) ) ;
#119 = ADVANCED_FACE ( 'NONE', ( #151 ), #65, .F. ) ;
#120 = DIRECTION ( 'NONE',  ( 1.000000000000000000, 0.0000000000000000000, 0.0000000000000000000 ) ) ;
#121 = VERTEX_POINT ( 'NONE', #240 ) ;
#122 = CARTESIAN_POINT ( 'NONE',  ( 0.006493500000000005344, 0.0000000000000000000, 0.03899999999999999994 ) ) ;
#123 = ORIENTED_EDGE ( 'NONE', *, *, #268, .T. ) ;
#124 =( CONVERSION_BASED_UNIT ( 'INCH', #34 ) LENGTH_UNIT ( ) NAMED_UNIT ( #3 ) );
#125 = PRODUCT_CONTEXT ( 'NONE', #210, 'mechanical' ) ;
#126 = EDGE_LOOP ( 'NONE', ( #78, #74, #228, #179 ) ) ;
#127 =( NAMED_UNIT ( * ) SI_UNIT ( $, .STERADIAN. ) SOLID_ANGLE_UNIT ( ) );
#128 = PRESENTATION_LAYER_ASSIGNMENT (  '', '', ( #297 ) ) ;
#129 = FACE_OUTER_BOUND ( 'NONE', #222, .T. ) ;
#130 = PRODUCT_RELATED_PRODUCT_CATEGORY ( 'part', '', ( #79 ) ) ;
#131 = DIRECTION ( 'NONE',  ( 1.000000000000000000, 0.0000000000000000000, 0.0000000000000000000 ) ) ;
#132 = DIRECTION ( 'NONE',  ( -1.224646799147353454E-16, -0.0000000000000000000, -1.000000000000000000 ) ) ;
#133 = AXIS2_PLACEMENT_3D ( 'NONE', #267, #71, #294 ) ;
#134 = DIRECTION ( 'NONE',  ( -1.000000000000000000, 0.0000000000000000000, 0.0000000000000000000 ) ) ;
#135 = AXIS2_PLACEMENT_3D ( 'NONE', #231, #12, #107 ) ;
#136 = AXIS2_PLACEMENT_3D ( 'NONE', #168, #150, #164 ) ;
#137 = ADVANCED_BREP_SHAPE_REPRESENTATION ( 'Micro_RME-013-2', ( #257, #247 ), #99 ) ;
#138 = ORIENTED_EDGE ( 'NONE', *, *, #174, .T. ) ;
#139 = FILL_AREA_STYLE_COLOUR ( '', #260 ) ;
#140 = CARTESIAN_POINT ( 'NONE',  ( -0.06250000000000002776, 0.0000000000000000000, 1.485000000000000764 ) ) ;
#141 = CARTESIAN_POINT ( 'NONE',  ( 0.0000000000000000000, 0.0000000000000000000, 1.500000000000000222 ) ) ;
#142 = CARTESIAN_POINT ( 'NONE',  ( 0.0000000000000000000, 0.0000000000000000000, 1.485000000000000764 ) ) ;
#143 = DIRECTION ( 'NONE',  ( -1.000000000000000000, 0.0000000000000000000, 0.0000000000000000000 ) ) ;
#144 = DIRECTION ( 'NONE',  ( 1.224646799147353454E-16, 0.0000000000000000000, 1.000000000000000000 ) ) ;
#145 = UNCERTAINTY_MEASURE_WITH_UNIT (LENGTH_MEASURE( 1.000000000000000082E-05 ), #256, 'distance_accuracy_value', 'NONE');
#146 = DIRECTION ( 'NONE',  ( -0.0000000000000000000, -0.0000000000000000000, -1.000000000000000000 ) ) ;
#147 = CARTESIAN_POINT ( 'NONE',  ( -0.006493499999999999273, 0.0000000000000000000, 7.952243990263338523E-19 ) ) ;
#148 = EDGE_CURVE ( 'NONE', #121, #26, #153, .T. ) ;
#149 = VECTOR ( 'NONE', #132, 39.37007874015748143 ) ;
#150 = DIRECTION ( 'NONE',  ( 0.0000000000000000000, 0.0000000000000000000, 1.000000000000000000 ) ) ;
#151 = FACE_OUTER_BOUND ( 'NONE', #118, .T. ) ;
#152 = CARTESIAN_POINT ( 'NONE',  ( 0.06250000000000002776, 7.654042494670959086E-18, 1.485000000000000764 ) ) ;
#153 = CIRCLE ( 'NONE', #188, 0.006493500000000001007 ) ;
#154 = PRESENTATION_STYLE_ASSIGNMENT (( #53 ) ) ;
#155 = ORIENTED_EDGE ( 'NONE', *, *, #226, .T. ) ;
#156 = VERTEX_POINT ( 'NONE', #152 ) ;
#157 = DIRECTION ( 'NONE',  ( 1.000000000000000000, 0.0000000000000000000, 0.0000000000000000000 ) ) ;
#158 = AXIS2_PLACEMENT_3D ( 'NONE', #250, #253, #63 ) ;
#159 = CARTESIAN_POINT ( 'NONE',  ( 4.776122516674678488E-18, 0.0000000000000000000, 0.03899999999999999994 ) ) ;
#160 = UNCERTAINTY_MEASURE_WITH_UNIT (LENGTH_MEASURE( 1.000000000000000082E-05 ), #124, 'distance_accuracy_value', 'NONE');
#161 = DIRECTION ( 'NONE',  ( -1.224646799147353454E-16, -0.0000000000000000000, -1.000000000000000000 ) ) ;
#162 = CLOSED_SHELL ( 'NONE', ( #27, #67, #104, #177, #217, #90, #270, #44, #62, #119 ) ) ;
#163 = CIRCLE ( 'NONE', #59, 0.006493499999999996670 ) ;
#164 = DIRECTION ( 'NONE',  ( 1.000000000000000000, 0.0000000000000000000, 0.0000000000000000000 ) ) ;
#165 = ORIENTED_EDGE ( 'NONE', *, *, #22, .T. ) ;
#166 = FILL_AREA_STYLE ('',( #284 ) ) ;
#167 = PLANE ( 'NONE',  #199 ) ;
#168 = CARTESIAN_POINT ( 'NONE',  ( 0.0000000000000000000, 0.0000000000000000000, 1.500000000000000222 ) ) ;
#169 = DIRECTION ( 'NONE',  ( 1.000000000000000000, 0.0000000000000000000, 0.0000000000000000000 ) ) ;
#170 = EDGE_CURVE ( 'NONE', #26, #248, #218, .T. ) ;
#171 = FACE_OUTER_BOUND ( 'NONE', #60, .T. ) ;
#172 = VECTOR ( 'NONE', #38, 39.37007874015748143 ) ;
#173 = SHAPE_DEFINITION_REPRESENTATION ( #48, #137 ) ;
#174 = EDGE_CURVE ( 'NONE', #49, #248, #163, .T. ) ;
#175 = UNCERTAINTY_MEASURE_WITH_UNIT (LENGTH_MEASURE( 1.000000000000000082E-05 ), #102, 'distance_accuracy_value', 'NONE');
#176 = ORIENTED_EDGE ( 'NONE', *, *, #75, .T. ) ;
#177 = ADVANCED_FACE ( 'NONE', ( #171 ), #246, .T. ) ;
#178 = VERTEX_POINT ( 'NONE', #93 ) ;
#179 = ORIENTED_EDGE ( 'NONE', *, *, #268, .F. ) ;
#180 = EDGE_LOOP ( 'NONE', ( #77, #116, #106, #10 ) ) ;
#181 = AXIS2_PLACEMENT_3D ( 'NONE', #244, #216, #198 ) ;
#182 = CARTESIAN_POINT ( 'NONE',  ( -0.06250000000000002776, 0.0000000000000000000, 1.500000000000000222 ) ) ;
#183 = LINE ( 'NONE', #282, #274 ) ;
#184 = LENGTH_MEASURE_WITH_UNIT ( LENGTH_MEASURE( 0.02539999999999999897 ), #254 );
#185 = CARTESIAN_POINT ( 'NONE',  ( 4.776122516674678488E-18, 0.0000000000000000000, 0.03899999999999999994 ) ) ;
#186 = DIRECTION ( 'NONE',  ( 1.224646799147353454E-16, 0.0000000000000000000, 1.000000000000000000 ) ) ;
#187 = EDGE_CURVE ( 'NONE', #277, #178, #243, .T. ) ;
#188 = AXIS2_PLACEMENT_3D ( 'NONE', #197, #245, #195 ) ;
#189 =( GEOMETRIC_REPRESENTATION_CONTEXT ( 3 ) GLOBAL_UNCERTAINTY_ASSIGNED_CONTEXT ( ( #145 ) ) GLOBAL_UNIT_ASSIGNED_CONTEXT ( ( #256, #262, #127 ) ) REPRESENTATION_CONTEXT ( 'NONE', 'WORKASPACE' ) );
#190 = PRESENTATION_STYLE_ASSIGNMENT (( #100 ) ) ;
#191 = CYLINDRICAL_SURFACE ( 'NONE', #158, 0.006493499999999999273 ) ;
#192 = CARTESIAN_POINT ( 'NONE',  ( 0.0000000000000000000, 0.0000000000000000000, 1.500000000000000222 ) ) ;
#193 = CARTESIAN_POINT ( 'NONE',  ( 0.0000000000000000000, 0.0000000000000000000, 0.0000000000000000000 ) ) ;
#194 = EDGE_CURVE ( 'NONE', #156, #45, #2, .T. ) ;
#195 = DIRECTION ( 'NONE',  ( -1.000000000000000000, 0.0000000000000000000, 0.0000000000000000000 ) ) ;
#196 = VECTOR ( 'NONE', #289, 39.37007874015748854 ) ;
#197 = CARTESIAN_POINT ( 'NONE',  ( 4.776122516674678488E-18, 0.0000000000000000000, 0.03899999999999999994 ) ) ;
#198 = DIRECTION ( 'NONE',  ( 1.000000000000000000, 0.0000000000000000000, 0.0000000000000000000 ) ) ;
#199 = AXIS2_PLACEMENT_3D ( 'NONE', #41, #69, #40 ) ;
#200 = MECHANICAL_DESIGN_GEOMETRIC_PRESENTATION_REPRESENTATION (  '', ( #297 ), #46 ) ;
#201 = ORIENTED_EDGE ( 'NONE', *, *, #249, .F. ) ;
#202 = VERTEX_POINT ( 'NONE', #288 ) ;
#203 = CIRCLE ( 'NONE', #133, 0.06250000000000002776 ) ;
#204 = ORIENTED_EDGE ( 'NONE', *, *, #298, .T. ) ;
#205 = PRODUCT_DEFINITION_CONTEXT ( 'detailed design', #266, 'design' ) ;
#206 = ORIENTED_EDGE ( 'NONE', *, *, #148, .T. ) ;
#207 = AXIS2_PLACEMENT_3D ( 'NONE', #141, #230, #28 ) ;
#208 = CARTESIAN_POINT ( 'NONE',  ( -0.006493499999999996670, 0.0000000000000000000, 1.590448798052667319E-18 ) ) ;
#209 = LINE ( 'NONE', #11, #51 ) ;
#210 = APPLICATION_CONTEXT ( 'automotive_design' ) ;
#211 = CYLINDRICAL_SURFACE ( 'NONE', #135, 0.006493499999999999273 ) ;
#212 = EDGE_CURVE ( 'NONE', #121, #49, #263, .T. ) ;
#213 =( LENGTH_UNIT ( ) NAMED_UNIT ( * ) SI_UNIT ( $, .METRE. ) );
#214 = CARTESIAN_POINT ( 'NONE',  ( 0.006493499999999996670, 7.952243990263335634E-19, -1.184750211852384294E-34 ) ) ;
#215 = EDGE_LOOP ( 'NONE', ( #33, #21, #1, #258 ) ) ;
#216 = DIRECTION ( 'NONE',  ( 0.0000000000000000000, 0.0000000000000000000, -1.000000000000000000 ) ) ;
#217 = ADVANCED_FACE ( 'NONE', ( #15 ), #109, .T. ) ;
#218 = LINE ( 'NONE', #293, #149 ) ;
#219 = CARTESIAN_POINT ( 'NONE',  ( 0.0000000000000000000, 0.0000000000000000000, 0.0000000000000000000 ) ) ;
#220 = STYLED_ITEM ( 'NONE', ( #190 ), #257 ) ;
#221 = DIRECTION ( 'NONE',  ( -0.0000000000000000000, -0.0000000000000000000, -1.000000000000000000 ) ) ;
#222 = EDGE_LOOP ( 'NONE', ( #155, #165 ) ) ;
#223 = CONICAL_SURFACE ( 'NONE', #286, 0.006493500000000001007, 0.1745329251994338637 ) ;
#224 = AXIS2_PLACEMENT_3D ( 'NONE', #19, #112, #131 ) ;
#225 = EDGE_LOOP ( 'NONE', ( #238, #176, #227, #201 ) ) ;
#226 = EDGE_CURVE ( 'NONE', #83, #202, #287, .T. ) ;
#227 = ORIENTED_EDGE ( 'NONE', *, *, #113, .T. ) ;
#228 = ORIENTED_EDGE ( 'NONE', *, *, #212, .T. ) ;
#229 = ORIENTED_EDGE ( 'NONE', *, *, #249, .T. ) ;
#230 = DIRECTION ( 'NONE',  ( 0.0000000000000000000, 0.0000000000000000000, -1.000000000000000000 ) ) ;
#231 = CARTESIAN_POINT ( 'NONE',  ( 0.0000000000000000000, 0.0000000000000000000, 0.0000000000000000000 ) ) ;
#232 = CARTESIAN_POINT ( 'NONE',  ( 0.06250000000000006939, 7.654042494670963708E-18, 0.3566286452304176513 ) ) ;
#233 = DIRECTION ( 'NONE',  ( -0.1736481776669311639, 2.126576849575783008E-17, 0.9848077530122080203 ) ) ;
#234 = AXIS2_PLACEMENT_3D ( 'NONE', #219, #264, #295 ) ;
#235 = EDGE_CURVE ( 'NONE', #83, #45, #36, .T. ) ;
#236 = ORIENTED_EDGE ( 'NONE', *, *, #187, .T. ) ;
#237 = DIRECTION ( 'NONE',  ( 0.1736481776669313581, 0.0000000000000000000, 0.9848077530122077983 ) ) ;
#238 = ORIENTED_EDGE ( 'NONE', *, *, #148, .F. ) ;
#239 = CARTESIAN_POINT ( 'NONE',  ( -0.04750000000000064587, 0.0000000000000000000, 1.500000000000000222 ) ) ;
#240 = CARTESIAN_POINT ( 'NONE',  ( -0.006493499999999996670, 4.224633446848647287E-18, 0.03899999999999999994 ) ) ;
#241 = EDGE_CURVE ( 'NONE', #156, #277, #35, .T. ) ;
#242 = AXIS2_PLACEMENT_3D ( 'NONE', #142, #86, #56 ) ;
#243 = CIRCLE ( 'NONE', #224, 0.06250000000000002776 ) ;
#244 = CARTESIAN_POINT ( 'NONE',  ( 0.0000000000000000000, 0.0000000000000000000, 1.485000000000000764 ) ) ;
#245 = DIRECTION ( 'NONE',  ( -1.224646799147353454E-16, -0.0000000000000000000, -1.000000000000000000 ) ) ;
#246 = CYLINDRICAL_SURFACE ( 'NONE', #25, 0.06250000000000002776 ) ;
#247 = AXIS2_PLACEMENT_3D ( 'NONE', #193, #92, #169 ) ;
#248 = VERTEX_POINT ( 'NONE', #214 ) ;
#249 = EDGE_CURVE ( 'NONE', #26, #277, #209, .T. ) ;
#250 = CARTESIAN_POINT ( 'NONE',  ( 0.0000000000000000000, 0.0000000000000000000, 0.0000000000000000000 ) ) ;
#251 = SURFACE_STYLE_FILL_AREA ( #50 ) ;
#252 = FACE_OUTER_BOUND ( 'NONE', #180, .T. ) ;
#253 = DIRECTION ( 'NONE',  ( -1.224646799147353454E-16, -0.0000000000000000000, -1.000000000000000000 ) ) ;
#254 =( LENGTH_UNIT ( ) NAMED_UNIT ( * ) SI_UNIT ( $, .METRE. ) );
#255 = EDGE_LOOP ( 'NONE', ( #96, #43, #229, #236 ) ) ;
#256 =( CONVERSION_BASED_UNIT ( 'INCH', #184 ) LENGTH_UNIT ( ) NAMED_UNIT ( #81 ) );
#257 = MANIFOLD_SOLID_BREP ( 'Cut-Revolve1', #162 ) ;
#258 = ORIENTED_EDGE ( 'NONE', *, *, #235, .F. ) ;
#259 = CONICAL_SURFACE ( 'NONE', #278, 0.04750000000000064587, 0.7853981633974466137 ) ;
#260 = COLOUR_RGB ( '',0.7921568627450980005, 0.8196078431372548767, 0.9333333333333333481 ) ;
#261 = FACE_OUTER_BOUND ( 'NONE', #103, .T. ) ;
#262 =( NAMED_UNIT ( * ) PLANE_ANGLE_UNIT ( ) SI_UNIT ( $, .RADIAN. ) );
#263 = LINE ( 'NONE', #147, #172 ) ;
#264 = DIRECTION ( 'NONE',  ( 0.0000000000000000000, 0.0000000000000000000, 1.000000000000000000 ) ) ;
#265 = EDGE_CURVE ( 'NONE', #202, #156, #57, .T. ) ;
#266 = APPLICATION_CONTEXT ( 'automotive_design' ) ;
#267 = CARTESIAN_POINT ( 'NONE',  ( 4.367441288656881593E-17, 0.0000000000000000000, 0.3566286452304176513 ) ) ;
#268 = EDGE_CURVE ( 'NONE', #248, #49, #76, .T. ) ;
#269 = CONICAL_SURFACE ( 'NONE', #37, 0.006493500000000001007, 0.1745329251994338637 ) ;
#270 = ADVANCED_FACE ( 'NONE', ( #252 ), #39, .T. ) ;
#271 = ORIENTED_EDGE ( 'NONE', *, *, #298, .F. ) ;
#272 =( NAMED_UNIT ( * ) SI_UNIT ( $, .STERADIAN. ) SOLID_ANGLE_UNIT ( ) );
#273 = SURFACE_SIDE_STYLE ('',( #251 ) ) ;
#274 = VECTOR ( 'NONE', #233, 39.37007874015747433 ) ;
#275 = COLOUR_RGB ( '',0.7921568627450980005, 0.8196078431372548767, 0.9333333333333333481 ) ;
#276 = EDGE_CURVE ( 'NONE', #26, #121, #117, .T. ) ;
#277 = VERTEX_POINT ( 'NONE', #232 ) ;
#278 = AXIS2_PLACEMENT_3D ( 'NONE', #111, #94, #110 ) ;
#279 = AXIS2_PLACEMENT_3D ( 'NONE', #61, #108, #89 ) ;
#280 = FACE_OUTER_BOUND ( 'NONE', #255, .T. ) ;
#281 = DIRECTION ( 'NONE',  ( -0.0000000000000000000, -0.0000000000000000000, -1.000000000000000000 ) ) ;
#282 = CARTESIAN_POINT ( 'NONE',  ( -0.006493499999999996670, 7.952243990263339486E-19, 0.03899999999999999994 ) ) ;
#283 = CARTESIAN_POINT ( 'NONE',  ( 0.0000000000000000000, 0.0000000000000000000, 1.500000000000000222 ) ) ;
#284 = FILL_AREA_STYLE_COLOUR ( '', #275 ) ;
#285 = ORIENTED_EDGE ( 'NONE', *, *, #113, .F. ) ;
#286 = AXIS2_PLACEMENT_3D ( 'NONE', #159, #186, #157 ) ;
#287 = CIRCLE ( 'NONE', #136, 0.04750000000000064587 ) ;
#288 = CARTESIAN_POINT ( 'NONE',  ( 0.04750000000000064587, 6.735557395310483192E-18, 1.500000000000000222 ) ) ;
#289 = DIRECTION ( 'NONE',  ( -0.7071067811865462405, 0.0000000000000000000, -0.7071067811865486830 ) ) ;
#290 = PRODUCT_DEFINITION ( 'UNKNOWN', '', #13, #205 ) ;
#291 = DIRECTION ( 'NONE',  ( -0.0000000000000000000, -0.0000000000000000000, -1.000000000000000000 ) ) ;
#292 =( NAMED_UNIT ( * ) PLANE_ANGLE_UNIT ( ) SI_UNIT ( $, .RADIAN. ) );
#293 = CARTESIAN_POINT ( 'NONE',  ( 0.006493499999999999273, 7.952243990263336597E-19, -7.952243990263338523E-19 ) ) ;
#294 = DIRECTION ( 'NONE',  ( 1.000000000000000000, 0.0000000000000000000, 0.0000000000000000000 ) ) ;
#295 = DIRECTION ( 'NONE',  ( 1.000000000000000000, 0.0000000000000000000, -0.0000000000000000000 ) ) ;
#296 = CIRCLE ( 'NONE', #242, 0.06250000000000002776 ) ;
#297 = STYLED_ITEM ( 'NONE', ( #154 ), #137 ) ;
#298 = EDGE_CURVE ( 'NONE', #45, #178, #5, .T. ) ;
#299 = ORIENTED_EDGE ( 'NONE', *, *, #241, .F. ) ;
ENDSEC;
END-ISO-10303-21;
