ISO-10303-21;
HEADER;
FILE_DESCRIPTION (( 'STEP AP214' ),
    '1' );
FILE_NAME ('59739.STEP',
    '2023-07-24T15:55:28',
    ( '' ),
    ( '' ),
    'SwSTEP 2.0',
    'SolidWorks 2023',
    '' );
FILE_SCHEMA (( 'AUTOMOTIVE_DESIGN' ));
ENDSEC;

DATA;
#1 = VERTEX_POINT ( 'NONE', #258 ) ;
#2 =( LENGTH_UNIT ( ) NAMED_UNIT ( * ) SI_UNIT ( .MILLI., .METRE. ) );
#3 = CIRCLE ( 'NONE', #188, 5.000000000000000000 ) ;
#4 = CARTESIAN_POINT ( 'NONE',  ( -5.000000000000000000, 20.00000000000000355, 0.000000000000000000 ) ) ;
#5 = ADVANCED_FACE ( 'NONE', ( #199 ), #105, .F. ) ;
#6 = CARTESIAN_POINT ( 'NONE',  ( 0.000000000000000000, 0.000000000000000000, 0.000000000000000000 ) ) ;
#7 = EDGE_LOOP ( 'NONE', ( #191, #152 ) ) ;
#8 = CARTESIAN_POINT ( 'NONE',  ( 5.000000000000000000, 63.00000000000000000, 0.000000000000000000 ) ) ;
#9 = AXIS2_PLACEMENT_3D ( 'NONE', #275, #248, #225 ) ;
#10 = SURFACE_SIDE_STYLE ('',( #32 ) ) ;
#11 = FACE_OUTER_BOUND ( 'NONE', #224, .T. ) ;
#12 = ADVANCED_FACE ( 'NONE', ( #35 ), #143, .F. ) ;
#13 = LINE ( 'NONE', #101, #241 ) ;
#14 = CARTESIAN_POINT ( 'NONE',  ( 6.123233995736766282E-16, 0.000000000000000000, 5.000000000000000000 ) ) ;
#15 = APPLICATION_CONTEXT ( 'automotive_design' ) ;
#16 = CIRCLE ( 'NONE', #111, 4.999999999999996447 ) ;
#17 = DIRECTION ( 'NONE',  ( -0.000000000000000000, -1.000000000000000000, -0.000000000000000000 ) ) ;
#18 = LINE ( 'NONE', #166, #40 ) ;
#19 = APPLICATION_PROTOCOL_DEFINITION ( 'draft international standard', 'automotive_design', 1998, #282 ) ;
#20 = DIRECTION ( 'NONE',  ( 7.404841111123529214E-17, 1.000000000000000000, -0.000000000000000000 ) ) ;
#21 = CARTESIAN_POINT ( 'NONE',  ( 0.000000000000000000, 0.000000000000000000, 0.000000000000000000 ) ) ;
#22 = ORIENTED_EDGE ( 'NONE', *, *, #279, .T. ) ;
#23 = COLOUR_RGB ( '',0.7921568627450980005, 0.8196078431372548767, 0.9333333333333333481 ) ;
#24 = AXIS2_PLACEMENT_3D ( 'NONE', #197, #28, #98 ) ;
#25 = CARTESIAN_POINT ( 'NONE',  ( -4.999999999999994671, 63.00000000000000000, 0.000000000000000000 ) ) ;
#26 =( NAMED_UNIT ( * ) PLANE_ANGLE_UNIT ( ) SI_UNIT ( $, .RADIAN. ) );
#27 = SURFACE_SIDE_STYLE ('',( #112 ) ) ;
#28 = DIRECTION ( 'NONE',  ( 7.404841111123529214E-17, 1.000000000000000000, -0.000000000000000000 ) ) ;
#29 = EDGE_CURVE ( 'NONE', #1, #283, #13, .T. ) ;
#30 = PRESENTATION_STYLE_ASSIGNMENT (( #57 ) ) ;
#31 = DIRECTION ( 'NONE',  ( 0.000000000000000000, 0.000000000000000000, -1.000000000000000000 ) ) ;
#32 = SURFACE_STYLE_FILL_AREA ( #270 ) ;
#33 = SURFACE_STYLE_FILL_AREA ( #81 ) ;
#34 = CARTESIAN_POINT ( 'NONE',  ( 3.184081677783117402E-15, 63.00000000000000000, 0.000000000000000000 ) ) ;
#35 = FACE_OUTER_BOUND ( 'NONE', #38, .T. ) ;
#36 = DIRECTION ( 'NONE',  ( 7.404841111123529214E-17, 1.000000000000000000, -0.000000000000000000 ) ) ;
#37 = CYLINDRICAL_SURFACE ( 'NONE', #249, 5.000000000000000000 ) ;
#38 = EDGE_LOOP ( 'NONE', ( #151, #127 ) ) ;
#39 = VECTOR ( 'NONE', #172, 1000.000000000000000 ) ;
#40 = VECTOR ( 'NONE', #126, 1000.000000000000000 ) ;
#41 = CARTESIAN_POINT ( 'NONE',  ( 0.000000000000000000, 20.00000000000000000, 0.000000000000000000 ) ) ;
#42 = ORIENTED_EDGE ( 'NONE', *, *, #150, .T. ) ;
#43 = SURFACE_STYLE_USAGE ( .BOTH. , #47 ) ;
#44 =( GEOMETRIC_REPRESENTATION_CONTEXT ( 3 ) GLOBAL_UNCERTAINTY_ASSIGNED_CONTEXT ( ( #69 ) ) GLOBAL_UNIT_ASSIGNED_CONTEXT ( ( #100, #120, #107 ) ) REPRESENTATION_CONTEXT ( 'NONE', 'WORKASPACE' ) );
#45 = PRESENTATION_STYLE_ASSIGNMENT (( #217 ) ) ;
#46 = ORIENTED_EDGE ( 'NONE', *, *, #215, .F. ) ;
#47 = SURFACE_SIDE_STYLE ('',( #281 ) ) ;
#48 =( NAMED_UNIT ( * ) PLANE_ANGLE_UNIT ( ) SI_UNIT ( $, .RADIAN. ) );
#49 = CIRCLE ( 'NONE', #24, 5.000000000000000000 ) ;
#50 = ORIENTED_EDGE ( 'NONE', *, *, #179, .T. ) ;
#51 = ADVANCED_BREP_SHAPE_REPRESENTATION ( '59739', ( #53, #232, #148 ), #250 ) ;
#52 = FILL_AREA_STYLE_COLOUR ( '', #254 ) ;
#53 = MANIFOLD_SOLID_BREP ( 'Revolve - Cutting Edge', #272 ) ;
#54 = EDGE_CURVE ( 'NONE', #73, #1, #161, .T. ) ;
#55 = PLANE ( 'NONE',  #129 ) ;
#56 = STYLED_ITEM ( 'NONE', ( #220 ), #104 ) ;
#57 = SURFACE_STYLE_USAGE ( .BOTH. , #255 ) ;
#58 = SURFACE_STYLE_USAGE ( .BOTH. , #274 ) ;
#59 = PRESENTATION_STYLE_ASSIGNMENT (( #183 ) ) ;
#60 =( GEOMETRIC_REPRESENTATION_CONTEXT ( 3 ) GLOBAL_UNCERTAINTY_ASSIGNED_CONTEXT ( ( #115 ) ) GLOBAL_UNIT_ASSIGNED_CONTEXT ( ( #202, #121, #77 ) ) REPRESENTATION_CONTEXT ( 'NONE', 'WORKASPACE' ) );
#61 = MECHANICAL_DESIGN_GEOMETRIC_PRESENTATION_REPRESENTATION (  '', ( #87 ), #44 ) ;
#62 =( LENGTH_UNIT ( ) NAMED_UNIT ( * ) SI_UNIT ( .MILLI., .METRE. ) );
#63 = CARTESIAN_POINT ( 'NONE',  ( -4.999999999999992895, 63.00000000000000000, 0.000000000000000000 ) ) ;
#64 = FACE_OUTER_BOUND ( 'NONE', #214, .T. ) ;
#65 = VERTEX_POINT ( 'NONE', #14 ) ;
#66 = DIRECTION ( 'NONE',  ( 0.000000000000000000, 0.000000000000000000, -1.000000000000000000 ) ) ;
#67 = EDGE_LOOP ( 'NONE', ( #264, #132 ) ) ;
#68 = COLOUR_RGB ( '',1.000000000000000000, 0.000000000000000000, 0.000000000000000000 ) ;
#69 = UNCERTAINTY_MEASURE_WITH_UNIT (LENGTH_MEASURE( 1.000000000000000082E-05 ), #100, 'distance_accuracy_value', 'NONE');
#70 = PRODUCT_DEFINITION_FORMATION_WITH_SPECIFIED_SOURCE ( 'ANY', '', #158, .NOT_KNOWN. ) ;
#71 = FACE_OUTER_BOUND ( 'NONE', #67, .T. ) ;
#72 = EDGE_LOOP ( 'NONE', ( #233, #147 ) ) ;
#73 = VERTEX_POINT ( 'NONE', #164 ) ;
#74 = UNCERTAINTY_MEASURE_WITH_UNIT (LENGTH_MEASURE( 1.000000000000000082E-05 ), #79, 'distance_accuracy_value', 'NONE');
#75 = COLOUR_RGB ( '',1.000000000000000000, 0.000000000000000000, 0.000000000000000000 ) ;
#76 = EDGE_CURVE ( 'NONE', #236, #170, #222, .T. ) ;
#77 =( NAMED_UNIT ( * ) SI_UNIT ( $, .STERADIAN. ) SOLID_ANGLE_UNIT ( ) );
#78 = CARTESIAN_POINT ( 'NONE',  ( 0.000000000000000000, 0.000000000000000000, 0.000000000000000000 ) ) ;
#79 =( LENGTH_UNIT ( ) NAMED_UNIT ( * ) SI_UNIT ( .MILLI., .METRE. ) );
#80 = STYLED_ITEM ( 'NONE', ( #276 ), #103 ) ;
#81 = FILL_AREA_STYLE ('',( #139 ) ) ;
#82 = CARTESIAN_POINT ( 'NONE',  ( 0.000000000000000000, 0.000000000000000000, 0.000000000000000000 ) ) ;
#83 = SURFACE_SIDE_STYLE ('',( #185 ) ) ;
#84 = DIRECTION ( 'NONE',  ( 0.000000000000000000, 0.000000000000000000, 1.000000000000000000 ) ) ;
#85 = FILL_AREA_STYLE ('',( #226 ) ) ;
#86 =( NAMED_UNIT ( * ) PLANE_ANGLE_UNIT ( ) SI_UNIT ( $, .RADIAN. ) );
#87 = STYLED_ITEM ( 'NONE', ( #30 ), #232 ) ;
#88 = PRODUCT_DEFINITION_SHAPE ( 'NONE', 'NONE',  #114 ) ;
#89 = DIRECTION ( 'NONE',  ( 1.000000000000000000, 0.000000000000000000, 0.000000000000000000 ) ) ;
#90 = CARTESIAN_POINT ( 'NONE',  ( 3.184081677783117402E-15, 63.00000000000000000, 0.000000000000000000 ) ) ;
#91 = EDGE_LOOP ( 'NONE', ( #113, #175, #238, #198 ) ) ;
#92 = PRESENTATION_LAYER_ASSIGNMENT (  '', '', ( #56 ) ) ;
#93 = PRESENTATION_LAYER_ASSIGNMENT (  '', '', ( #87 ) ) ;
#94 = LINE ( 'NONE', #25, #169 ) ;
#95 = FILL_AREA_STYLE_COLOUR ( '', #75 ) ;
#96 =( NAMED_UNIT ( * ) SI_UNIT ( $, .STERADIAN. ) SOLID_ANGLE_UNIT ( ) );
#97 = ORIENTED_EDGE ( 'NONE', *, *, #116, .T. ) ;
#98 = DIRECTION ( 'NONE',  ( -1.000000000000000000, 0.000000000000000000, 0.000000000000000000 ) ) ;
#99 = ORIENTED_EDGE ( 'NONE', *, *, #160, .F. ) ;
#100 =( LENGTH_UNIT ( ) NAMED_UNIT ( * ) SI_UNIT ( .MILLI., .METRE. ) );
#101 = CARTESIAN_POINT ( 'NONE',  ( 0.000000000000000000, 0.000000000000000000, -5.000000000000000000 ) ) ;
#102 = DIRECTION ( 'NONE',  ( 0.000000000000000000, 0.000000000000000000, -1.000000000000000000 ) ) ;
#103 = ADVANCED_FACE ( 'NONE', ( #141 ), #37, .T. ) ;
#104 = ADVANCED_FACE ( 'NONE', ( #192 ), #108, .T. ) ;
#105 = PLANE ( 'NONE',  #110 ) ;
#106 =( GEOMETRIC_REPRESENTATION_CONTEXT ( 3 ) GLOBAL_UNCERTAINTY_ASSIGNED_CONTEXT ( ( #174 ) ) GLOBAL_UNIT_ASSIGNED_CONTEXT ( ( #2, #134, #96 ) ) REPRESENTATION_CONTEXT ( 'NONE', 'WORKASPACE' ) );
#107 =( NAMED_UNIT ( * ) SI_UNIT ( $, .STERADIAN. ) SOLID_ANGLE_UNIT ( ) );
#108 = CYLINDRICAL_SURFACE ( 'NONE', #168, 5.000000000000000000 ) ;
#109 = FILL_AREA_STYLE_COLOUR ( '', #68 ) ;
#110 = AXIS2_PLACEMENT_3D ( 'NONE', #8, #122, #256 ) ;
#111 = AXIS2_PLACEMENT_3D ( 'NONE', #237, #194, #171 ) ;
#112 = SURFACE_STYLE_FILL_AREA ( #262 ) ;
#113 = ORIENTED_EDGE ( 'NONE', *, *, #284, .F. ) ;
#114 = PRODUCT_DEFINITION ( 'UNKNOWN', '', #70, #219 ) ;
#115 = UNCERTAINTY_MEASURE_WITH_UNIT (LENGTH_MEASURE( 1.000000000000000082E-05 ), #202, 'distance_accuracy_value', 'NONE');
#116 = EDGE_CURVE ( 'NONE', #1, #73, #140, .T. ) ;
#117 =( GEOMETRIC_REPRESENTATION_CONTEXT ( 3 ) GLOBAL_UNCERTAINTY_ASSIGNED_CONTEXT ( ( #267 ) ) GLOBAL_UNIT_ASSIGNED_CONTEXT ( ( #137, #48, #203 ) ) REPRESENTATION_CONTEXT ( 'NONE', 'WORKASPACE' ) );
#118 = DIRECTION ( 'NONE',  ( 0.000000000000000000, -1.000000000000000000, -0.000000000000000000 ) ) ;
#119 = PRESENTATION_LAYER_ASSIGNMENT (  '', '', ( #230 ) ) ;
#120 =( NAMED_UNIT ( * ) PLANE_ANGLE_UNIT ( ) SI_UNIT ( $, .RADIAN. ) );
#121 =( NAMED_UNIT ( * ) PLANE_ANGLE_UNIT ( ) SI_UNIT ( $, .RADIAN. ) );
#122 = DIRECTION ( 'NONE',  ( -7.404841111123529214E-17, -1.000000000000000000, 0.000000000000000000 ) ) ;
#123 = COLOUR_RGB ( '',1.000000000000000000, 0.000000000000000000, 0.000000000000000000 ) ;
#124 = CARTESIAN_POINT ( 'NONE',  ( 0.000000000000000000, 0.000000000000000000, 0.000000000000000000 ) ) ;
#125 = CARTESIAN_POINT ( 'NONE',  ( 0.000000000000000000, 0.000000000000000000, -5.000000000000000000 ) ) ;
#126 = DIRECTION ( 'NONE',  ( -0.000000000000000000, -1.000000000000000000, -0.000000000000000000 ) ) ;
#127 = ORIENTED_EDGE ( 'NONE', *, *, #279, .F. ) ;
#128 = CYLINDRICAL_SURFACE ( 'NONE', #277, 4.999999999999998224 ) ;
#129 = AXIS2_PLACEMENT_3D ( 'NONE', #6, #118, #252 ) ;
#130 = ORIENTED_EDGE ( 'NONE', *, *, #29, .F. ) ;
#131 = DIRECTION ( 'NONE',  ( 7.404841111123529214E-17, 1.000000000000000000, -0.000000000000000000 ) ) ;
#132 = ORIENTED_EDGE ( 'NONE', *, *, #54, .F. ) ;
#133 = ORIENTED_EDGE ( 'NONE', *, *, #179, .F. ) ;
#134 =( NAMED_UNIT ( * ) PLANE_ANGLE_UNIT ( ) SI_UNIT ( $, .RADIAN. ) );
#135 = AXIS2_PLACEMENT_3D ( 'NONE', #182, #163, #251 ) ;
#136 = SURFACE_STYLE_USAGE ( .BOTH. , #10 ) ;
#137 =( LENGTH_UNIT ( ) NAMED_UNIT ( * ) SI_UNIT ( .MILLI., .METRE. ) );
#138 = FACE_OUTER_BOUND ( 'NONE', #72, .T. ) ;
#139 = FILL_AREA_STYLE_COLOUR ( '', #123 ) ;
#140 = CIRCLE ( 'NONE', #176, 5.000000000000000000 ) ;
#141 = FACE_OUTER_BOUND ( 'NONE', #91, .T. ) ;
#142 = FILL_AREA_STYLE_COLOUR ( '', #177 ) ;
#143 = PLANE ( 'NONE',  #200 ) ;
#144 = CLOSED_SHELL ( 'NONE', ( #246, #12, #153, #5 ) ) ;
#145 =( GEOMETRIC_REPRESENTATION_CONTEXT ( 3 ) GLOBAL_UNCERTAINTY_ASSIGNED_CONTEXT ( ( #184 ) ) GLOBAL_UNIT_ASSIGNED_CONTEXT ( ( #195, #26, #288 ) ) REPRESENTATION_CONTEXT ( 'NONE', 'WORKASPACE' ) );
#146 = DIRECTION ( 'NONE',  ( -0.000000000000000000, -1.000000000000000000, -0.000000000000000000 ) ) ;
#147 = ORIENTED_EDGE ( 'NONE', *, *, #173, .T. ) ;
#148 = AXIS2_PLACEMENT_3D ( 'NONE', #82, #84, #89 ) ;
#149 = FILL_AREA_STYLE ('',( #109 ) ) ;
#150 = EDGE_CURVE ( 'NONE', #218, #170, #287, .T. ) ;
#151 = ORIENTED_EDGE ( 'NONE', *, *, #208, .F. ) ;
#152 = ORIENTED_EDGE ( 'NONE', *, *, #160, .T. ) ;
#153 = ADVANCED_FACE ( 'NONE', ( #64 ), #247, .T. ) ;
#154 = AXIS2_PLACEMENT_3D ( 'NONE', #209, #36, #260 ) ;
#155 = PLANE ( 'NONE',  #9 ) ;
#156 = CARTESIAN_POINT ( 'NONE',  ( 5.000000000000001776, 63.00000000000000000, 6.123233995736764310E-16 ) ) ;
#157 = EDGE_LOOP ( 'NONE', ( #97, #245, #46, #130 ) ) ;
#158 = PRODUCT ( '59739', '59739', '', ( #257 ) ) ;
#159 = DIRECTION ( 'NONE',  ( -0.000000000000000000, -1.000000000000000000, -0.000000000000000000 ) ) ;
#160 = EDGE_CURVE ( 'NONE', #170, #236, #16, .T. ) ;
#161 = CIRCLE ( 'NONE', #212, 5.000000000000000000 ) ;
#162 = DIRECTION ( 'NONE',  ( -0.000000000000000000, -1.000000000000000000, -0.000000000000000000 ) ) ;
#163 = DIRECTION ( 'NONE',  ( 7.404841111123529214E-17, 1.000000000000000000, -0.000000000000000000 ) ) ;
#164 = CARTESIAN_POINT ( 'NONE',  ( 6.123233995736766282E-16, 20.00000000000000000, 5.000000000000000000 ) ) ;
#165 = PRESENTATION_LAYER_ASSIGNMENT (  '', '', ( #205 ) ) ;
#166 = CARTESIAN_POINT ( 'NONE',  ( 6.123233995736766282E-16, 0.000000000000000000, 5.000000000000000000 ) ) ;
#167 = DIRECTION ( 'NONE',  ( 0.000000000000000000, 0.000000000000000000, -1.000000000000000000 ) ) ;
#168 = AXIS2_PLACEMENT_3D ( 'NONE', #178, #239, #167 ) ;
#169 = VECTOR ( 'NONE', #131, 1000.000000000000000 ) ;
#170 = VERTEX_POINT ( 'NONE', #213 ) ;
#171 = DIRECTION ( 'NONE',  ( -1.000000000000000000, 0.000000000000000000, 0.000000000000000000 ) ) ;
#172 = DIRECTION ( 'NONE',  ( 7.404841111123529214E-17, 1.000000000000000000, -0.000000000000000000 ) ) ;
#173 = EDGE_CURVE ( 'NONE', #65, #283, #259, .T. ) ;
#174 = UNCERTAINTY_MEASURE_WITH_UNIT (LENGTH_MEASURE( 1.000000000000000082E-05 ), #2, 'distance_accuracy_value', 'NONE');
#175 = ORIENTED_EDGE ( 'NONE', *, *, #54, .T. ) ;
#176 = AXIS2_PLACEMENT_3D ( 'NONE', #41, #240, #268 ) ;
#177 = COLOUR_RGB ( '',0.7921568627450980005, 0.8196078431372548767, 0.9333333333333333481 ) ;
#178 = CARTESIAN_POINT ( 'NONE',  ( 0.000000000000000000, 0.000000000000000000, 0.000000000000000000 ) ) ;
#179 = EDGE_CURVE ( 'NONE', #228, #236, #94, .T. ) ;
#180 = SURFACE_STYLE_FILL_AREA ( #223 ) ;
#181 = MECHANICAL_DESIGN_GEOMETRIC_PRESENTATION_REPRESENTATION (  '', ( #230 ), #60 ) ;
#182 = CARTESIAN_POINT ( 'NONE',  ( 3.184081677783117402E-15, 63.00000000000000000, 0.000000000000000000 ) ) ;
#183 = SURFACE_STYLE_USAGE ( .BOTH. , #83 ) ;
#184 = UNCERTAINTY_MEASURE_WITH_UNIT (LENGTH_MEASURE( 1.000000000000000082E-05 ), #195, 'distance_accuracy_value', 'NONE');
#185 = SURFACE_STYLE_FILL_AREA ( #85 ) ;
#186 = DIRECTION ( 'NONE',  ( 7.404841111123529214E-17, 1.000000000000000000, -0.000000000000000000 ) ) ;
#187 =( GEOMETRIC_REPRESENTATION_CONTEXT ( 3 ) GLOBAL_UNCERTAINTY_ASSIGNED_CONTEXT ( ( #74 ) ) GLOBAL_UNIT_ASSIGNED_CONTEXT ( ( #79, #207, #204 ) ) REPRESENTATION_CONTEXT ( 'NONE', 'WORKASPACE' ) );
#188 = AXIS2_PLACEMENT_3D ( 'NONE', #78, #162, #31 ) ;
#189 = DIRECTION ( 'NONE',  ( 0.000000000000000000, 0.000000000000000000, -1.000000000000000000 ) ) ;
#190 = ADVANCED_FACE ( 'NONE', ( #71 ), #155, .T. ) ;
#191 = ORIENTED_EDGE ( 'NONE', *, *, #76, .T. ) ;
#192 = FACE_OUTER_BOUND ( 'NONE', #157, .T. ) ;
#193 = ORIENTED_EDGE ( 'NONE', *, *, #76, .F. ) ;
#194 = DIRECTION ( 'NONE',  ( 7.404841111123529214E-17, 1.000000000000000000, -0.000000000000000000 ) ) ;
#195 =( LENGTH_UNIT ( ) NAMED_UNIT ( * ) SI_UNIT ( .MILLI., .METRE. ) );
#196 = STYLED_ITEM ( 'NONE', ( #45 ), #190 ) ;
#197 = CARTESIAN_POINT ( 'NONE',  ( 0.000000000000000000, 20.00000000000000355, 0.000000000000000000 ) ) ;
#198 = ORIENTED_EDGE ( 'NONE', *, *, #173, .F. ) ;
#199 = FACE_OUTER_BOUND ( 'NONE', #7, .T. ) ;
#200 = AXIS2_PLACEMENT_3D ( 'NONE', #253, #186, #278 ) ;
#201 = PRESENTATION_STYLE_ASSIGNMENT (( #136 ) ) ;
#202 =( LENGTH_UNIT ( ) NAMED_UNIT ( * ) SI_UNIT ( .MILLI., .METRE. ) );
#203 =( NAMED_UNIT ( * ) SI_UNIT ( $, .STERADIAN. ) SOLID_ANGLE_UNIT ( ) );
#204 =( NAMED_UNIT ( * ) SI_UNIT ( $, .STERADIAN. ) SOLID_ANGLE_UNIT ( ) );
#205 = STYLED_ITEM ( 'NONE', ( #201 ), #221 ) ;
#206 = SHAPE_DEFINITION_REPRESENTATION ( #88, #51 ) ;
#207 =( NAMED_UNIT ( * ) PLANE_ANGLE_UNIT ( ) SI_UNIT ( $, .RADIAN. ) );
#208 = EDGE_CURVE ( 'NONE', #228, #218, #49, .T. ) ;
#209 = CARTESIAN_POINT ( 'NONE',  ( 0.000000000000000000, 20.00000000000000355, 0.000000000000000000 ) ) ;
#210 = APPLICATION_PROTOCOL_DEFINITION ( 'draft international standard', 'automotive_design', 1998, #15 ) ;
#211 = ORIENTED_EDGE ( 'NONE', *, *, #150, .F. ) ;
#212 = AXIS2_PLACEMENT_3D ( 'NONE', #231, #146, #102 ) ;
#213 = CARTESIAN_POINT ( 'NONE',  ( 5.000000000000000000, 63.00000000000000000, 6.123233995736765296E-16 ) ) ;
#214 = EDGE_LOOP ( 'NONE', ( #211, #22, #50, #99 ) ) ;
#215 = EDGE_CURVE ( 'NONE', #283, #65, #3, .T. ) ;
#216 = PRESENTATION_LAYER_ASSIGNMENT (  '', '', ( #80 ) ) ;
#217 = SURFACE_STYLE_USAGE ( .BOTH. , #27 ) ;
#218 = VERTEX_POINT ( 'NONE', #271 ) ;
#219 = PRODUCT_DEFINITION_CONTEXT ( 'detailed design', #282, 'design' ) ;
#220 = PRESENTATION_STYLE_ASSIGNMENT (( #43 ) ) ;
#221 = ADVANCED_FACE ( 'NONE', ( #138 ), #55, .T. ) ;
#222 = CIRCLE ( 'NONE', #135, 4.999999999999996447 ) ;
#223 = FILL_AREA_STYLE ('',( #142 ) ) ;
#224 = EDGE_LOOP ( 'NONE', ( #261, #42, #193, #133 ) ) ;
#225 = DIRECTION ( 'NONE',  ( 0.000000000000000000, -0.000000000000000000, 1.000000000000000000 ) ) ;
#226 = FILL_AREA_STYLE_COLOUR ( '', #23 ) ;
#227 =( NAMED_UNIT ( * ) SI_UNIT ( $, .STERADIAN. ) SOLID_ANGLE_UNIT ( ) );
#228 = VERTEX_POINT ( 'NONE', #4 ) ;
#229 = DIRECTION ( 'NONE',  ( -1.000000000000000000, 0.000000000000000000, 0.000000000000000000 ) ) ;
#230 = STYLED_ITEM ( 'NONE', ( #59 ), #53 ) ;
#231 = CARTESIAN_POINT ( 'NONE',  ( 0.000000000000000000, 20.00000000000000000, 0.000000000000000000 ) ) ;
#232 = MANIFOLD_SOLID_BREP ( 'Revolve - Tool Body (Straight Shanked)', #144 ) ;
#233 = ORIENTED_EDGE ( 'NONE', *, *, #215, .T. ) ;
#234 = MECHANICAL_DESIGN_GEOMETRIC_PRESENTATION_REPRESENTATION (  '', ( #80 ), #187 ) ;
#235 = AXIS2_PLACEMENT_3D ( 'NONE', #21, #286, #66 ) ;
#236 = VERTEX_POINT ( 'NONE', #63 ) ;
#237 = CARTESIAN_POINT ( 'NONE',  ( 3.184081677783117402E-15, 63.00000000000000000, 0.000000000000000000 ) ) ;
#238 = ORIENTED_EDGE ( 'NONE', *, *, #29, .T. ) ;
#239 = DIRECTION ( 'NONE',  ( -0.000000000000000000, -1.000000000000000000, -0.000000000000000000 ) ) ;
#240 = DIRECTION ( 'NONE',  ( -0.000000000000000000, -1.000000000000000000, -0.000000000000000000 ) ) ;
#241 = VECTOR ( 'NONE', #159, 1000.000000000000000 ) ;
#242 = AXIS2_PLACEMENT_3D ( 'NONE', #90, #244, #263 ) ;
#243 = UNCERTAINTY_MEASURE_WITH_UNIT (LENGTH_MEASURE( 1.000000000000000082E-05 ), #62, 'distance_accuracy_value', 'NONE');
#244 = DIRECTION ( 'NONE',  ( 7.404841111123529214E-17, 1.000000000000000000, -0.000000000000000000 ) ) ;
#245 = ORIENTED_EDGE ( 'NONE', *, *, #284, .T. ) ;
#246 = ADVANCED_FACE ( 'NONE', ( #11 ), #128, .T. ) ;
#247 = CYLINDRICAL_SURFACE ( 'NONE', #242, 4.999999999999998224 ) ;
#248 = DIRECTION ( 'NONE',  ( 0.000000000000000000, 1.000000000000000000, 0.000000000000000000 ) ) ;
#249 = AXIS2_PLACEMENT_3D ( 'NONE', #124, #17, #189 ) ;
#250 =( GEOMETRIC_REPRESENTATION_CONTEXT ( 3 ) GLOBAL_UNCERTAINTY_ASSIGNED_CONTEXT ( ( #243 ) ) GLOBAL_UNIT_ASSIGNED_CONTEXT ( ( #62, #86, #227 ) ) REPRESENTATION_CONTEXT ( 'NONE', 'WORKASPACE' ) );
#251 = DIRECTION ( 'NONE',  ( -1.000000000000000000, 0.000000000000000000, 0.000000000000000000 ) ) ;
#252 = DIRECTION ( 'NONE',  ( 0.000000000000000000, 0.000000000000000000, -1.000000000000000000 ) ) ;
#253 = CARTESIAN_POINT ( 'NONE',  ( 1.370791797024628714E-32, 20.00000000000000000, 0.000000000000000000 ) ) ;
#254 = COLOUR_RGB ( '',1.000000000000000000, 0.000000000000000000, 0.000000000000000000 ) ;
#255 = SURFACE_SIDE_STYLE ('',( #180 ) ) ;
#256 = DIRECTION ( 'NONE',  ( 1.000000000000000000, -7.404841111123529214E-17, 0.000000000000000000 ) ) ;
#257 = PRODUCT_CONTEXT ( 'NONE', #15, 'mechanical' ) ;
#258 = CARTESIAN_POINT ( 'NONE',  ( 0.000000000000000000, 20.00000000000000000, -5.000000000000000000 ) ) ;
#259 = CIRCLE ( 'NONE', #235, 5.000000000000000000 ) ;
#260 = DIRECTION ( 'NONE',  ( -1.000000000000000000, 0.000000000000000000, 0.000000000000000000 ) ) ;
#261 = ORIENTED_EDGE ( 'NONE', *, *, #208, .T. ) ;
#262 = FILL_AREA_STYLE ('',( #95 ) ) ;
#263 = DIRECTION ( 'NONE',  ( -1.000000000000000000, 0.000000000000000000, 0.000000000000000000 ) ) ;
#264 = ORIENTED_EDGE ( 'NONE', *, *, #116, .F. ) ;
#265 = MECHANICAL_DESIGN_GEOMETRIC_PRESENTATION_REPRESENTATION (  '', ( #56 ), #106 ) ;
#266 = MECHANICAL_DESIGN_GEOMETRIC_PRESENTATION_REPRESENTATION (  '', ( #205 ), #117 ) ;
#267 = UNCERTAINTY_MEASURE_WITH_UNIT (LENGTH_MEASURE( 1.000000000000000082E-05 ), #137, 'distance_accuracy_value', 'NONE');
#268 = DIRECTION ( 'NONE',  ( 0.000000000000000000, 0.000000000000000000, -1.000000000000000000 ) ) ;
#269 = PRODUCT_RELATED_PRODUCT_CATEGORY ( 'part', '', ( #158 ) ) ;
#270 = FILL_AREA_STYLE ('',( #52 ) ) ;
#271 = CARTESIAN_POINT ( 'NONE',  ( 5.000000000000000000, 20.00000000000000355, 6.123233995736765296E-16 ) ) ;
#272 = CLOSED_SHELL ( 'NONE', ( #104, #190, #103, #221 ) ) ;
#273 = PRESENTATION_LAYER_ASSIGNMENT (  '', '', ( #196 ) ) ;
#274 = SURFACE_SIDE_STYLE ('',( #33 ) ) ;
#275 = CARTESIAN_POINT ( 'NONE',  ( 0.000000000000000000, 20.00000000000000000, 0.000000000000000000 ) ) ;
#276 = PRESENTATION_STYLE_ASSIGNMENT (( #58 ) ) ;
#277 = AXIS2_PLACEMENT_3D ( 'NONE', #34, #20, #229 ) ;
#278 = DIRECTION ( 'NONE',  ( -1.000000000000000000, 7.404841111123529214E-17, 0.000000000000000000 ) ) ;
#279 = EDGE_CURVE ( 'NONE', #218, #228, #280, .T. ) ;
#280 = CIRCLE ( 'NONE', #154, 5.000000000000000000 ) ;
#281 = SURFACE_STYLE_FILL_AREA ( #149 ) ;
#282 = APPLICATION_CONTEXT ( 'automotive_design' ) ;
#283 = VERTEX_POINT ( 'NONE', #125 ) ;
#284 = EDGE_CURVE ( 'NONE', #73, #65, #18, .T. ) ;
#285 = MECHANICAL_DESIGN_GEOMETRIC_PRESENTATION_REPRESENTATION (  '', ( #196 ), #145 ) ;
#286 = DIRECTION ( 'NONE',  ( -0.000000000000000000, -1.000000000000000000, -0.000000000000000000 ) ) ;
#287 = LINE ( 'NONE', #156, #39 ) ;
#288 =( NAMED_UNIT ( * ) SI_UNIT ( $, .STERADIAN. ) SOLID_ANGLE_UNIT ( ) );
ENDSEC;
END-ISO-10303-21;
