ISO-10303-21;
HEADER;
FILE_DESCRIPTION (( 'STEP AP214' ),
    '1' );
FILE_NAME ('Micro_SME-016-2X.STEP',
    '2021-09-02T10:28:43',
    ( '' ),
    ( '' ),
    'SwSTEP 2.0',
    'SolidWorks 2020',
    '' );
FILE_SCHEMA (( 'AUTOMOTIVE_DESIGN' ));
ENDSEC;

DATA;
#1 = DIRECTION ( 'NONE',  ( 1.000000000000000000, 0.0000000000000000000, 0.0000000000000000000 ) ) ;
#2 = EDGE_CURVE ( 'NONE', #271, #290, #26, .T. ) ;
#3 = APPLICATION_PROTOCOL_DEFINITION ( 'draft international standard', 'automotive_design', 1998, #48 ) ;
#4 = AXIS2_PLACEMENT_3D ( 'NONE', #101, #228, #104 ) ;
#5 = FACE_OUTER_BOUND ( 'NONE', #38, .T. ) ;
#6 = DIRECTION ( 'NONE',  ( -1.000000000000000000, 0.0000000000000000000, 0.0000000000000000000 ) ) ;
#7 = LINE ( 'NONE', #209, #145 ) ;
#8 = DIRECTION ( 'NONE',  ( -1.224646799147353700E-16, -0.0000000000000000000, -1.000000000000000000 ) ) ;
#9 = DIRECTION ( 'NONE',  ( 0.0000000000000000000, 0.0000000000000000000, 1.000000000000000000 ) ) ;
#10 = ORIENTED_EDGE ( 'NONE', *, *, #92, .F. ) ;
#11 = DIRECTION ( 'NONE',  ( 0.7071067811865462405, 8.659560562354916834E-17, -0.7071067811865486830 ) ) ;
#12 = DIRECTION ( 'NONE',  ( 1.000000000000000000, 0.0000000000000000000, -0.0000000000000000000 ) ) ;
#13 = AXIS2_PLACEMENT_3D ( 'NONE', #180, #257, #240 ) ;
#14 = ORIENTED_EDGE ( 'NONE', *, *, #34, .T. ) ;
#15 = SURFACE_SIDE_STYLE ('',( #20 ) ) ;
#16 = CYLINDRICAL_SURFACE ( 'NONE', #133, 0.06250000000000002776 ) ;
#17 = CARTESIAN_POINT ( 'NONE',  ( 0.0000000000000000000, 0.0000000000000000000, 1.500000000000000222 ) ) ;
#18 = EDGE_CURVE ( 'NONE', #185, #99, #216, .T. ) ;
#19 =( NAMED_UNIT ( * ) SI_UNIT ( $, .STERADIAN. ) SOLID_ANGLE_UNIT ( ) );
#20 = SURFACE_STYLE_FILL_AREA ( #137 ) ;
#21 = AXIS2_PLACEMENT_3D ( 'NONE', #17, #113, #167 ) ;
#22 = SHAPE_DEFINITION_REPRESENTATION ( #35, #224 ) ;
#23 =( NAMED_UNIT ( * ) PLANE_ANGLE_UNIT ( ) SI_UNIT ( $, .RADIAN. ) );
#24 = CARTESIAN_POINT ( 'NONE',  ( -0.007992000000000002574, 0.0000000000000000000, 1.957475443757130816E-18 ) ) ;
#25 = PRODUCT_RELATED_PRODUCT_CATEGORY ( 'part', '', ( #291 ) ) ;
#26 = CIRCLE ( 'NONE', #184, 0.06250000000000002776 ) ;
#27 =( GEOMETRIC_REPRESENTATION_CONTEXT ( 3 ) GLOBAL_UNCERTAINTY_ASSIGNED_CONTEXT ( ( #277 ) ) GLOBAL_UNIT_ASSIGNED_CONTEXT ( ( #75, #23, #261 ) ) REPRESENTATION_CONTEXT ( 'NONE', 'WORKASPACE' ) );
#28 = CARTESIAN_POINT ( 'NONE',  ( 0.06250000000000002776, 7.654042494670959086E-18, 1.485000000000000764 ) ) ;
#29 = DIRECTION ( 'NONE',  ( 0.0000000000000000000, 0.0000000000000000000, -1.000000000000000000 ) ) ;
#30 = ADVANCED_FACE ( 'NONE', ( #157 ), #249, .T. ) ;
#31 = ORIENTED_EDGE ( 'NONE', *, *, #146, .F. ) ;
#32 = AXIS2_PLACEMENT_3D ( 'NONE', #70, #135, #233 ) ;
#33 = CARTESIAN_POINT ( 'NONE',  ( 0.06250000000000002776, 7.654042494670959086E-18, 1.500000000000000222 ) ) ;
#34 = EDGE_CURVE ( 'NONE', #253, #290, #235, .T. ) ;
#35 = PRODUCT_DEFINITION_SHAPE ( 'NONE', 'NONE',  #120 ) ;
#36 = EDGE_LOOP ( 'NONE', ( #229, #80, #183, #211 ) ) ;
#37 = DIRECTION ( 'NONE',  ( 1.000000000000000000, 0.0000000000000000000, 0.0000000000000000000 ) ) ;
#38 = EDGE_LOOP ( 'NONE', ( #147, #241, #189, #86 ) ) ;
#39 =( NAMED_UNIT ( * ) SI_UNIT ( $, .STERADIAN. ) SOLID_ANGLE_UNIT ( ) );
#40 = STYLED_ITEM ( 'NONE', ( #111 ), #41 ) ;
#41 = MANIFOLD_SOLID_BREP ( 'Cut-Revolve1', #244 ) ;
#42 = EDGE_LOOP ( 'NONE', ( #245, #286, #83, #150 ) ) ;
#43 = EDGE_CURVE ( 'NONE', #275, #134, #81, .T. ) ;
#44 = CARTESIAN_POINT ( 'NONE',  ( 0.0000000000000000000, 0.0000000000000000000, 1.500000000000000222 ) ) ;
#45 = CARTESIAN_POINT ( 'NONE',  ( 0.007992000000000006044, 0.0000000000000000000, 0.02400000000000000050 ) ) ;
#46 = DIRECTION ( 'NONE',  ( -1.000000000000000000, 0.0000000000000000000, 1.224646799147353700E-16 ) ) ;
#47 = CONICAL_SURFACE ( 'NONE', #260, 0.007992000000000002574, 0.1745329251994338637 ) ;
#48 = APPLICATION_CONTEXT ( 'automotive_design' ) ;
#49 = CARTESIAN_POINT ( 'NONE',  ( 0.0000000000000000000, 0.0000000000000000000, 1.485000000000000764 ) ) ;
#50 = DIMENSIONAL_EXPONENTS ( 1.000000000000000000, 0.0000000000000000000, 0.0000000000000000000, 0.0000000000000000000, 0.0000000000000000000, 0.0000000000000000000, 0.0000000000000000000 ) ;
#51 = EDGE_CURVE ( 'NONE', #265, #67, #98, .T. ) ;
#52 = CIRCLE ( 'NONE', #230, 0.04750000000000064587 ) ;
#53 =( GEOMETRIC_REPRESENTATION_CONTEXT ( 3 ) GLOBAL_UNCERTAINTY_ASSIGNED_CONTEXT ( ( #213 ) ) GLOBAL_UNIT_ASSIGNED_CONTEXT ( ( #129, #110, #19 ) ) REPRESENTATION_CONTEXT ( 'NONE', 'WORKASPACE' ) );
#54 = DIRECTION ( 'NONE',  ( -1.224646799147353700E-16, -0.0000000000000000000, -1.000000000000000000 ) ) ;
#55 = ORIENTED_EDGE ( 'NONE', *, *, #210, .T. ) ;
#56 = FACE_OUTER_BOUND ( 'NONE', #232, .T. ) ;
#57 = CARTESIAN_POINT ( 'NONE',  ( -0.06250000000000002776, 0.0000000000000000000, 1.485000000000000764 ) ) ;
#58 = DIRECTION ( 'NONE',  ( -0.1736481776669311639, 2.126576849575783008E-17, 0.9848077530122080203 ) ) ;
#59 = AXIS2_PLACEMENT_3D ( 'NONE', #115, #269, #165 ) ;
#60 = VERTEX_POINT ( 'NONE', #289 ) ;
#61 = DIRECTION ( 'NONE',  ( -1.000000000000000000, 0.0000000000000000000, 0.0000000000000000000 ) ) ;
#62 = SURFACE_SIDE_STYLE ('',( #88 ) ) ;
#63 = ORIENTED_EDGE ( 'NONE', *, *, #283, .T. ) ;
#64 = DIRECTION ( 'NONE',  ( -1.224646799147353700E-16, -0.0000000000000000000, -1.000000000000000000 ) ) ;
#65 = ORIENTED_EDGE ( 'NONE', *, *, #236, .F. ) ;
#66 = DIRECTION ( 'NONE',  ( 0.0000000000000000000, 0.0000000000000000000, 1.000000000000000000 ) ) ;
#67 = VERTEX_POINT ( 'NONE', #45 ) ;
#68 = CARTESIAN_POINT ( 'NONE',  ( 1.198608018303358208E-34, 0.0000000000000000000, 9.787377218785654080E-19 ) ) ;
#69 = CARTESIAN_POINT ( 'NONE',  ( 0.0000000000000000000, 0.0000000000000000000, 1.485000000000000764 ) ) ;
#70 = CARTESIAN_POINT ( 'NONE',  ( 2.939152317953648893E-18, 0.0000000000000000000, 0.02400000000000000050 ) ) ;
#71 = APPLICATION_PROTOCOL_DEFINITION ( 'draft international standard', 'automotive_design', 1998, #122 ) ;
#72 = DIRECTION ( 'NONE',  ( -1.224646799147353700E-16, -0.0000000000000000000, -1.000000000000000000 ) ) ;
#73 = DIRECTION ( 'NONE',  ( 0.1736481776669313581, 0.0000000000000000000, 0.9848077530122077983 ) ) ;
#74 = VECTOR ( 'NONE', #186, 39.37007874015748854 ) ;
#75 =( CONVERSION_BASED_UNIT ( 'INCH', #281 ) LENGTH_UNIT ( ) NAMED_UNIT ( #50 ) );
#76 = EDGE_CURVE ( 'NONE', #290, #275, #273, .T. ) ;
#77 = DIMENSIONAL_EXPONENTS ( 1.000000000000000000, 0.0000000000000000000, 0.0000000000000000000, 0.0000000000000000000, 0.0000000000000000000, 0.0000000000000000000, 0.0000000000000000000 ) ;
#78 = ORIENTED_EDGE ( 'NONE', *, *, #218, .F. ) ;
#79 = EDGE_CURVE ( 'NONE', #67, #134, #7, .T. ) ;
#80 = ORIENTED_EDGE ( 'NONE', *, *, #92, .T. ) ;
#81 = CIRCLE ( 'NONE', #59, 0.06250000000000002776 ) ;
#82 = DIRECTION ( 'NONE',  ( -0.0000000000000000000, -0.0000000000000000000, -1.000000000000000000 ) ) ;
#83 = ORIENTED_EDGE ( 'NONE', *, *, #76, .T. ) ;
#84 = ORIENTED_EDGE ( 'NONE', *, *, #79, .F. ) ;
#85 = DIRECTION ( 'NONE',  ( 0.0000000000000000000, 0.0000000000000000000, 1.000000000000000000 ) ) ;
#86 = ORIENTED_EDGE ( 'NONE', *, *, #18, .F. ) ;
#87 = EDGE_LOOP ( 'NONE', ( #203, #63, #78, #31 ) ) ;
#88 = SURFACE_STYLE_FILL_AREA ( #136 ) ;
#89 = AXIS2_PLACEMENT_3D ( 'NONE', #201, #82, #61 ) ;
#90 = DIRECTION ( 'NONE',  ( -1.224646799147353700E-16, -0.0000000000000000000, -1.000000000000000000 ) ) ;
#91 = FACE_OUTER_BOUND ( 'NONE', #123, .T. ) ;
#92 = EDGE_CURVE ( 'NONE', #60, #271, #191, .T. ) ;
#93 =( GEOMETRIC_REPRESENTATION_CONTEXT ( 3 ) GLOBAL_UNCERTAINTY_ASSIGNED_CONTEXT ( ( #139 ) ) GLOBAL_UNIT_ASSIGNED_CONTEXT ( ( #140, #278, #39 ) ) REPRESENTATION_CONTEXT ( 'NONE', 'WORKASPACE' ) );
#94 = ORIENTED_EDGE ( 'NONE', *, *, #182, .F. ) ;
#95 = DIMENSIONAL_EXPONENTS ( 1.000000000000000000, 0.0000000000000000000, 0.0000000000000000000, 0.0000000000000000000, 0.0000000000000000000, 0.0000000000000000000, 0.0000000000000000000 ) ;
#96 = DIRECTION ( 'NONE',  ( 1.224646799147353700E-16, 0.0000000000000000000, 1.000000000000000000 ) ) ;
#97 = FACE_OUTER_BOUND ( 'NONE', #42, .T. ) ;
#98 = CIRCLE ( 'NONE', #194, 0.007992000000000002574 ) ;
#99 = VERTEX_POINT ( 'NONE', #24 ) ;
#100 = EDGE_CURVE ( 'NONE', #290, #271, #198, .T. ) ;
#101 = CARTESIAN_POINT ( 'NONE',  ( 0.0000000000000000000, 0.0000000000000000000, 1.500000000000000222 ) ) ;
#102 = FILL_AREA_STYLE_COLOUR ( '', #116 ) ;
#103 = EDGE_LOOP ( 'NONE', ( #287, #208 ) ) ;
#104 = DIRECTION ( 'NONE',  ( -1.000000000000000000, 0.0000000000000000000, 0.0000000000000000000 ) ) ;
#105 =( LENGTH_UNIT ( ) NAMED_UNIT ( * ) SI_UNIT ( $, .METRE. ) );
#106 = CONICAL_SURFACE ( 'NONE', #21, 0.04750000000000064587, 0.7853981633974466137 ) ;
#107 = ORIENTED_EDGE ( 'NONE', *, *, #43, .T. ) ;
#108 = ORIENTED_EDGE ( 'NONE', *, *, #262, .T. ) ;
#109 = CARTESIAN_POINT ( 'NONE',  ( -0.007992000000000002574, 0.0000000000000000000, 9.787377218785654080E-19 ) ) ;
#110 =( NAMED_UNIT ( * ) PLANE_ANGLE_UNIT ( ) SI_UNIT ( $, .RADIAN. ) );
#111 = PRESENTATION_STYLE_ASSIGNMENT (( #214 ) ) ;
#112 = CARTESIAN_POINT ( 'NONE',  ( 0.0000000000000000000, 0.0000000000000000000, 1.500000000000000222 ) ) ;
#113 = DIRECTION ( 'NONE',  ( 0.0000000000000000000, 0.0000000000000000000, -1.000000000000000000 ) ) ;
#114 = CIRCLE ( 'NONE', #219, 0.06250000000000002776 ) ;
#115 = CARTESIAN_POINT ( 'NONE',  ( 4.079668691629830782E-17, 0.0000000000000000000, 0.3331302294237206141 ) ) ;
#116 = COLOUR_RGB ( '',0.7921568627450980005, 0.8196078431372548767, 0.9333333333333333481 ) ;
#117 = FACE_OUTER_BOUND ( 'NONE', #87, .T. ) ;
#118 = AXIS2_PLACEMENT_3D ( 'NONE', #155, #8, #247 ) ;
#119 = ADVANCED_FACE ( 'NONE', ( #153 ), #243, .F. ) ;
#120 = PRODUCT_DEFINITION ( 'UNKNOWN', '', #162, #222 ) ;
#121 = EDGE_LOOP ( 'NONE', ( #263, #226, #107, #84 ) ) ;
#122 = APPLICATION_CONTEXT ( 'automotive_design' ) ;
#123 = EDGE_LOOP ( 'NONE', ( #141, #108, #160, #181 ) ) ;
#124 = CARTESIAN_POINT ( 'NONE',  ( 2.939152317953648893E-18, 0.0000000000000000000, 0.02400000000000000050 ) ) ;
#125 = DIRECTION ( 'NONE',  ( -0.0000000000000000000, -0.0000000000000000000, -1.000000000000000000 ) ) ;
#126 = AXIS2_PLACEMENT_3D ( 'NONE', #124, #96, #128 ) ;
#127 = CIRCLE ( 'NONE', #274, 0.04750000000000064587 ) ;
#128 = DIRECTION ( 'NONE',  ( 1.000000000000000000, 0.0000000000000000000, 0.0000000000000000000 ) ) ;
#129 =( CONVERSION_BASED_UNIT ( 'INCH', #206 ) LENGTH_UNIT ( ) NAMED_UNIT ( #95 ) );
#130 = DIRECTION ( 'NONE',  ( 0.0000000000000000000, 0.0000000000000000000, 1.000000000000000000 ) ) ;
#131 = FACE_OUTER_BOUND ( 'NONE', #293, .T. ) ;
#132 = DIRECTION ( 'NONE',  ( 0.0000000000000000000, 0.0000000000000000000, -1.000000000000000000 ) ) ;
#133 = AXIS2_PLACEMENT_3D ( 'NONE', #112, #200, #6 ) ;
#134 = VERTEX_POINT ( 'NONE', #197 ) ;
#135 = DIRECTION ( 'NONE',  ( -1.224646799147353700E-16, -0.0000000000000000000, -1.000000000000000000 ) ) ;
#136 = FILL_AREA_STYLE ('',( #102 ) ) ;
#137 = FILL_AREA_STYLE ('',( #163 ) ) ;
#138 = EDGE_CURVE ( 'NONE', #253, #60, #52, .T. ) ;
#139 = UNCERTAINTY_MEASURE_WITH_UNIT (LENGTH_MEASURE( 1.000000000000000082E-05 ), #140, 'distance_accuracy_value', 'NONE');
#140 =( CONVERSION_BASED_UNIT ( 'INCH', #266 ) LENGTH_UNIT ( ) NAMED_UNIT ( #77 ) );
#141 = ORIENTED_EDGE ( 'NONE', *, *, #100, .T. ) ;
#142 = FACE_OUTER_BOUND ( 'NONE', #36, .T. ) ;
#143 = CONICAL_SURFACE ( 'NONE', #126, 0.007992000000000002574, 0.1745329251994338637 ) ;
#144 = PRODUCT_CONTEXT ( 'NONE', #122, 'mechanical' ) ;
#145 = VECTOR ( 'NONE', #73, 39.37007874015748143 ) ;
#146 = EDGE_CURVE ( 'NONE', #265, #99, #227, .T. ) ;
#147 = ORIENTED_EDGE ( 'NONE', *, *, #283, .F. ) ;
#148 = AXIS2_PLACEMENT_3D ( 'NONE', #49, #29, #202 ) ;
#149 = VECTOR ( 'NONE', #125, 39.37007874015748143 ) ;
#150 = ORIENTED_EDGE ( 'NONE', *, *, #210, .F. ) ;
#151 = CYLINDRICAL_SURFACE ( 'NONE', #118, 0.007992000000000002574 ) ;
#152 = ADVANCED_FACE ( 'NONE', ( #91 ), #16, .T. ) ;
#153 = FACE_OUTER_BOUND ( 'NONE', #103, .T. ) ;
#154 =( LENGTH_UNIT ( ) NAMED_UNIT ( * ) SI_UNIT ( $, .METRE. ) );
#155 = CARTESIAN_POINT ( 'NONE',  ( 0.0000000000000000000, 0.0000000000000000000, 0.0000000000000000000 ) ) ;
#156 = VECTOR ( 'NONE', #234, 39.37007874015748143 ) ;
#157 = FACE_OUTER_BOUND ( 'NONE', #220, .T. ) ;
#158 = ORIENTED_EDGE ( 'NONE', *, *, #258, .T. ) ;
#159 = DIRECTION ( 'NONE',  ( 1.224646799147353700E-16, 0.0000000000000000000, 1.000000000000000000 ) ) ;
#160 = ORIENTED_EDGE ( 'NONE', *, *, #43, .F. ) ;
#161 = DIRECTION ( 'NONE',  ( 1.000000000000000000, 0.0000000000000000000, 0.0000000000000000000 ) ) ;
#162 = PRODUCT_DEFINITION_FORMATION_WITH_SPECIFIED_SOURCE ( 'ANY', '', #291, .NOT_KNOWN. ) ;
#163 = FILL_AREA_STYLE_COLOUR ( '', #231 ) ;
#164 = DIRECTION ( 'NONE',  ( -1.224646799147353700E-16, -0.0000000000000000000, -1.000000000000000000 ) ) ;
#165 = DIRECTION ( 'NONE',  ( 1.000000000000000000, 0.0000000000000000000, 0.0000000000000000000 ) ) ;
#166 = ADVANCED_FACE ( 'NONE', ( #56 ), #143, .T. ) ;
#167 = DIRECTION ( 'NONE',  ( -1.000000000000000000, 0.0000000000000000000, 0.0000000000000000000 ) ) ;
#168 = CARTESIAN_POINT ( 'NONE',  ( 0.0000000000000000000, 0.0000000000000000000, 0.0000000000000000000 ) ) ;
#169 = AXIS2_PLACEMENT_3D ( 'NONE', #297, #268, #296 ) ;
#170 = ADVANCED_FACE ( 'NONE', ( #5 ), #151, .T. ) ;
#171 = ADVANCED_FACE ( 'NONE', ( #97 ), #223, .T. ) ;
#172 = CIRCLE ( 'NONE', #32, 0.007992000000000002574 ) ;
#173 = CARTESIAN_POINT ( 'NONE',  ( -0.06249999999999997918, 0.0000000000000000000, 0.3331302294237206141 ) ) ;
#174 = LINE ( 'NONE', #179, #272 ) ;
#175 = CARTESIAN_POINT ( 'NONE',  ( 0.007992000000000002574, 9.787377218785648302E-19, -9.787377218785654080E-19 ) ) ;
#176 = ORIENTED_EDGE ( 'NONE', *, *, #79, .T. ) ;
#177 = AXIS2_PLACEMENT_3D ( 'NONE', #68, #164, #46 ) ;
#178 = ADVANCED_FACE ( 'NONE', ( #131 ), #288, .T. ) ;
#179 = CARTESIAN_POINT ( 'NONE',  ( -0.007992000000000000839, 9.787377218785650228E-19, 0.02400000000000000050 ) ) ;
#180 = CARTESIAN_POINT ( 'NONE',  ( 0.0000000000000000000, 0.0000000000000000000, 0.0000000000000000000 ) ) ;
#181 = ORIENTED_EDGE ( 'NONE', *, *, #76, .F. ) ;
#182 = EDGE_CURVE ( 'NONE', #265, #275, #174, .T. ) ;
#183 = ORIENTED_EDGE ( 'NONE', *, *, #100, .F. ) ;
#184 = AXIS2_PLACEMENT_3D ( 'NONE', #69, #132, #254 ) ;
#185 = VERTEX_POINT ( 'NONE', #246 ) ;
#186 = DIRECTION ( 'NONE',  ( -0.7071067811865462405, 0.0000000000000000000, -0.7071067811865486830 ) ) ;
#187 = FACE_OUTER_BOUND ( 'NONE', #121, .T. ) ;
#188 = SURFACE_STYLE_USAGE ( .BOTH. , #62 ) ;
#189 = ORIENTED_EDGE ( 'NONE', *, *, #146, .T. ) ;
#190 = ADVANCED_FACE ( 'NONE', ( #187 ), #47, .T. ) ;
#191 = LINE ( 'NONE', #221, #279 ) ;
#192 =( LENGTH_UNIT ( ) NAMED_UNIT ( * ) SI_UNIT ( $, .METRE. ) );
#193 = DIRECTION ( 'NONE',  ( -1.000000000000000000, 0.0000000000000000000, 1.224646799147353700E-16 ) ) ;
#194 = AXIS2_PLACEMENT_3D ( 'NONE', #292, #256, #284 ) ;
#195 = PRESENTATION_LAYER_ASSIGNMENT (  '', '', ( #199 ) ) ;
#196 = DIRECTION ( 'NONE',  ( 1.000000000000000000, 0.0000000000000000000, 0.0000000000000000000 ) ) ;
#197 = CARTESIAN_POINT ( 'NONE',  ( 0.06250000000000006939, 7.654042494670963708E-18, 0.3331302294237206141 ) ) ;
#198 = CIRCLE ( 'NONE', #148, 0.06250000000000002776 ) ;
#199 = STYLED_ITEM ( 'NONE', ( #252 ), #224 ) ;
#200 = DIRECTION ( 'NONE',  ( -0.0000000000000000000, -0.0000000000000000000, -1.000000000000000000 ) ) ;
#201 = CARTESIAN_POINT ( 'NONE',  ( 0.0000000000000000000, 0.0000000000000000000, 1.500000000000000222 ) ) ;
#202 = DIRECTION ( 'NONE',  ( 1.000000000000000000, 0.0000000000000000000, 0.0000000000000000000 ) ) ;
#203 = ORIENTED_EDGE ( 'NONE', *, *, #51, .T. ) ;
#204 = AXIS2_PLACEMENT_3D ( 'NONE', #44, #130, #12 ) ;
#205 = MECHANICAL_DESIGN_GEOMETRIC_PRESENTATION_REPRESENTATION (  '', ( #199 ), #53 ) ;
#206 = LENGTH_MEASURE_WITH_UNIT ( LENGTH_MEASURE( 0.02539999999999999897 ), #105 );
#207 = CARTESIAN_POINT ( 'NONE',  ( -0.04750000000000064587, 0.0000000000000000000, 1.500000000000000222 ) ) ;
#208 = ORIENTED_EDGE ( 'NONE', *, *, #18, .T. ) ;
#209 = CARTESIAN_POINT ( 'NONE',  ( 0.007992000000000006044, 0.0000000000000000000, 0.02400000000000000050 ) ) ;
#210 = EDGE_CURVE ( 'NONE', #134, #275, #114, .T. ) ;
#211 = ORIENTED_EDGE ( 'NONE', *, *, #34, .F. ) ;
#212 = CYLINDRICAL_SURFACE ( 'NONE', #280, 0.007992000000000002574 ) ;
#213 = UNCERTAINTY_MEASURE_WITH_UNIT (LENGTH_MEASURE( 1.000000000000000082E-05 ), #129, 'distance_accuracy_value', 'NONE');
#214 = SURFACE_STYLE_USAGE ( .BOTH. , #15 ) ;
#215 = CARTESIAN_POINT ( 'NONE',  ( -0.04750000000000064587, 0.0000000000000000000, 1.500000000000000222 ) ) ;
#216 = CIRCLE ( 'NONE', #169, 0.007992000000000002574 ) ;
#217 = AXIS2_PLACEMENT_3D ( 'NONE', #225, #9, #196 ) ;
#218 = EDGE_CURVE ( 'NONE', #99, #185, #299, .T. ) ;
#219 = AXIS2_PLACEMENT_3D ( 'NONE', #239, #72, #298 ) ;
#220 = EDGE_LOOP ( 'NONE', ( #251, #158 ) ) ;
#221 = CARTESIAN_POINT ( 'NONE',  ( 0.04750000000000064587, 5.817072295950006528E-18, 1.500000000000000222 ) ) ;
#222 = PRODUCT_DEFINITION_CONTEXT ( 'detailed design', #48, 'design' ) ;
#223 = CYLINDRICAL_SURFACE ( 'NONE', #89, 0.06250000000000002776 ) ;
#224 = ADVANCED_BREP_SHAPE_REPRESENTATION ( 'Micro_SME-016-2X', ( #41, #217 ), #93 ) ;
#225 = CARTESIAN_POINT ( 'NONE',  ( 0.0000000000000000000, 0.0000000000000000000, 0.0000000000000000000 ) ) ;
#226 = ORIENTED_EDGE ( 'NONE', *, *, #182, .T. ) ;
#227 = LINE ( 'NONE', #109, #237 ) ;
#228 = DIRECTION ( 'NONE',  ( 0.0000000000000000000, 0.0000000000000000000, -1.000000000000000000 ) ) ;
#229 = ORIENTED_EDGE ( 'NONE', *, *, #258, .F. ) ;
#230 = AXIS2_PLACEMENT_3D ( 'NONE', #259, #66, #37 ) ;
#231 = COLOUR_RGB ( '',0.7921568627450980005, 0.8196078431372548767, 0.9333333333333333481 ) ;
#232 = EDGE_LOOP ( 'NONE', ( #94, #65, #176, #55 ) ) ;
#233 = DIRECTION ( 'NONE',  ( -1.000000000000000000, 0.0000000000000000000, 0.0000000000000000000 ) ) ;
#234 = DIRECTION ( 'NONE',  ( -0.0000000000000000000, -0.0000000000000000000, -1.000000000000000000 ) ) ;
#235 = LINE ( 'NONE', #207, #74 ) ;
#236 = EDGE_CURVE ( 'NONE', #67, #265, #172, .T. ) ;
#237 = VECTOR ( 'NONE', #64, 39.37007874015748143 ) ;
#238 = VECTOR ( 'NONE', #54, 39.37007874015748143 ) ;
#239 = CARTESIAN_POINT ( 'NONE',  ( 4.079668691629830782E-17, 0.0000000000000000000, 0.3331302294237206141 ) ) ;
#240 = DIRECTION ( 'NONE',  ( 1.000000000000000000, 0.0000000000000000000, -0.0000000000000000000 ) ) ;
#241 = ORIENTED_EDGE ( 'NONE', *, *, #236, .T. ) ;
#242 = ADVANCED_FACE ( 'NONE', ( #142 ), #106, .T. ) ;
#243 = PLANE ( 'NONE',  #13 ) ;
#244 = CLOSED_SHELL ( 'NONE', ( #250, #190, #242, #152, #171, #30, #178, #166, #170, #119 ) ) ;
#245 = ORIENTED_EDGE ( 'NONE', *, *, #262, .F. ) ;
#246 = CARTESIAN_POINT ( 'NONE',  ( 0.007992000000000002574, 9.787377218785648302E-19, 0.0000000000000000000 ) ) ;
#247 = DIRECTION ( 'NONE',  ( -1.000000000000000000, 0.0000000000000000000, 1.224646799147353700E-16 ) ) ;
#248 = LINE ( 'NONE', #33, #149 ) ;
#249 = PLANE ( 'NONE',  #204 ) ;
#250 = ADVANCED_FACE ( 'NONE', ( #117 ), #212, .T. ) ;
#251 = ORIENTED_EDGE ( 'NONE', *, *, #138, .T. ) ;
#252 = PRESENTATION_STYLE_ASSIGNMENT (( #188 ) ) ;
#253 = VERTEX_POINT ( 'NONE', #215 ) ;
#254 = DIRECTION ( 'NONE',  ( 1.000000000000000000, 0.0000000000000000000, 0.0000000000000000000 ) ) ;
#255 = CARTESIAN_POINT ( 'NONE',  ( -0.06250000000000002776, 0.0000000000000000000, 1.500000000000000222 ) ) ;
#256 = DIRECTION ( 'NONE',  ( -1.224646799147353700E-16, -0.0000000000000000000, -1.000000000000000000 ) ) ;
#257 = DIRECTION ( 'NONE',  ( 0.0000000000000000000, 0.0000000000000000000, 1.000000000000000000 ) ) ;
#258 = EDGE_CURVE ( 'NONE', #60, #253, #127, .T. ) ;
#259 = CARTESIAN_POINT ( 'NONE',  ( 0.0000000000000000000, 0.0000000000000000000, 1.500000000000000222 ) ) ;
#260 = AXIS2_PLACEMENT_3D ( 'NONE', #276, #159, #161 ) ;
#261 =( NAMED_UNIT ( * ) SI_UNIT ( $, .STERADIAN. ) SOLID_ANGLE_UNIT ( ) );
#262 = EDGE_CURVE ( 'NONE', #271, #134, #248, .T. ) ;
#263 = ORIENTED_EDGE ( 'NONE', *, *, #51, .F. ) ;
#264 = CARTESIAN_POINT ( 'NONE',  ( -0.007992000000000000839, 4.316390108274762921E-18, 0.02400000000000000050 ) ) ;
#265 = VERTEX_POINT ( 'NONE', #264 ) ;
#266 = LENGTH_MEASURE_WITH_UNIT ( LENGTH_MEASURE( 0.02539999999999999897 ), #154 );
#267 = PRESENTATION_LAYER_ASSIGNMENT (  '', '', ( #40 ) ) ;
#268 = DIRECTION ( 'NONE',  ( -1.224646799147353700E-16, -0.0000000000000000000, -1.000000000000000000 ) ) ;
#269 = DIRECTION ( 'NONE',  ( -1.224646799147353700E-16, -0.0000000000000000000, -1.000000000000000000 ) ) ;
#270 = ORIENTED_EDGE ( 'NONE', *, *, #2, .F. ) ;
#271 = VERTEX_POINT ( 'NONE', #28 ) ;
#272 = VECTOR ( 'NONE', #58, 39.37007874015747433 ) ;
#273 = LINE ( 'NONE', #255, #156 ) ;
#274 = AXIS2_PLACEMENT_3D ( 'NONE', #294, #85, #1 ) ;
#275 = VERTEX_POINT ( 'NONE', #173 ) ;
#276 = CARTESIAN_POINT ( 'NONE',  ( 2.939152317953648893E-18, 0.0000000000000000000, 0.02400000000000000050 ) ) ;
#277 = UNCERTAINTY_MEASURE_WITH_UNIT (LENGTH_MEASURE( 1.000000000000000082E-05 ), #75, 'distance_accuracy_value', 'NONE');
#278 =( NAMED_UNIT ( * ) PLANE_ANGLE_UNIT ( ) SI_UNIT ( $, .RADIAN. ) );
#279 = VECTOR ( 'NONE', #11, 39.37007874015748854 ) ;
#280 = AXIS2_PLACEMENT_3D ( 'NONE', #168, #90, #193 ) ;
#281 = LENGTH_MEASURE_WITH_UNIT ( LENGTH_MEASURE( 0.02539999999999999897 ), #192 );
#282 = MECHANICAL_DESIGN_GEOMETRIC_PRESENTATION_REPRESENTATION (  '', ( #40 ), #27 ) ;
#283 = EDGE_CURVE ( 'NONE', #67, #185, #285, .T. ) ;
#284 = DIRECTION ( 'NONE',  ( -1.000000000000000000, 0.0000000000000000000, 0.0000000000000000000 ) ) ;
#285 = LINE ( 'NONE', #175, #238 ) ;
#286 = ORIENTED_EDGE ( 'NONE', *, *, #2, .T. ) ;
#287 = ORIENTED_EDGE ( 'NONE', *, *, #218, .T. ) ;
#288 = CONICAL_SURFACE ( 'NONE', #4, 0.04750000000000064587, 0.7853981633974466137 ) ;
#289 = CARTESIAN_POINT ( 'NONE',  ( 0.04750000000000064587, 6.735557395310483192E-18, 1.500000000000000222 ) ) ;
#290 = VERTEX_POINT ( 'NONE', #57 ) ;
#291 = PRODUCT ( 'Micro_SME-016-2X', 'Micro_SME-016-2X', '', ( #144 ) ) ;
#292 = CARTESIAN_POINT ( 'NONE',  ( 2.939152317953648893E-18, 0.0000000000000000000, 0.02400000000000000050 ) ) ;
#293 = EDGE_LOOP ( 'NONE', ( #10, #295, #14, #270 ) ) ;
#294 = CARTESIAN_POINT ( 'NONE',  ( 0.0000000000000000000, 0.0000000000000000000, 1.500000000000000222 ) ) ;
#295 = ORIENTED_EDGE ( 'NONE', *, *, #138, .F. ) ;
#296 = DIRECTION ( 'NONE',  ( -1.000000000000000000, 0.0000000000000000000, 1.224646799147353700E-16 ) ) ;
#297 = CARTESIAN_POINT ( 'NONE',  ( 1.198608018303358208E-34, 0.0000000000000000000, 9.787377218785654080E-19 ) ) ;
#298 = DIRECTION ( 'NONE',  ( 1.000000000000000000, 0.0000000000000000000, 0.0000000000000000000 ) ) ;
#299 = CIRCLE ( 'NONE', #177, 0.007992000000000002574 ) ;
ENDSEC;
END-ISO-10303-21;
