ISO-10303-21;
HEADER;
FILE_DESCRIPTION (( 'STEP AP214' ),
    '1' );
FILE_NAME ('03017.STEP',
    '2023-06-22T14:50:59',
    ( '' ),
    ( '' ),
    'SwSTEP 2.0',
    'SolidWorks 2023',
    '' );
FILE_SCHEMA (( 'AUTOMOTIVE_DESIGN' ));
ENDSEC;

DATA;
#1 = DIRECTION ( 'NONE',  ( -0.000000000000000000, -1.000000000000000000, -0.000000000000000000 ) ) ;
#2 = ORIENTED_EDGE ( 'NONE', *, *, #20, .T. ) ;
#3 =( GEOMETRIC_REPRESENTATION_CONTEXT ( 3 ) GLOBAL_UNCERTAINTY_ASSIGNED_CONTEXT ( ( #232 ) ) GLOBAL_UNIT_ASSIGNED_CONTEXT ( ( #145, #274, #177 ) ) REPRESENTATION_CONTEXT ( 'NONE', 'WORKASPACE' ) );
#4 = AXIS2_PLACEMENT_3D ( 'NONE', #272, #101, #165 ) ;
#5 = CARTESIAN_POINT ( 'NONE',  ( 0.000000000000000000, 0.2499999999999998057, 0.000000000000000000 ) ) ;
#6 = CYLINDRICAL_SURFACE ( 'NONE', #146, 0.06250000000000001388 ) ;
#7 = FACE_OUTER_BOUND ( 'NONE', #100, .T. ) ;
#8 = VERTEX_POINT ( 'NONE', #77 ) ;
#9 = CARTESIAN_POINT ( 'NONE',  ( 0.06250000000000034694, 1.499999999999999778, 7.654042494670917485E-18 ) ) ;
#10 = DIRECTION ( 'NONE',  ( -0.000000000000000000, -1.000000000000000000, -0.000000000000000000 ) ) ;
#11 = MANIFOLD_SOLID_BREP ( 'Revolve - Tool Body (Straight Shanked)', #201 ) ;
#12 = COLOUR_RGB ( '',1.000000000000000000, 0.000000000000000000, 0.000000000000000000 ) ;
#13 = ORIENTED_EDGE ( 'NONE', *, *, #66, .F. ) ;
#14 = PRODUCT_RELATED_PRODUCT_CATEGORY ( 'part', '', ( #176 ) ) ;
#15 = STYLED_ITEM ( 'NONE', ( #289 ), #204 ) ;
#16 = UNCERTAINTY_MEASURE_WITH_UNIT (LENGTH_MEASURE( 1.000000000000000082E-05 ), #129, 'distance_accuracy_value', 'NONE');
#17 = DIMENSIONAL_EXPONENTS ( 1.000000000000000000, 0.000000000000000000, 0.000000000000000000, 0.000000000000000000, 0.000000000000000000, 0.000000000000000000, 0.000000000000000000 ) ;
#18 = EDGE_CURVE ( 'NONE', #50, #273, #73, .T. ) ;
#19 = FILL_AREA_STYLE ('',( #118 ) ) ;
#20 = EDGE_CURVE ( 'NONE', #273, #64, #234, .T. ) ;
#21 =( CONVERSION_BASED_UNIT ( 'INCH', #209 ) LENGTH_UNIT ( ) NAMED_UNIT ( #277 ) );
#22 = FILL_AREA_STYLE ('',( #229 ) ) ;
#23 = VECTOR ( 'NONE', #302, 39.37007874015748143 ) ;
#24 =( LENGTH_UNIT ( ) NAMED_UNIT ( * ) SI_UNIT ( $, .METRE. ) );
#25 = PRODUCT_DEFINITION_SHAPE ( 'NONE', 'NONE',  #130 ) ;
#26 = UNCERTAINTY_MEASURE_WITH_UNIT (LENGTH_MEASURE( 1.000000000000000082E-05 ), #89, 'distance_accuracy_value', 'NONE');
#27 = SURFACE_SIDE_STYLE ('',( #162 ) ) ;
#28 = CARTESIAN_POINT ( 'NONE',  ( 0.000000000000000000, 0.000000000000000000, -0.06250000000000001388 ) ) ;
#29 = DIRECTION ( 'NONE',  ( 5.388445916248354013E-16, 1.000000000000000000, -0.000000000000000000 ) ) ;
#30 = CIRCLE ( 'NONE', #92, 0.06250000000000001388 ) ;
#31 = ORIENTED_EDGE ( 'NONE', *, *, #20, .F. ) ;
#32 = ADVANCED_FACE ( 'NONE', ( #149 ), #132, .F. ) ;
#33 = AXIS2_PLACEMENT_3D ( 'NONE', #156, #69, #44 ) ;
#34 = PRODUCT_CONTEXT ( 'NONE', #249, 'mechanical' ) ;
#35 = COLOUR_RGB ( '',1.000000000000000000, 0.000000000000000000, 0.000000000000000000 ) ;
#36 = EDGE_CURVE ( 'NONE', #51, #64, #86, .T. ) ;
#37 = CARTESIAN_POINT ( 'NONE',  ( 0.06250000000000001388, 0.2499999999999997502, 7.654042494670939056E-18 ) ) ;
#38 = VECTOR ( 'NONE', #160, 39.37007874015748143 ) ;
#39 = PRESENTATION_STYLE_ASSIGNMENT (( #255 ) ) ;
#40 = DIRECTION ( 'NONE',  ( -0.000000000000000000, -1.000000000000000000, -0.000000000000000000 ) ) ;
#41 = SURFACE_STYLE_USAGE ( .BOTH. , #150 ) ;
#42 = DIRECTION ( 'NONE',  ( 0.000000000000000000, 0.000000000000000000, -1.000000000000000000 ) ) ;
#43 = LENGTH_MEASURE_WITH_UNIT ( LENGTH_MEASURE( 0.02539999999999999897 ), #178 );
#44 = DIRECTION ( 'NONE',  ( -1.000000000000000000, 0.000000000000000000, 0.000000000000000000 ) ) ;
#45 = DIRECTION ( 'NONE',  ( 0.000000000000000000, 0.000000000000000000, -1.000000000000000000 ) ) ;
#46 =( NAMED_UNIT ( * ) PLANE_ANGLE_UNIT ( ) SI_UNIT ( $, .RADIAN. ) );
#47 = ORIENTED_EDGE ( 'NONE', *, *, #238, .T. ) ;
#48 = CARTESIAN_POINT ( 'NONE',  ( 0.000000000000000000, 0.000000000000000000, 0.000000000000000000 ) ) ;
#49 = CARTESIAN_POINT ( 'NONE',  ( 0.000000000000000000, 0.000000000000000000, -0.06250000000000001388 ) ) ;
#50 = VERTEX_POINT ( 'NONE', #37 ) ;
#51 = VERTEX_POINT ( 'NONE', #153 ) ;
#52 = CARTESIAN_POINT ( 'NONE',  ( 0.000000000000000000, 0.000000000000000000, 0.000000000000000000 ) ) ;
#53 = EDGE_LOOP ( 'NONE', ( #116, #47, #163, #195 ) ) ;
#54 = ORIENTED_EDGE ( 'NONE', *, *, #174, .F. ) ;
#55 = AXIS2_PLACEMENT_3D ( 'NONE', #76, #157, #263 ) ;
#56 = ADVANCED_FACE ( 'NONE', ( #205 ), #84, .T. ) ;
#57 = CIRCLE ( 'NONE', #294, 0.06250000000000001388 ) ;
#58 = PRESENTATION_LAYER_ASSIGNMENT (  '', '', ( #293 ) ) ;
#59 = AXIS2_PLACEMENT_3D ( 'NONE', #169, #208, #235 ) ;
#60 = SURFACE_STYLE_FILL_AREA ( #19 ) ;
#61 =( NAMED_UNIT ( * ) SI_UNIT ( $, .STERADIAN. ) SOLID_ANGLE_UNIT ( ) );
#62 = DIRECTION ( 'NONE',  ( 5.388445916248354013E-16, 1.000000000000000000, -0.000000000000000000 ) ) ;
#63 = FILL_AREA_STYLE ('',( #135 ) ) ;
#64 = VERTEX_POINT ( 'NONE', #138 ) ;
#65 = SURFACE_STYLE_USAGE ( .BOTH. , #199 ) ;
#66 = EDGE_CURVE ( 'NONE', #50, #51, #111, .T. ) ;
#67 =( NAMED_UNIT ( * ) SI_UNIT ( $, .STERADIAN. ) SOLID_ANGLE_UNIT ( ) );
#68 = LINE ( 'NONE', #28, #38 ) ;
#69 = DIRECTION ( 'NONE',  ( 5.388445916248354013E-16, 1.000000000000000000, -0.000000000000000000 ) ) ;
#70 = ORIENTED_EDGE ( 'NONE', *, *, #66, .T. ) ;
#71 = CARTESIAN_POINT ( 'NONE',  ( -0.06250000000000001388, 0.2499999999999998335, 0.000000000000000000 ) ) ;
#72 = ORIENTED_EDGE ( 'NONE', *, *, #251, .F. ) ;
#73 = CIRCLE ( 'NONE', #59, 0.06250000000000001388 ) ;
#74 = FACE_OUTER_BOUND ( 'NONE', #53, .T. ) ;
#75 = VECTOR ( 'NONE', #1, 39.37007874015748143 ) ;
#76 = CARTESIAN_POINT ( 'NONE',  ( 9.073546685104240443E-33, 0.2499999999999998057, 0.000000000000000000 ) ) ;
#77 = CARTESIAN_POINT ( 'NONE',  ( 7.654042494670959086E-18, 0.2499999999999998057, 0.06250000000000001388 ) ) ;
#78 = MANIFOLD_SOLID_BREP ( 'Revolve - Cutting Edge', #299 ) ;
#79 = EDGE_CURVE ( 'NONE', #245, #283, #301, .T. ) ;
#80 = DIMENSIONAL_EXPONENTS ( 1.000000000000000000, 0.000000000000000000, 0.000000000000000000, 0.000000000000000000, 0.000000000000000000, 0.000000000000000000, 0.000000000000000000 ) ;
#81 = LENGTH_MEASURE_WITH_UNIT ( LENGTH_MEASURE( 0.02539999999999999897 ), #265 );
#82 = UNCERTAINTY_MEASURE_WITH_UNIT (LENGTH_MEASURE( 1.000000000000000082E-05 ), #155, 'distance_accuracy_value', 'NONE');
#83 = FACE_OUTER_BOUND ( 'NONE', #183, .T. ) ;
#84 = CYLINDRICAL_SURFACE ( 'NONE', #170, 0.06250000000000001388 ) ;
#85 = DIRECTION ( 'NONE',  ( 1.000000000000000000, -5.388445916248354013E-16, 0.000000000000000000 ) ) ;
#86 = CIRCLE ( 'NONE', #275, 0.06249999999999934081 ) ;
#87 =( NAMED_UNIT ( * ) SI_UNIT ( $, .STERADIAN. ) SOLID_ANGLE_UNIT ( ) );
#88 =( NAMED_UNIT ( * ) PLANE_ANGLE_UNIT ( ) SI_UNIT ( $, .RADIAN. ) );
#89 =( CONVERSION_BASED_UNIT ( 'INCH', #213 ) LENGTH_UNIT ( ) NAMED_UNIT ( #80 ) );
#90 = FILL_AREA_STYLE ('',( #244 ) ) ;
#91 = SURFACE_STYLE_USAGE ( .BOTH. , #27 ) ;
#92 = AXIS2_PLACEMENT_3D ( 'NONE', #212, #203, #253 ) ;
#93 = PLANE ( 'NONE',  #55 ) ;
#94 = FILL_AREA_STYLE ('',( #164 ) ) ;
#95 = CARTESIAN_POINT ( 'NONE',  ( 0.000000000000000000, 0.000000000000000000, 0.000000000000000000 ) ) ;
#96 = PRESENTATION_STYLE_ASSIGNMENT (( #65 ) ) ;
#97 = FACE_OUTER_BOUND ( 'NONE', #136, .T. ) ;
#98 = DIRECTION ( 'NONE',  ( 0.000000000000000000, 0.000000000000000000, -1.000000000000000000 ) ) ;
#99 = AXIS2_PLACEMENT_3D ( 'NONE', #239, #29, #296 ) ;
#100 = EDGE_LOOP ( 'NONE', ( #264, #295 ) ) ;
#101 = DIRECTION ( 'NONE',  ( 0.000000000000000000, 0.000000000000000000, 1.000000000000000000 ) ) ;
#102 = PRESENTATION_LAYER_ASSIGNMENT (  '', '', ( #284 ) ) ;
#103 = DIMENSIONAL_EXPONENTS ( 1.000000000000000000, 0.000000000000000000, 0.000000000000000000, 0.000000000000000000, 0.000000000000000000, 0.000000000000000000, 0.000000000000000000 ) ;
#104 = PRESENTATION_LAYER_ASSIGNMENT (  '', '', ( #259 ) ) ;
#105 = FILL_AREA_STYLE_COLOUR ( '', #35 ) ;
#106 = SURFACE_STYLE_FILL_AREA ( #22 ) ;
#107 = AXIS2_PLACEMENT_3D ( 'NONE', #5, #158, #258 ) ;
#108 = SURFACE_STYLE_FILL_AREA ( #233 ) ;
#109 = PRESENTATION_STYLE_ASSIGNMENT (( #41 ) ) ;
#110 = CARTESIAN_POINT ( 'NONE',  ( 0.000000000000000000, 0.2499999999999998057, 0.000000000000000000 ) ) ;
#111 = LINE ( 'NONE', #9, #172 ) ;
#112 = DIRECTION ( 'NONE',  ( 0.000000000000000000, -0.000000000000000000, 1.000000000000000000 ) ) ;
#113 = CARTESIAN_POINT ( 'NONE',  ( 0.000000000000000000, 0.000000000000000000, 0.000000000000000000 ) ) ;
#114 =( GEOMETRIC_REPRESENTATION_CONTEXT ( 3 ) GLOBAL_UNCERTAINTY_ASSIGNED_CONTEXT ( ( #181 ) ) GLOBAL_UNIT_ASSIGNED_CONTEXT ( ( #21, #88, #61 ) ) REPRESENTATION_CONTEXT ( 'NONE', 'WORKASPACE' ) );
#115 = DIRECTION ( 'NONE',  ( 5.388445916248354013E-16, 1.000000000000000000, -0.000000000000000000 ) ) ;
#116 = ORIENTED_EDGE ( 'NONE', *, *, #248, .T. ) ;
#117 =( CONVERSION_BASED_UNIT ( 'INCH', #217 ) LENGTH_UNIT ( ) NAMED_UNIT ( #103 ) );
#118 = FILL_AREA_STYLE_COLOUR ( '', #119 ) ;
#119 = COLOUR_RGB ( '',0.7921568627450980005, 0.8196078431372548767, 0.9333333333333333481 ) ;
#120 = MECHANICAL_DESIGN_GEOMETRIC_PRESENTATION_REPRESENTATION (  '', ( #126 ), #114 ) ;
#121 = APPLICATION_PROTOCOL_DEFINITION ( 'draft international standard', 'automotive_design', 1998, #185 ) ;
#122 = EDGE_CURVE ( 'NONE', #247, #245, #68, .T. ) ;
#123 = PRESENTATION_LAYER_ASSIGNMENT (  '', '', ( #240 ) ) ;
#124 =( NAMED_UNIT ( * ) SI_UNIT ( $, .STERADIAN. ) SOLID_ANGLE_UNIT ( ) );
#125 = COLOUR_RGB ( '',0.7921568627450980005, 0.8196078431372548767, 0.9333333333333333481 ) ;
#126 = STYLED_ITEM ( 'NONE', ( #39 ), #56 ) ;
#127 =( NAMED_UNIT ( * ) PLANE_ANGLE_UNIT ( ) SI_UNIT ( $, .RADIAN. ) );
#128 = PLANE ( 'NONE',  #211 ) ;
#129 =( CONVERSION_BASED_UNIT ( 'INCH', #43 ) LENGTH_UNIT ( ) NAMED_UNIT ( #168 ) );
#130 = PRODUCT_DEFINITION ( 'UNKNOWN', '', #231, #304 ) ;
#131 = AXIS2_PLACEMENT_3D ( 'NONE', #110, #215, #287 ) ;
#132 = PLANE ( 'NONE',  #266 ) ;
#133 = LENGTH_MEASURE_WITH_UNIT ( LENGTH_MEASURE( 0.02539999999999999897 ), #270 );
#134 =( GEOMETRIC_REPRESENTATION_CONTEXT ( 3 ) GLOBAL_UNCERTAINTY_ASSIGNED_CONTEXT ( ( #151 ) ) GLOBAL_UNIT_ASSIGNED_CONTEXT ( ( #303, #175, #87 ) ) REPRESENTATION_CONTEXT ( 'NONE', 'WORKASPACE' ) );
#135 = FILL_AREA_STYLE_COLOUR ( '', #12 ) ;
#136 = EDGE_LOOP ( 'NONE', ( #13, #269, #2, #218 ) ) ;
#137 = CARTESIAN_POINT ( 'NONE',  ( 6.735557395310442023E-16, 1.499999999999999778, 0.000000000000000000 ) ) ;
#138 = CARTESIAN_POINT ( 'NONE',  ( -0.06249999999999866773, 1.499999999999999778, 0.000000000000000000 ) ) ;
#139 = ORIENTED_EDGE ( 'NONE', *, *, #251, .T. ) ;
#140 = SURFACE_STYLE_USAGE ( .BOTH. , #219 ) ;
#141 = ADVANCED_FACE ( 'NONE', ( #286 ), #93, .F. ) ;
#142 = EDGE_LOOP ( 'NONE', ( #192, #242 ) ) ;
#143 = MECHANICAL_DESIGN_GEOMETRIC_PRESENTATION_REPRESENTATION (  '', ( #259 ), #154 ) ;
#144 = DIMENSIONAL_EXPONENTS ( 1.000000000000000000, 0.000000000000000000, 0.000000000000000000, 0.000000000000000000, 0.000000000000000000, 0.000000000000000000, 0.000000000000000000 ) ;
#145 =( CONVERSION_BASED_UNIT ( 'INCH', #81 ) LENGTH_UNIT ( ) NAMED_UNIT ( #144 ) );
#146 = AXIS2_PLACEMENT_3D ( 'NONE', #256, #40, #42 ) ;
#147 = CARTESIAN_POINT ( 'NONE',  ( -0.06249999999999900080, 1.499999999999999778, 0.000000000000000000 ) ) ;
#148 = UNCERTAINTY_MEASURE_WITH_UNIT (LENGTH_MEASURE( 1.000000000000000082E-05 ), #117, 'distance_accuracy_value', 'NONE');
#149 = FACE_OUTER_BOUND ( 'NONE', #166, .T. ) ;
#150 = SURFACE_SIDE_STYLE ('',( #60 ) ) ;
#151 = UNCERTAINTY_MEASURE_WITH_UNIT (LENGTH_MEASURE( 1.000000000000000082E-05 ), #303, 'distance_accuracy_value', 'NONE');
#152 = LINE ( 'NONE', #267, #75 ) ;
#153 = CARTESIAN_POINT ( 'NONE',  ( 0.06250000000000001388, 1.499999999999999778, 7.654042494670939056E-18 ) ) ;
#154 =( GEOMETRIC_REPRESENTATION_CONTEXT ( 3 ) GLOBAL_UNCERTAINTY_ASSIGNED_CONTEXT ( ( #148 ) ) GLOBAL_UNIT_ASSIGNED_CONTEXT ( ( #117, #220, #67 ) ) REPRESENTATION_CONTEXT ( 'NONE', 'WORKASPACE' ) );
#155 =( CONVERSION_BASED_UNIT ( 'INCH', #133 ) LENGTH_UNIT ( ) NAMED_UNIT ( #300 ) );
#156 = CARTESIAN_POINT ( 'NONE',  ( 6.735557395310442023E-16, 1.499999999999999778, 0.000000000000000000 ) ) ;
#157 = DIRECTION ( 'NONE',  ( 5.388445916248354013E-16, 1.000000000000000000, -0.000000000000000000 ) ) ;
#158 = DIRECTION ( 'NONE',  ( -0.000000000000000000, -1.000000000000000000, -0.000000000000000000 ) ) ;
#159 = EDGE_CURVE ( 'NONE', #283, #245, #57, .T. ) ;
#160 = DIRECTION ( 'NONE',  ( -0.000000000000000000, -1.000000000000000000, -0.000000000000000000 ) ) ;
#161 = MECHANICAL_DESIGN_GEOMETRIC_PRESENTATION_REPRESENTATION (  '', ( #293 ), #210 ) ;
#162 = SURFACE_STYLE_FILL_AREA ( #63 ) ;
#163 = ORIENTED_EDGE ( 'NONE', *, *, #79, .F. ) ;
#164 = FILL_AREA_STYLE_COLOUR ( '', #226 ) ;
#165 = DIRECTION ( 'NONE',  ( 1.000000000000000000, 0.000000000000000000, 0.000000000000000000 ) ) ;
#166 = EDGE_LOOP ( 'NONE', ( #288, #188 ) ) ;
#167 = SURFACE_STYLE_FILL_AREA ( #94 ) ;
#168 = DIMENSIONAL_EXPONENTS ( 1.000000000000000000, 0.000000000000000000, 0.000000000000000000, 0.000000000000000000, 0.000000000000000000, 0.000000000000000000, 0.000000000000000000 ) ;
#169 = CARTESIAN_POINT ( 'NONE',  ( -1.213184216936841517E-31, 0.2499999999999998057, 0.000000000000000000 ) ) ;
#170 = AXIS2_PLACEMENT_3D ( 'NONE', #52, #184, #45 ) ;
#171 =( GEOMETRIC_REPRESENTATION_CONTEXT ( 3 ) GLOBAL_UNCERTAINTY_ASSIGNED_CONTEXT ( ( #26 ) ) GLOBAL_UNIT_ASSIGNED_CONTEXT ( ( #89, #46, #262 ) ) REPRESENTATION_CONTEXT ( 'NONE', 'WORKASPACE' ) );
#172 = VECTOR ( 'NONE', #193, 39.37007874015748143 ) ;
#173 = DIRECTION ( 'NONE',  ( 0.000000000000000000, 1.000000000000000000, 0.000000000000000000 ) ) ;
#174 = EDGE_CURVE ( 'NONE', #64, #51, #202, .T. ) ;
#175 =( NAMED_UNIT ( * ) PLANE_ANGLE_UNIT ( ) SI_UNIT ( $, .RADIAN. ) );
#176 = PRODUCT ( '03017', '03017', '', ( #34 ) ) ;
#177 =( NAMED_UNIT ( * ) SI_UNIT ( $, .STERADIAN. ) SOLID_ANGLE_UNIT ( ) );
#178 =( LENGTH_UNIT ( ) NAMED_UNIT ( * ) SI_UNIT ( $, .METRE. ) );
#179 = AXIS2_PLACEMENT_3D ( 'NONE', #137, #115, #216 ) ;
#180 = CARTESIAN_POINT ( 'NONE',  ( 6.735557395310442023E-16, 1.499999999999999778, 0.000000000000000000 ) ) ;
#181 = UNCERTAINTY_MEASURE_WITH_UNIT (LENGTH_MEASURE( 1.000000000000000082E-05 ), #21, 'distance_accuracy_value', 'NONE');
#182 =( LENGTH_UNIT ( ) NAMED_UNIT ( * ) SI_UNIT ( $, .METRE. ) );
#183 = EDGE_LOOP ( 'NONE', ( #200, #72 ) ) ;
#184 = DIRECTION ( 'NONE',  ( -0.000000000000000000, -1.000000000000000000, -0.000000000000000000 ) ) ;
#185 = APPLICATION_CONTEXT ( 'automotive_design' ) ;
#186 = MECHANICAL_DESIGN_GEOMETRIC_PRESENTATION_REPRESENTATION (  '', ( #240 ), #276 ) ;
#187 = DIRECTION ( 'NONE',  ( 0.000000000000000000, 0.000000000000000000, -1.000000000000000000 ) ) ;
#188 = ORIENTED_EDGE ( 'NONE', *, *, #36, .T. ) ;
#189 = SURFACE_STYLE_FILL_AREA ( #90 ) ;
#190 = ADVANCED_FACE ( 'NONE', ( #243 ), #268, .T. ) ;
#191 = CYLINDRICAL_SURFACE ( 'NONE', #33, 0.06249999999999967387 ) ;
#192 = ORIENTED_EDGE ( 'NONE', *, *, #224, .F. ) ;
#193 = DIRECTION ( 'NONE',  ( 5.388445916248354013E-16, 1.000000000000000000, -0.000000000000000000 ) ) ;
#194 = CARTESIAN_POINT ( 'NONE',  ( 0.000000000000000000, 0.2499999999999998057, -0.06250000000000001388 ) ) ;
#195 = ORIENTED_EDGE ( 'NONE', *, *, #122, .F. ) ;
#196 =( NAMED_UNIT ( * ) SI_UNIT ( $, .STERADIAN. ) SOLID_ANGLE_UNIT ( ) );
#197 = CIRCLE ( 'NONE', #131, 0.06250000000000001388 ) ;
#198 =( LENGTH_UNIT ( ) NAMED_UNIT ( * ) SI_UNIT ( $, .METRE. ) );
#199 = SURFACE_SIDE_STYLE ('',( #189 ) ) ;
#200 = ORIENTED_EDGE ( 'NONE', *, *, #248, .F. ) ;
#201 = CLOSED_SHELL ( 'NONE', ( #190, #141, #298, #32 ) ) ;
#202 = CIRCLE ( 'NONE', #99, 0.06249999999999934081 ) ;
#203 = DIRECTION ( 'NONE',  ( 5.388445916248354013E-16, 1.000000000000000000, -0.000000000000000000 ) ) ;
#204 = ADVANCED_FACE ( 'NONE', ( #74 ), #6, .T. ) ;
#205 = FACE_OUTER_BOUND ( 'NONE', #297, .T. ) ;
#206 = SURFACE_STYLE_USAGE ( .BOTH. , #228 ) ;
#207 = SURFACE_SIDE_STYLE ('',( #106 ) ) ;
#208 = DIRECTION ( 'NONE',  ( 5.388445916248354013E-16, 1.000000000000000000, -0.000000000000000000 ) ) ;
#209 = LENGTH_MEASURE_WITH_UNIT ( LENGTH_MEASURE( 0.02539999999999999897 ), #24 );
#210 =( GEOMETRIC_REPRESENTATION_CONTEXT ( 3 ) GLOBAL_UNCERTAINTY_ASSIGNED_CONTEXT ( ( #16 ) ) GLOBAL_UNIT_ASSIGNED_CONTEXT ( ( #129, #127, #124 ) ) REPRESENTATION_CONTEXT ( 'NONE', 'WORKASPACE' ) );
#211 = AXIS2_PLACEMENT_3D ( 'NONE', #281, #173, #112 ) ;
#212 = CARTESIAN_POINT ( 'NONE',  ( -1.213184216936841517E-31, 0.2499999999999998057, 0.000000000000000000 ) ) ;
#213 = LENGTH_MEASURE_WITH_UNIT ( LENGTH_MEASURE( 0.02539999999999999897 ), #198 );
#214 = ORIENTED_EDGE ( 'NONE', *, *, #159, .F. ) ;
#215 = DIRECTION ( 'NONE',  ( -0.000000000000000000, -1.000000000000000000, -0.000000000000000000 ) ) ;
#216 = DIRECTION ( 'NONE',  ( -1.000000000000000000, 0.000000000000000000, 0.000000000000000000 ) ) ;
#217 = LENGTH_MEASURE_WITH_UNIT ( LENGTH_MEASURE( 0.02539999999999999897 ), #182 );
#218 = ORIENTED_EDGE ( 'NONE', *, *, #36, .F. ) ;
#219 = SURFACE_SIDE_STYLE ('',( #167 ) ) ;
#220 =( NAMED_UNIT ( * ) PLANE_ANGLE_UNIT ( ) SI_UNIT ( $, .RADIAN. ) );
#221 =( NAMED_UNIT ( * ) PLANE_ANGLE_UNIT ( ) SI_UNIT ( $, .RADIAN. ) );
#222 = AXIS2_PLACEMENT_3D ( 'NONE', #113, #292, #237 ) ;
#223 = ORIENTED_EDGE ( 'NONE', *, *, #122, .T. ) ;
#224 = EDGE_CURVE ( 'NONE', #273, #50, #30, .T. ) ;
#225 = APPLICATION_PROTOCOL_DEFINITION ( 'draft international standard', 'automotive_design', 1998, #249 ) ;
#226 = COLOUR_RGB ( '',1.000000000000000000, 0.000000000000000000, 0.000000000000000000 ) ;
#227 = ADVANCED_FACE ( 'NONE', ( #83 ), #128, .T. ) ;
#228 = SURFACE_SIDE_STYLE ('',( #108 ) ) ;
#229 = FILL_AREA_STYLE_COLOUR ( '', #279 ) ;
#230 = PRESENTATION_LAYER_ASSIGNMENT (  '', '', ( #15 ) ) ;
#231 = PRODUCT_DEFINITION_FORMATION_WITH_SPECIFIED_SOURCE ( 'ANY', '', #176, .NOT_KNOWN. ) ;
#232 = UNCERTAINTY_MEASURE_WITH_UNIT (LENGTH_MEASURE( 1.000000000000000082E-05 ), #145, 'distance_accuracy_value', 'NONE');
#233 = FILL_AREA_STYLE ('',( #105 ) ) ;
#234 = LINE ( 'NONE', #147, #23 ) ;
#235 = DIRECTION ( 'NONE',  ( -1.000000000000000000, 5.463695987328525451E-16, 0.000000000000000000 ) ) ;
#236 = MECHANICAL_DESIGN_GEOMETRIC_PRESENTATION_REPRESENTATION (  '', ( #284 ), #134 ) ;
#237 = DIRECTION ( 'NONE',  ( 0.000000000000000000, 0.000000000000000000, -1.000000000000000000 ) ) ;
#238 = EDGE_CURVE ( 'NONE', #8, #283, #152, .T. ) ;
#239 = CARTESIAN_POINT ( 'NONE',  ( 6.735557395310442023E-16, 1.499999999999999778, 0.000000000000000000 ) ) ;
#240 = STYLED_ITEM ( 'NONE', ( #96 ), #78 ) ;
#241 = PRESENTATION_STYLE_ASSIGNMENT (( #91 ) ) ;
#242 = ORIENTED_EDGE ( 'NONE', *, *, #18, .F. ) ;
#243 = FACE_OUTER_BOUND ( 'NONE', #291, .T. ) ;
#244 = FILL_AREA_STYLE_COLOUR ( '', #125 ) ;
#245 = VERTEX_POINT ( 'NONE', #49 ) ;
#246 = PRESENTATION_LAYER_ASSIGNMENT (  '', '', ( #126 ) ) ;
#247 = VERTEX_POINT ( 'NONE', #194 ) ;
#248 = EDGE_CURVE ( 'NONE', #247, #8, #250, .T. ) ;
#249 = APPLICATION_CONTEXT ( 'automotive_design' ) ;
#250 = CIRCLE ( 'NONE', #107, 0.06250000000000001388 ) ;
#251 = EDGE_CURVE ( 'NONE', #8, #247, #197, .T. ) ;
#252 = PRESENTATION_STYLE_ASSIGNMENT (( #206 ) ) ;
#253 = DIRECTION ( 'NONE',  ( -1.000000000000000000, 5.463695987328525451E-16, 0.000000000000000000 ) ) ;
#254 = CARTESIAN_POINT ( 'NONE',  ( 0.06250000000000001388, 1.499999999999999778, 0.000000000000000000 ) ) ;
#255 = SURFACE_STYLE_USAGE ( .BOTH. , #207 ) ;
#256 = CARTESIAN_POINT ( 'NONE',  ( 0.000000000000000000, 0.000000000000000000, 0.000000000000000000 ) ) ;
#257 =( LENGTH_UNIT ( ) NAMED_UNIT ( * ) SI_UNIT ( $, .METRE. ) );
#258 = DIRECTION ( 'NONE',  ( 0.000000000000000000, 0.000000000000000000, -1.000000000000000000 ) ) ;
#259 = STYLED_ITEM ( 'NONE', ( #241 ), #261 ) ;
#260 = AXIS2_PLACEMENT_3D ( 'NONE', #95, #308, #187 ) ;
#261 = ADVANCED_FACE ( 'NONE', ( #7 ), #290, .T. ) ;
#262 =( NAMED_UNIT ( * ) SI_UNIT ( $, .STERADIAN. ) SOLID_ANGLE_UNIT ( ) );
#263 = DIRECTION ( 'NONE',  ( -1.000000000000000000, 5.388445916248354013E-16, 0.000000000000000000 ) ) ;
#264 = ORIENTED_EDGE ( 'NONE', *, *, #79, .T. ) ;
#265 =( LENGTH_UNIT ( ) NAMED_UNIT ( * ) SI_UNIT ( $, .METRE. ) );
#266 = AXIS2_PLACEMENT_3D ( 'NONE', #254, #307, #85 ) ;
#267 = CARTESIAN_POINT ( 'NONE',  ( 7.654042494670959086E-18, 0.000000000000000000, 0.06250000000000001388 ) ) ;
#268 = CYLINDRICAL_SURFACE ( 'NONE', #179, 0.06249999999999967387 ) ;
#269 = ORIENTED_EDGE ( 'NONE', *, *, #18, .T. ) ;
#270 =( LENGTH_UNIT ( ) NAMED_UNIT ( * ) SI_UNIT ( $, .METRE. ) );
#271 = ADVANCED_BREP_SHAPE_REPRESENTATION ( '03017', ( #78, #11, #4 ), #171 ) ;
#272 = CARTESIAN_POINT ( 'NONE',  ( 0.000000000000000000, 0.000000000000000000, 0.000000000000000000 ) ) ;
#273 = VERTEX_POINT ( 'NONE', #71 ) ;
#274 =( NAMED_UNIT ( * ) PLANE_ANGLE_UNIT ( ) SI_UNIT ( $, .RADIAN. ) );
#275 = AXIS2_PLACEMENT_3D ( 'NONE', #180, #62, #280 ) ;
#276 =( GEOMETRIC_REPRESENTATION_CONTEXT ( 3 ) GLOBAL_UNCERTAINTY_ASSIGNED_CONTEXT ( ( #82 ) ) GLOBAL_UNIT_ASSIGNED_CONTEXT ( ( #155, #221, #196 ) ) REPRESENTATION_CONTEXT ( 'NONE', 'WORKASPACE' ) );
#277 = DIMENSIONAL_EXPONENTS ( 1.000000000000000000, 0.000000000000000000, 0.000000000000000000, 0.000000000000000000, 0.000000000000000000, 0.000000000000000000, 0.000000000000000000 ) ;
#278 = SHAPE_DEFINITION_REPRESENTATION ( #25, #271 ) ;
#279 = COLOUR_RGB ( '',1.000000000000000000, 0.000000000000000000, 0.000000000000000000 ) ;
#280 = DIRECTION ( 'NONE',  ( -1.000000000000000000, 0.000000000000000000, 0.000000000000000000 ) ) ;
#281 = CARTESIAN_POINT ( 'NONE',  ( 0.000000000000000000, 0.2499999999999998057, 0.000000000000000000 ) ) ;
#282 = CARTESIAN_POINT ( 'NONE',  ( 7.654042494670959086E-18, 0.000000000000000000, 0.06250000000000001388 ) ) ;
#283 = VERTEX_POINT ( 'NONE', #282 ) ;
#284 = STYLED_ITEM ( 'NONE', ( #252 ), #227 ) ;
#285 = ORIENTED_EDGE ( 'NONE', *, *, #224, .T. ) ;
#286 = FACE_OUTER_BOUND ( 'NONE', #142, .T. ) ;
#287 = DIRECTION ( 'NONE',  ( 0.000000000000000000, 0.000000000000000000, -1.000000000000000000 ) ) ;
#288 = ORIENTED_EDGE ( 'NONE', *, *, #174, .T. ) ;
#289 = PRESENTATION_STYLE_ASSIGNMENT (( #140 ) ) ;
#290 = PLANE ( 'NONE',  #260 ) ;
#291 = EDGE_LOOP ( 'NONE', ( #285, #70, #54, #31 ) ) ;
#292 = DIRECTION ( 'NONE',  ( -0.000000000000000000, -1.000000000000000000, -0.000000000000000000 ) ) ;
#293 = STYLED_ITEM ( 'NONE', ( #109 ), #11 ) ;
#294 = AXIS2_PLACEMENT_3D ( 'NONE', #48, #10, #98 ) ;
#295 = ORIENTED_EDGE ( 'NONE', *, *, #159, .T. ) ;
#296 = DIRECTION ( 'NONE',  ( -1.000000000000000000, 0.000000000000000000, 0.000000000000000000 ) ) ;
#297 = EDGE_LOOP ( 'NONE', ( #309, #139, #223, #214 ) ) ;
#298 = ADVANCED_FACE ( 'NONE', ( #97 ), #191, .T. ) ;
#299 = CLOSED_SHELL ( 'NONE', ( #204, #227, #56, #261 ) ) ;
#300 = DIMENSIONAL_EXPONENTS ( 1.000000000000000000, 0.000000000000000000, 0.000000000000000000, 0.000000000000000000, 0.000000000000000000, 0.000000000000000000, 0.000000000000000000 ) ;
#301 = CIRCLE ( 'NONE', #222, 0.06250000000000001388 ) ;
#302 = DIRECTION ( 'NONE',  ( 5.388445916248354013E-16, 1.000000000000000000, -0.000000000000000000 ) ) ;
#303 =( CONVERSION_BASED_UNIT ( 'INCH', #306 ) LENGTH_UNIT ( ) NAMED_UNIT ( #17 ) );
#304 = PRODUCT_DEFINITION_CONTEXT ( 'detailed design', #185, 'design' ) ;
#305 = MECHANICAL_DESIGN_GEOMETRIC_PRESENTATION_REPRESENTATION (  '', ( #15 ), #3 ) ;
#306 = LENGTH_MEASURE_WITH_UNIT ( LENGTH_MEASURE( 0.02539999999999999897 ), #257 );
#307 = DIRECTION ( 'NONE',  ( -5.388445916248354013E-16, -1.000000000000000000, 0.000000000000000000 ) ) ;
#308 = DIRECTION ( 'NONE',  ( 0.000000000000000000, -1.000000000000000000, -0.000000000000000000 ) ) ;
#309 = ORIENTED_EDGE ( 'NONE', *, *, #238, .F. ) ;
ENDSEC;
END-ISO-10303-21;
