ISO-10303-21;
HEADER;
FILE_DESCRIPTION (( 'STEP AP214' ),
    '1' );
FILE_NAME ('59550.STEP',
    '2023-07-24T15:10:28',
    ( '' ),
    ( '' ),
    'SwSTEP 2.0',
    'SolidWorks 2023',
    '' );
FILE_SCHEMA (( 'AUTOMOTIVE_DESIGN' ));
ENDSEC;

DATA;
#1 = ORIENTED_EDGE ( 'NONE', *, *, #160, .T. ) ;
#2 = DIRECTION ( 'NONE',  ( -0.000000000000000000, -1.000000000000000000, -0.000000000000000000 ) ) ;
#3 = EDGE_LOOP ( 'NONE', ( #344, #36, #116, #78 ) ) ;
#4 = AXIS2_PLACEMENT_3D ( 'NONE', #167, #23, #139 ) ;
#5 = VERTEX_POINT ( 'NONE', #130 ) ;
#6 = FILL_AREA_STYLE ('',( #261 ) ) ;
#7 = MECHANICAL_DESIGN_GEOMETRIC_PRESENTATION_REPRESENTATION (  '', ( #205 ), #213 ) ;
#8 = AXIS2_PLACEMENT_3D ( 'NONE', #166, #115, #227 ) ;
#9 = SHAPE_DEFINITION_REPRESENTATION ( #350, #31 ) ;
#10 = CARTESIAN_POINT ( 'NONE',  ( 0.000000000000000000, 0.5000000000000000000, -9.500000000000000000 ) ) ;
#11 = FILL_AREA_STYLE_COLOUR ( '', #338 ) ;
#12 =( NAMED_UNIT ( * ) PLANE_ANGLE_UNIT ( ) SI_UNIT ( $, .RADIAN. ) );
#13 = EDGE_CURVE ( 'NONE', #286, #303, #76, .T. ) ;
#14 = STYLED_ITEM ( 'NONE', ( #153 ), #370 ) ;
#15 = DIRECTION ( 'NONE',  ( 0.000000000000000000, 0.000000000000000000, 1.000000000000000000 ) ) ;
#16 = CARTESIAN_POINT ( 'NONE',  ( 0.000000000000000000, 0.5000000000000000000, -10.00000000000000000 ) ) ;
#17 =( LENGTH_UNIT ( ) NAMED_UNIT ( * ) SI_UNIT ( .MILLI., .METRE. ) );
#18 = MANIFOLD_SOLID_BREP ( 'Revolve - Cutting Edge', #186 ) ;
#19 = DIRECTION ( 'NONE',  ( -1.000000000000000000, 0.000000000000000000, 0.000000000000000000 ) ) ;
#20 =( LENGTH_UNIT ( ) NAMED_UNIT ( * ) SI_UNIT ( .MILLI., .METRE. ) );
#21 = CIRCLE ( 'NONE', #268, 9.500000000000000000 ) ;
#22 = CARTESIAN_POINT ( 'NONE',  ( 10.00000000000000355, 100.0000000000000000, 1.224646799147353651E-15 ) ) ;
#23 = DIRECTION ( 'NONE',  ( -1.236440607496819135E-16, 1.000000000000000000, -0.000000000000000000 ) ) ;
#24 = APPLICATION_CONTEXT ( 'automotive_design' ) ;
#25 =( NAMED_UNIT ( * ) SI_UNIT ( $, .STERADIAN. ) SOLID_ANGLE_UNIT ( ) );
#26 = ADVANCED_FACE ( 'NONE', ( #214 ), #105, .T. ) ;
#27 = ORIENTED_EDGE ( 'NONE', *, *, #129, .F. ) ;
#28 =( LENGTH_UNIT ( ) NAMED_UNIT ( * ) SI_UNIT ( .MILLI., .METRE. ) );
#29 = AXIS2_PLACEMENT_3D ( 'NONE', #193, #333, #57 ) ;
#30 =( GEOMETRIC_REPRESENTATION_CONTEXT ( 3 ) GLOBAL_UNCERTAINTY_ASSIGNED_CONTEXT ( ( #321 ) ) GLOBAL_UNIT_ASSIGNED_CONTEXT ( ( #197, #340, #60 ) ) REPRESENTATION_CONTEXT ( 'NONE', 'WORKASPACE' ) );
#31 = ADVANCED_BREP_SHAPE_REPRESENTATION ( '59550', ( #18, #148, #87 ), #138 ) ;
#32 = ORIENTED_EDGE ( 'NONE', *, *, #178, .T. ) ;
#33 = SURFACE_SIDE_STYLE ('',( #341 ) ) ;
#34 = ORIENTED_EDGE ( 'NONE', *, *, #164, .F. ) ;
#35 = CARTESIAN_POINT ( 'NONE',  ( 1.224646799147353256E-15, 40.00000000000000000, 10.00000000000000000 ) ) ;
#36 = ORIENTED_EDGE ( 'NONE', *, *, #237, .T. ) ;
#37 = PRESENTATION_STYLE_ASSIGNMENT (( #311 ) ) ;
#38 = AXIS2_PLACEMENT_3D ( 'NONE', #212, #52, #136 ) ;
#39 = CIRCLE ( 'NONE', #289, 10.00000000000000355 ) ;
#40 = DIRECTION ( 'NONE',  ( -1.000000000000000000, 0.000000000000000000, 0.000000000000000000 ) ) ;
#41 = SURFACE_SIDE_STYLE ('',( #294 ) ) ;
#42 = VECTOR ( 'NONE', #123, 1000.000000000000000 ) ;
#43 = DIRECTION ( 'NONE',  ( -1.000000000000000000, 0.000000000000000000, 0.000000000000000000 ) ) ;
#44 = PRESENTATION_STYLE_ASSIGNMENT (( #355 ) ) ;
#45 =( LENGTH_UNIT ( ) NAMED_UNIT ( * ) SI_UNIT ( .MILLI., .METRE. ) );
#46 = EDGE_CURVE ( 'NONE', #339, #5, #352, .T. ) ;
#47 = PRODUCT_CONTEXT ( 'NONE', #24, 'mechanical' ) ;
#48 =( NAMED_UNIT ( * ) SI_UNIT ( $, .STERADIAN. ) SOLID_ANGLE_UNIT ( ) );
#49 = PRESENTATION_LAYER_ASSIGNMENT (  '', '', ( #55 ) ) ;
#50 = PRESENTATION_LAYER_ASSIGNMENT (  '', '', ( #215 ) ) ;
#51 = UNCERTAINTY_MEASURE_WITH_UNIT (LENGTH_MEASURE( 1.000000000000000082E-05 ), #89, 'distance_accuracy_value', 'NONE');
#52 = DIRECTION ( 'NONE',  ( -0.000000000000000000, -1.000000000000000000, -0.000000000000000000 ) ) ;
#53 = FILL_AREA_STYLE_COLOUR ( '', #288 ) ;
#54 = DIRECTION ( 'NONE',  ( 0.000000000000000000, 0.000000000000000000, -1.000000000000000000 ) ) ;
#55 = STYLED_ITEM ( 'NONE', ( #243 ), #26 ) ;
#56 = CIRCLE ( 'NONE', #247, 10.00000000000000000 ) ;
#57 = DIRECTION ( 'NONE',  ( 0.000000000000000000, 0.000000000000000000, -1.000000000000000000 ) ) ;
#58 = CARTESIAN_POINT ( 'NONE',  ( 9.999999999999996447, 100.0000000000000000, 1.224646799147353059E-15 ) ) ;
#59 = ORIENTED_EDGE ( 'NONE', *, *, #300, .F. ) ;
#60 =( NAMED_UNIT ( * ) SI_UNIT ( $, .STERADIAN. ) SOLID_ANGLE_UNIT ( ) );
#61 = FACE_OUTER_BOUND ( 'NONE', #278, .T. ) ;
#62 = EDGE_CURVE ( 'NONE', #293, #336, #133, .T. ) ;
#63 = DIRECTION ( 'NONE',  ( -1.236440607496819135E-16, 1.000000000000000000, -0.000000000000000000 ) ) ;
#64 = FACE_OUTER_BOUND ( 'NONE', #112, .T. ) ;
#65 = MECHANICAL_DESIGN_GEOMETRIC_PRESENTATION_REPRESENTATION (  '', ( #329 ), #84 ) ;
#66 = ORIENTED_EDGE ( 'NONE', *, *, #13, .F. ) ;
#67 = MECHANICAL_DESIGN_GEOMETRIC_PRESENTATION_REPRESENTATION (  '', ( #14 ), #359 ) ;
#68 = ORIENTED_EDGE ( 'NONE', *, *, #46, .F. ) ;
#69 = STYLED_ITEM ( 'NONE', ( #117 ), #148 ) ;
#70 = PRODUCT_DEFINITION_FORMATION_WITH_SPECIFIED_SOURCE ( 'ANY', '', #81, .NOT_KNOWN. ) ;
#71 = ORIENTED_EDGE ( 'NONE', *, *, #360, .T. ) ;
#72 = DIRECTION ( 'NONE',  ( -1.236440607496819135E-16, 1.000000000000000000, -0.000000000000000000 ) ) ;
#73 = UNCERTAINTY_MEASURE_WITH_UNIT (LENGTH_MEASURE( 1.000000000000000082E-05 ), #28, 'distance_accuracy_value', 'NONE');
#74 =( NAMED_UNIT ( * ) PLANE_ANGLE_UNIT ( ) SI_UNIT ( $, .RADIAN. ) );
#75 = DIRECTION ( 'NONE',  ( 0.000000000000000000, 0.000000000000000000, -1.000000000000000000 ) ) ;
#76 = CIRCLE ( 'NONE', #281, 9.999999999999994671 ) ;
#77 = AXIS2_PLACEMENT_3D ( 'NONE', #267, #284, #118 ) ;
#78 = ORIENTED_EDGE ( 'NONE', *, *, #275, .F. ) ;
#79 = LINE ( 'NONE', #196, #42 ) ;
#80 = LINE ( 'NONE', #58, #181 ) ;
#81 = PRODUCT ( '59550', '59550', '', ( #47 ) ) ;
#82 = EDGE_LOOP ( 'NONE', ( #230, #140, #32, #34 ) ) ;
#83 = AXIS2_PLACEMENT_3D ( 'NONE', #187, #266, #302 ) ;
#84 =( GEOMETRIC_REPRESENTATION_CONTEXT ( 3 ) GLOBAL_UNCERTAINTY_ASSIGNED_CONTEXT ( ( #73 ) ) GLOBAL_UNIT_ASSIGNED_CONTEXT ( ( #28, #277, #25 ) ) REPRESENTATION_CONTEXT ( 'NONE', 'WORKASPACE' ) );
#85 = SURFACE_STYLE_USAGE ( .BOTH. , #33 ) ;
#86 = ADVANCED_FACE ( 'NONE', ( #134 ), #106, .F. ) ;
#87 = AXIS2_PLACEMENT_3D ( 'NONE', #354, #263, #297 ) ;
#88 = CLOSED_SHELL ( 'NONE', ( #190, #86, #305, #150 ) ) ;
#89 =( LENGTH_UNIT ( ) NAMED_UNIT ( * ) SI_UNIT ( .MILLI., .METRE. ) );
#90 = DIRECTION ( 'NONE',  ( -0.000000000000000000, -1.000000000000000000, -0.000000000000000000 ) ) ;
#91 = FACE_OUTER_BOUND ( 'NONE', #254, .T. ) ;
#92 = ORIENTED_EDGE ( 'NONE', *, *, #13, .T. ) ;
#93 = COLOUR_RGB ( '',0.7921568627450980005, 0.8196078431372548767, 0.9333333333333333481 ) ;
#94 = COLOUR_RGB ( '',1.000000000000000000, 0.000000000000000000, 0.000000000000000000 ) ;
#95 = ORIENTED_EDGE ( 'NONE', *, *, #160, .F. ) ;
#96 = CARTESIAN_POINT ( 'NONE',  ( 0.000000000000000000, 0.000000000000000000, -10.00000000000000000 ) ) ;
#97 = ADVANCED_FACE ( 'NONE', ( #245 ), #322, .T. ) ;
#98 = FACE_OUTER_BOUND ( 'NONE', #3, .T. ) ;
#99 = EDGE_CURVE ( 'NONE', #177, #336, #189, .T. ) ;
#100 = UNCERTAINTY_MEASURE_WITH_UNIT (LENGTH_MEASURE( 1.000000000000000082E-05 ), #20, 'distance_accuracy_value', 'NONE');
#101 = ORIENTED_EDGE ( 'NONE', *, *, #135, .T. ) ;
#102 = SURFACE_SIDE_STYLE ('',( #241 ) ) ;
#103 = FILL_AREA_STYLE ('',( #11 ) ) ;
#104 = PRESENTATION_LAYER_ASSIGNMENT (  '', '', ( #205 ) ) ;
#105 = CYLINDRICAL_SURFACE ( 'NONE', #38, 10.00000000000000000 ) ;
#106 = PLANE ( 'NONE',  #298 ) ;
#107 = CARTESIAN_POINT ( 'NONE',  ( 6.071532165918824830E-15, 40.00000000000000000, 0.000000000000000000 ) ) ;
#108 = CARTESIAN_POINT ( 'NONE',  ( 1.163414459189985485E-15, 0.5000000000000000000, 9.500000000000000000 ) ) ;
#109 = SURFACE_SIDE_STYLE ('',( #361 ) ) ;
#110 =( NAMED_UNIT ( * ) SI_UNIT ( $, .STERADIAN. ) SOLID_ANGLE_UNIT ( ) );
#111 = SURFACE_STYLE_USAGE ( .BOTH. , #274 ) ;
#112 = EDGE_LOOP ( 'NONE', ( #59, #68 ) ) ;
#113 = EDGE_CURVE ( 'NONE', #303, #286, #320, .T. ) ;
#114 = AXIS2_PLACEMENT_3D ( 'NONE', #108, #310, #222 ) ;
#115 = DIRECTION ( 'NONE',  ( 1.236440607496819135E-16, -1.000000000000000000, 0.000000000000000000 ) ) ;
#116 = ORIENTED_EDGE ( 'NONE', *, *, #360, .F. ) ;
#117 = PRESENTATION_STYLE_ASSIGNMENT (( #357 ) ) ;
#118 = DIRECTION ( 'NONE',  ( 0.000000000000000000, 0.000000000000000000, -1.000000000000000000 ) ) ;
#119 = VERTEX_POINT ( 'NONE', #22 ) ;
#120 = PRESENTATION_STYLE_ASSIGNMENT (( #152 ) ) ;
#121 =( NAMED_UNIT ( * ) PLANE_ANGLE_UNIT ( ) SI_UNIT ( $, .RADIAN. ) );
#122 = EDGE_LOOP ( 'NONE', ( #200, #162, #95, #175 ) ) ;
#123 = DIRECTION ( 'NONE',  ( -0.000000000000000000, -1.000000000000000000, -0.000000000000000000 ) ) ;
#124 =( NAMED_UNIT ( * ) PLANE_ANGLE_UNIT ( ) SI_UNIT ( $, .RADIAN. ) );
#125 = FACE_OUTER_BOUND ( 'NONE', #234, .T. ) ;
#126 = DIRECTION ( 'NONE',  ( -1.236440607496819135E-16, 1.000000000000000000, -0.000000000000000000 ) ) ;
#127 = VECTOR ( 'NONE', #188, 1000.000000000000000 ) ;
#128 =( NAMED_UNIT ( * ) SI_UNIT ( $, .STERADIAN. ) SOLID_ANGLE_UNIT ( ) );
#129 = EDGE_CURVE ( 'NONE', #336, #177, #21, .T. ) ;
#130 = CARTESIAN_POINT ( 'NONE',  ( 0.000000000000000000, 40.00000000000000000, -10.00000000000000000 ) ) ;
#131 = SURFACE_SIDE_STYLE ('',( #265 ) ) ;
#132 = DIRECTION ( 'NONE',  ( -1.000000000000000000, 0.000000000000000000, 0.000000000000000000 ) ) ;
#133 = CIRCLE ( 'NONE', #366, 0.5000000000000004441 ) ;
#134 = FACE_OUTER_BOUND ( 'NONE', #232, .T. ) ;
#135 = EDGE_CURVE ( 'NONE', #182, #177, #209, .T. ) ;
#136 = DIRECTION ( 'NONE',  ( 0.000000000000000000, 0.000000000000000000, -1.000000000000000000 ) ) ;
#137 = TOROIDAL_SURFACE ( 'NONE', #316, 9.500000000000000000, 0.5000000000000002220 ) ;
#138 =( GEOMETRIC_REPRESENTATION_CONTEXT ( 3 ) GLOBAL_UNCERTAINTY_ASSIGNED_CONTEXT ( ( #264 ) ) GLOBAL_UNIT_ASSIGNED_CONTEXT ( ( #346, #121, #211 ) ) REPRESENTATION_CONTEXT ( 'NONE', 'WORKASPACE' ) );
#139 = DIRECTION ( 'NONE',  ( -1.000000000000000000, 0.000000000000000000, 0.000000000000000000 ) ) ;
#140 = ORIENTED_EDGE ( 'NONE', *, *, #46, .T. ) ;
#141 = PRESENTATION_STYLE_ASSIGNMENT (( #111 ) ) ;
#142 = VERTEX_POINT ( 'NONE', #255 ) ;
#143 = PRESENTATION_LAYER_ASSIGNMENT (  '', '', ( #69 ) ) ;
#144 = DIRECTION ( 'NONE',  ( -0.000000000000000000, -1.000000000000000000, -0.000000000000000000 ) ) ;
#145 =( NAMED_UNIT ( * ) SI_UNIT ( $, .STERADIAN. ) SOLID_ANGLE_UNIT ( ) );
#146 = FILL_AREA_STYLE_COLOUR ( '', #282 ) ;
#147 = ORIENTED_EDGE ( 'NONE', *, *, #242, .F. ) ;
#148 = MANIFOLD_SOLID_BREP ( 'Revolve - Tool Body (Straight Shanked)', #88 ) ;
#149 =( GEOMETRIC_REPRESENTATION_CONTEXT ( 3 ) GLOBAL_UNCERTAINTY_ASSIGNED_CONTEXT ( ( #323 ) ) GLOBAL_UNIT_ASSIGNED_CONTEXT ( ( #351, #217, #48 ) ) REPRESENTATION_CONTEXT ( 'NONE', 'WORKASPACE' ) );
#150 = ADVANCED_FACE ( 'NONE', ( #252 ), #199, .F. ) ;
#151 = CYLINDRICAL_SURFACE ( 'NONE', #307, 10.00000000000000000 ) ;
#152 = SURFACE_STYLE_USAGE ( .BOTH. , #41 ) ;
#153 = PRESENTATION_STYLE_ASSIGNMENT (( #295 ) ) ;
#154 = COLOUR_RGB ( '',1.000000000000000000, 0.000000000000000000, 0.000000000000000000 ) ;
#155 = FACE_OUTER_BOUND ( 'NONE', #122, .T. ) ;
#156 =( NAMED_UNIT ( * ) SI_UNIT ( $, .STERADIAN. ) SOLID_ANGLE_UNIT ( ) );
#157 = FILL_AREA_STYLE_COLOUR ( '', #93 ) ;
#158 = CARTESIAN_POINT ( 'NONE',  ( 10.00000000000000178, 40.00000000000000000, 1.224646799147353651E-15 ) ) ;
#159 = MECHANICAL_DESIGN_GEOMETRIC_PRESENTATION_REPRESENTATION (  '', ( #69 ), #30 ) ;
#160 = EDGE_CURVE ( 'NONE', #293, #182, #56, .T. ) ;
#161 = DIRECTION ( 'NONE',  ( -1.000000000000000000, 0.000000000000000000, 0.000000000000000000 ) ) ;
#162 = ORIENTED_EDGE ( 'NONE', *, *, #171, .T. ) ;
#163 = DIRECTION ( 'NONE',  ( 0.000000000000000000, 0.000000000000000000, -1.000000000000000000 ) ) ;
#164 = EDGE_CURVE ( 'NONE', #182, #293, #262, .T. ) ;
#165 = PRESENTATION_LAYER_ASSIGNMENT (  '', '', ( #329 ) ) ;
#166 = CARTESIAN_POINT ( 'NONE',  ( 10.00000000000000178, 100.0000000000000000, 0.000000000000000000 ) ) ;
#167 = CARTESIAN_POINT ( 'NONE',  ( -1.347111479062089982E-15, 100.0000000000000000, 0.000000000000000000 ) ) ;
#168 = ORIENTED_EDGE ( 'NONE', *, *, #62, .F. ) ;
#169 = CARTESIAN_POINT ( 'NONE',  ( 6.071532165918824830E-15, 40.00000000000000000, 0.000000000000000000 ) ) ;
#170 = DIRECTION ( 'NONE',  ( -1.000000000000000000, 0.000000000000000000, 0.000000000000000000 ) ) ;
#171 = EDGE_CURVE ( 'NONE', #339, #182, #79, .T. ) ;
#172 = ORIENTED_EDGE ( 'NONE', *, *, #164, .T. ) ;
#173 = AXIS2_PLACEMENT_3D ( 'NONE', #169, #63, #19 ) ;
#174 = CARTESIAN_POINT ( 'NONE',  ( -1.347111479062090180E-15, 100.0000000000000000, 0.000000000000000000 ) ) ;
#175 = ORIENTED_EDGE ( 'NONE', *, *, #178, .F. ) ;
#176 = SURFACE_SIDE_STYLE ('',( #287 ) ) ;
#177 = VERTEX_POINT ( 'NONE', #235 ) ;
#178 = EDGE_CURVE ( 'NONE', #5, #293, #184, .T. ) ;
#179 = FILL_AREA_STYLE_COLOUR ( '', #154 ) ;
#180 = PRESENTATION_LAYER_ASSIGNMENT (  '', '', ( #337 ) ) ;
#181 = VECTOR ( 'NONE', #358, 1000.000000000000000 ) ;
#182 = VERTEX_POINT ( 'NONE', #318 ) ;
#183 = CYLINDRICAL_SURFACE ( 'NONE', #348, 9.999999999999998224 ) ;
#184 = LINE ( 'NONE', #96, #356 ) ;
#185 = FILL_AREA_STYLE ('',( #53 ) ) ;
#186 = CLOSED_SHELL ( 'NONE', ( #370, #328, #97, #216, #26, #334 ) ) ;
#187 = CARTESIAN_POINT ( 'NONE',  ( 0.000000000000000000, 40.00000000000000000, 0.000000000000000000 ) ) ;
#188 = DIRECTION ( 'NONE',  ( -1.236440607496819135E-16, 1.000000000000000000, -0.000000000000000000 ) ) ;
#189 = CIRCLE ( 'NONE', #29, 9.500000000000000000 ) ;
#190 = ADVANCED_FACE ( 'NONE', ( #98 ), #183, .T. ) ;
#191 = APPLICATION_CONTEXT ( 'automotive_design' ) ;
#192 = SURFACE_STYLE_FILL_AREA ( #185 ) ;
#193 = CARTESIAN_POINT ( 'NONE',  ( 0.000000000000000000, 0.000000000000000000, 0.000000000000000000 ) ) ;
#194 = COLOUR_RGB ( '',1.000000000000000000, 0.000000000000000000, 0.000000000000000000 ) ;
#195 = MECHANICAL_DESIGN_GEOMETRIC_PRESENTATION_REPRESENTATION (  '', ( #215 ), #253 ) ;
#196 = CARTESIAN_POINT ( 'NONE',  ( 1.224646799147353256E-15, 0.000000000000000000, 10.00000000000000000 ) ) ;
#197 =( LENGTH_UNIT ( ) NAMED_UNIT ( * ) SI_UNIT ( .MILLI., .METRE. ) );
#198 = PRESENTATION_STYLE_ASSIGNMENT (( #85 ) ) ;
#199 = PLANE ( 'NONE',  #8 ) ;
#200 = ORIENTED_EDGE ( 'NONE', *, *, #300, .T. ) ;
#201 = DIRECTION ( 'NONE',  ( 0.000000000000000000, 0.000000000000000000, -1.000000000000000000 ) ) ;
#202 = CARTESIAN_POINT ( 'NONE',  ( -9.999999999999987566, 40.00000000000000000, 0.000000000000000000 ) ) ;
#203 = CARTESIAN_POINT ( 'NONE',  ( 0.000000000000000000, 40.00000000000000000, 0.000000000000000000 ) ) ;
#204 = PRODUCT_DEFINITION ( 'UNKNOWN', '', #70, #296 ) ;
#205 = STYLED_ITEM ( 'NONE', ( #44 ), #18 ) ;
#206 = STYLED_ITEM ( 'NONE', ( #37 ), #334 ) ;
#207 = ORIENTED_EDGE ( 'NONE', *, *, #99, .F. ) ;
#208 = DIRECTION ( 'NONE',  ( 0.000000000000000000, 0.000000000000000000, -1.000000000000000000 ) ) ;
#209 = CIRCLE ( 'NONE', #114, 0.5000000000000004441 ) ;
#210 = UNCERTAINTY_MEASURE_WITH_UNIT (LENGTH_MEASURE( 1.000000000000000082E-05 ), #279, 'distance_accuracy_value', 'NONE');
#211 =( NAMED_UNIT ( * ) SI_UNIT ( $, .STERADIAN. ) SOLID_ANGLE_UNIT ( ) );
#212 = CARTESIAN_POINT ( 'NONE',  ( 0.000000000000000000, 0.000000000000000000, 0.000000000000000000 ) ) ;
#213 =( GEOMETRIC_REPRESENTATION_CONTEXT ( 3 ) GLOBAL_UNCERTAINTY_ASSIGNED_CONTEXT ( ( #240 ) ) GLOBAL_UNIT_ASSIGNED_CONTEXT ( ( #17, #74, #128 ) ) REPRESENTATION_CONTEXT ( 'NONE', 'WORKASPACE' ) );
#214 = FACE_OUTER_BOUND ( 'NONE', #82, .T. ) ;
#215 = STYLED_ITEM ( 'NONE', ( #120 ), #216 ) ;
#216 = ADVANCED_FACE ( 'NONE', ( #125 ), #221, .T. ) ;
#217 =( NAMED_UNIT ( * ) PLANE_ANGLE_UNIT ( ) SI_UNIT ( $, .RADIAN. ) );
#218 = APPLICATION_PROTOCOL_DEFINITION ( 'draft international standard', 'automotive_design', 1998, #191 ) ;
#219 = CARTESIAN_POINT ( 'NONE',  ( 6.071532165918824830E-15, 40.00000000000000000, 0.000000000000000000 ) ) ;
#220 = SURFACE_STYLE_USAGE ( .BOTH. , #131 ) ;
#221 = TOROIDAL_SURFACE ( 'NONE', #236, 9.500000000000000000, 0.5000000000000002220 ) ;
#222 = DIRECTION ( 'NONE',  ( -1.224646799147353454E-16, 0.000000000000000000, -1.000000000000000000 ) ) ;
#223 = FILL_AREA_STYLE_COLOUR ( '', #299 ) ;
#224 = DIRECTION ( 'NONE',  ( -0.000000000000000000, -1.000000000000000000, -0.000000000000000000 ) ) ;
#225 = ORIENTED_EDGE ( 'NONE', *, *, #113, .F. ) ;
#226 = MECHANICAL_DESIGN_GEOMETRIC_PRESENTATION_REPRESENTATION (  '', ( #337 ), #319 ) ;
#227 = DIRECTION ( 'NONE',  ( 1.000000000000000000, 1.236440607496819135E-16, 0.000000000000000000 ) ) ;
#228 = DIRECTION ( 'NONE',  ( -0.000000000000000000, -1.000000000000000000, -0.000000000000000000 ) ) ;
#229 = PLANE ( 'NONE',  #353 ) ;
#230 = ORIENTED_EDGE ( 'NONE', *, *, #171, .F. ) ;
#231 = FILL_AREA_STYLE ('',( #146 ) ) ;
#232 = EDGE_LOOP ( 'NONE', ( #225, #66 ) ) ;
#233 = MECHANICAL_DESIGN_GEOMETRIC_PRESENTATION_REPRESENTATION (  '', ( #206 ), #324 ) ;
#234 = EDGE_LOOP ( 'NONE', ( #258, #172, #362, #207 ) ) ;
#235 = CARTESIAN_POINT ( 'NONE',  ( 1.194030629168669469E-15, 0.000000000000000000, 9.500000000000000000 ) ) ;
#236 = AXIS2_PLACEMENT_3D ( 'NONE', #249, #224, #75 ) ;
#237 = EDGE_CURVE ( 'NONE', #286, #119, #80, .T. ) ;
#238 = SURFACE_SIDE_STYLE ('',( #326 ) ) ;
#239 = FILL_AREA_STYLE ('',( #157 ) ) ;
#240 = UNCERTAINTY_MEASURE_WITH_UNIT (LENGTH_MEASURE( 1.000000000000000082E-05 ), #17, 'distance_accuracy_value', 'NONE');
#241 = SURFACE_STYLE_FILL_AREA ( #239 ) ;
#242 = EDGE_CURVE ( 'NONE', #119, #142, #283, .T. ) ;
#243 = PRESENTATION_STYLE_ASSIGNMENT (( #220 ) ) ;
#244 = CARTESIAN_POINT ( 'NONE',  ( -1.347111479062089982E-15, 100.0000000000000000, 0.000000000000000000 ) ) ;
#245 = FACE_OUTER_BOUND ( 'NONE', #312, .T. ) ;
#246 = DIRECTION ( 'NONE',  ( 0.000000000000000000, 0.000000000000000000, -1.000000000000000000 ) ) ;
#247 = AXIS2_PLACEMENT_3D ( 'NONE', #342, #90, #201 ) ;
#248 =( NAMED_UNIT ( * ) SI_UNIT ( $, .STERADIAN. ) SOLID_ANGLE_UNIT ( ) );
#249 = CARTESIAN_POINT ( 'NONE',  ( 0.000000000000000000, 0.5000000000000000000, 0.000000000000000000 ) ) ;
#250 = ORIENTED_EDGE ( 'NONE', *, *, #129, .T. ) ;
#251 = LINE ( 'NONE', #363, #127 ) ;
#252 = FACE_OUTER_BOUND ( 'NONE', #317, .T. ) ;
#253 =( GEOMETRIC_REPRESENTATION_CONTEXT ( 3 ) GLOBAL_UNCERTAINTY_ASSIGNED_CONTEXT ( ( #100 ) ) GLOBAL_UNIT_ASSIGNED_CONTEXT ( ( #20, #273, #110 ) ) REPRESENTATION_CONTEXT ( 'NONE', 'WORKASPACE' ) );
#254 = EDGE_LOOP ( 'NONE', ( #335, #92, #364, #147 ) ) ;
#255 = CARTESIAN_POINT ( 'NONE',  ( -10.00000000000000533, 100.0000000000000000, 0.000000000000000000 ) ) ;
#256 = DIRECTION ( 'NONE',  ( 0.000000000000000000, 0.000000000000000000, -1.000000000000000000 ) ) ;
#257 = CARTESIAN_POINT ( 'NONE',  ( 0.000000000000000000, 0.000000000000000000, -9.500000000000000000 ) ) ;
#258 = ORIENTED_EDGE ( 'NONE', *, *, #135, .F. ) ;
#259 = MECHANICAL_DESIGN_GEOMETRIC_PRESENTATION_REPRESENTATION (  '', ( #55 ), #149 ) ;
#260 = CIRCLE ( 'NONE', #77, 10.00000000000000000 ) ;
#261 = FILL_AREA_STYLE_COLOUR ( '', #94 ) ;
#262 = CIRCLE ( 'NONE', #367, 10.00000000000000000 ) ;
#263 = DIRECTION ( 'NONE',  ( 0.000000000000000000, 0.000000000000000000, 1.000000000000000000 ) ) ;
#264 = UNCERTAINTY_MEASURE_WITH_UNIT (LENGTH_MEASURE( 1.000000000000000082E-05 ), #346, 'distance_accuracy_value', 'NONE');
#265 = SURFACE_STYLE_FILL_AREA ( #325 ) ;
#266 = DIRECTION ( 'NONE',  ( -0.000000000000000000, -1.000000000000000000, -0.000000000000000000 ) ) ;
#267 = CARTESIAN_POINT ( 'NONE',  ( 0.000000000000000000, 40.00000000000000000, 0.000000000000000000 ) ) ;
#268 = AXIS2_PLACEMENT_3D ( 'NONE', #368, #144, #163 ) ;
#269 = DIRECTION ( 'NONE',  ( -1.000000000000000000, -1.236440607496819135E-16, 0.000000000000000000 ) ) ;
#270 = APPLICATION_PROTOCOL_DEFINITION ( 'draft international standard', 'automotive_design', 1998, #24 ) ;
#271 = DIRECTION ( 'NONE',  ( -0.000000000000000000, -1.000000000000000000, -0.000000000000000000 ) ) ;
#272 = FILL_AREA_STYLE ('',( #223 ) ) ;
#273 =( NAMED_UNIT ( * ) PLANE_ANGLE_UNIT ( ) SI_UNIT ( $, .RADIAN. ) );
#274 = SURFACE_SIDE_STYLE ('',( #192 ) ) ;
#275 = EDGE_CURVE ( 'NONE', #303, #142, #251, .T. ) ;
#276 = CARTESIAN_POINT ( 'NONE',  ( 0.000000000000000000, 0.000000000000000000, 0.000000000000000000 ) ) ;
#277 =( NAMED_UNIT ( * ) PLANE_ANGLE_UNIT ( ) SI_UNIT ( $, .RADIAN. ) );
#278 = EDGE_LOOP ( 'NONE', ( #1, #101, #27, #168 ) ) ;
#279 =( LENGTH_UNIT ( ) NAMED_UNIT ( * ) SI_UNIT ( .MILLI., .METRE. ) );
#280 = FILL_AREA_STYLE ('',( #179 ) ) ;
#281 = AXIS2_PLACEMENT_3D ( 'NONE', #107, #72, #43 ) ;
#282 = COLOUR_RGB ( '',1.000000000000000000, 0.000000000000000000, 0.000000000000000000 ) ;
#283 = CIRCLE ( 'NONE', #4, 10.00000000000000355 ) ;
#284 = DIRECTION ( 'NONE',  ( -0.000000000000000000, -1.000000000000000000, -0.000000000000000000 ) ) ;
#285 = DIRECTION ( 'NONE',  ( 0.000000000000000000, -0.000000000000000000, 1.000000000000000000 ) ) ;
#286 = VERTEX_POINT ( 'NONE', #158 ) ;
#287 = SURFACE_STYLE_FILL_AREA ( #280 ) ;
#288 = COLOUR_RGB ( '',1.000000000000000000, 0.000000000000000000, 0.000000000000000000 ) ;
#289 = AXIS2_PLACEMENT_3D ( 'NONE', #244, #126, #132 ) ;
#290 = CARTESIAN_POINT ( 'NONE',  ( -1.347111479062090180E-15, 100.0000000000000000, 0.000000000000000000 ) ) ;
#291 = DIRECTION ( 'NONE',  ( -0.000000000000000000, -1.000000000000000000, -0.000000000000000000 ) ) ;
#292 = CARTESIAN_POINT ( 'NONE',  ( 0.000000000000000000, 0.000000000000000000, 0.000000000000000000 ) ) ;
#293 = VERTEX_POINT ( 'NONE', #16 ) ;
#294 = SURFACE_STYLE_FILL_AREA ( #6 ) ;
#295 = SURFACE_STYLE_USAGE ( .BOTH. , #238 ) ;
#296 = PRODUCT_DEFINITION_CONTEXT ( 'detailed design', #191, 'design' ) ;
#297 = DIRECTION ( 'NONE',  ( 1.000000000000000000, 0.000000000000000000, 0.000000000000000000 ) ) ;
#298 = AXIS2_PLACEMENT_3D ( 'NONE', #219, #327, #269 ) ;
#299 = COLOUR_RGB ( '',0.7921568627450980005, 0.8196078431372548767, 0.9333333333333333481 ) ;
#300 = EDGE_CURVE ( 'NONE', #5, #339, #260, .T. ) ;
#301 = UNCERTAINTY_MEASURE_WITH_UNIT (LENGTH_MEASURE( 1.000000000000000082E-05 ), #45, 'distance_accuracy_value', 'NONE');
#302 = DIRECTION ( 'NONE',  ( 0.000000000000000000, 0.000000000000000000, -1.000000000000000000 ) ) ;
#303 = VERTEX_POINT ( 'NONE', #202 ) ;
#304 =( NAMED_UNIT ( * ) PLANE_ANGLE_UNIT ( ) SI_UNIT ( $, .RADIAN. ) );
#305 = ADVANCED_FACE ( 'NONE', ( #91 ), #343, .T. ) ;
#306 = AXIS2_PLACEMENT_3D ( 'NONE', #174, #314, #170 ) ;
#307 = AXIS2_PLACEMENT_3D ( 'NONE', #292, #2, #208 ) ;
#308 = ORIENTED_EDGE ( 'NONE', *, *, #242, .T. ) ;
#309 = ORIENTED_EDGE ( 'NONE', *, *, #99, .T. ) ;
#310 = DIRECTION ( 'NONE',  ( 1.000000000000000000, 0.000000000000000000, -1.224646799147353207E-16 ) ) ;
#311 = SURFACE_STYLE_USAGE ( .BOTH. , #176 ) ;
#312 = EDGE_LOOP ( 'NONE', ( #250, #309 ) ) ;
#313 = CARTESIAN_POINT ( 'NONE',  ( 0.000000000000000000, 0.5000000000000000000, 0.000000000000000000 ) ) ;
#314 = DIRECTION ( 'NONE',  ( -1.236440607496819135E-16, 1.000000000000000000, -0.000000000000000000 ) ) ;
#315 = DIRECTION ( 'NONE',  ( 0.000000000000000000, 1.000000000000000000, 0.000000000000000000 ) ) ;
#316 = AXIS2_PLACEMENT_3D ( 'NONE', #369, #228, #256 ) ;
#317 = EDGE_LOOP ( 'NONE', ( #71, #308 ) ) ;
#318 = CARTESIAN_POINT ( 'NONE',  ( 1.224646799147353256E-15, 0.5000000000000000000, 10.00000000000000000 ) ) ;
#319 =( GEOMETRIC_REPRESENTATION_CONTEXT ( 3 ) GLOBAL_UNCERTAINTY_ASSIGNED_CONTEXT ( ( #210 ) ) GLOBAL_UNIT_ASSIGNED_CONTEXT ( ( #279, #304, #248 ) ) REPRESENTATION_CONTEXT ( 'NONE', 'WORKASPACE' ) );
#320 = CIRCLE ( 'NONE', #173, 9.999999999999994671 ) ;
#321 = UNCERTAINTY_MEASURE_WITH_UNIT (LENGTH_MEASURE( 1.000000000000000082E-05 ), #197, 'distance_accuracy_value', 'NONE');
#322 = PLANE ( 'NONE',  #347 ) ;
#323 = UNCERTAINTY_MEASURE_WITH_UNIT (LENGTH_MEASURE( 1.000000000000000082E-05 ), #351, 'distance_accuracy_value', 'NONE');
#324 =( GEOMETRIC_REPRESENTATION_CONTEXT ( 3 ) GLOBAL_UNCERTAINTY_ASSIGNED_CONTEXT ( ( #51 ) ) GLOBAL_UNIT_ASSIGNED_CONTEXT ( ( #89, #124, #145 ) ) REPRESENTATION_CONTEXT ( 'NONE', 'WORKASPACE' ) );
#325 = FILL_AREA_STYLE ('',( #330 ) ) ;
#326 = SURFACE_STYLE_FILL_AREA ( #103 ) ;
#327 = DIRECTION ( 'NONE',  ( -1.236440607496819135E-16, 1.000000000000000000, 0.000000000000000000 ) ) ;
#328 = ADVANCED_FACE ( 'NONE', ( #61 ), #137, .T. ) ;
#329 = STYLED_ITEM ( 'NONE', ( #198 ), #328 ) ;
#330 = FILL_AREA_STYLE_COLOUR ( '', #194 ) ;
#331 = PRESENTATION_LAYER_ASSIGNMENT (  '', '', ( #14 ) ) ;
#332 = PRODUCT_RELATED_PRODUCT_CATEGORY ( 'part', '', ( #81 ) ) ;
#333 = DIRECTION ( 'NONE',  ( -0.000000000000000000, -1.000000000000000000, -0.000000000000000000 ) ) ;
#334 = ADVANCED_FACE ( 'NONE', ( #64 ), #229, .T. ) ;
#335 = ORIENTED_EDGE ( 'NONE', *, *, #237, .F. ) ;
#336 = VERTEX_POINT ( 'NONE', #257 ) ;
#337 = STYLED_ITEM ( 'NONE', ( #141 ), #97 ) ;
#338 = COLOUR_RGB ( '',1.000000000000000000, 0.000000000000000000, 0.000000000000000000 ) ;
#339 = VERTEX_POINT ( 'NONE', #35 ) ;
#340 =( NAMED_UNIT ( * ) PLANE_ANGLE_UNIT ( ) SI_UNIT ( $, .RADIAN. ) );
#341 = SURFACE_STYLE_FILL_AREA ( #231 ) ;
#342 = CARTESIAN_POINT ( 'NONE',  ( 0.000000000000000000, 0.5000000000000000000, 0.000000000000000000 ) ) ;
#343 = CYLINDRICAL_SURFACE ( 'NONE', #306, 9.999999999999998224 ) ;
#344 = ORIENTED_EDGE ( 'NONE', *, *, #113, .T. ) ;
#345 = PRESENTATION_LAYER_ASSIGNMENT (  '', '', ( #206 ) ) ;
#346 =( LENGTH_UNIT ( ) NAMED_UNIT ( * ) SI_UNIT ( .MILLI., .METRE. ) );
#347 = AXIS2_PLACEMENT_3D ( 'NONE', #276, #365, #54 ) ;
#348 = AXIS2_PLACEMENT_3D ( 'NONE', #290, #349, #40 ) ;
#349 = DIRECTION ( 'NONE',  ( -1.236440607496819135E-16, 1.000000000000000000, -0.000000000000000000 ) ) ;
#350 = PRODUCT_DEFINITION_SHAPE ( 'NONE', 'NONE',  #204 ) ;
#351 =( LENGTH_UNIT ( ) NAMED_UNIT ( * ) SI_UNIT ( .MILLI., .METRE. ) );
#352 = CIRCLE ( 'NONE', #83, 10.00000000000000000 ) ;
#353 = AXIS2_PLACEMENT_3D ( 'NONE', #203, #315, #285 ) ;
#354 = CARTESIAN_POINT ( 'NONE',  ( 0.000000000000000000, 0.000000000000000000, 0.000000000000000000 ) ) ;
#355 = SURFACE_STYLE_USAGE ( .BOTH. , #102 ) ;
#356 = VECTOR ( 'NONE', #291, 1000.000000000000000 ) ;
#357 = SURFACE_STYLE_USAGE ( .BOTH. , #109 ) ;
#358 = DIRECTION ( 'NONE',  ( -1.236440607496819135E-16, 1.000000000000000000, -0.000000000000000000 ) ) ;
#359 =( GEOMETRIC_REPRESENTATION_CONTEXT ( 3 ) GLOBAL_UNCERTAINTY_ASSIGNED_CONTEXT ( ( #301 ) ) GLOBAL_UNIT_ASSIGNED_CONTEXT ( ( #45, #12, #156 ) ) REPRESENTATION_CONTEXT ( 'NONE', 'WORKASPACE' ) );
#360 = EDGE_CURVE ( 'NONE', #142, #119, #39, .T. ) ;
#361 = SURFACE_STYLE_FILL_AREA ( #272 ) ;
#362 = ORIENTED_EDGE ( 'NONE', *, *, #62, .T. ) ;
#363 = CARTESIAN_POINT ( 'NONE',  ( -10.00000000000000000, 100.0000000000000000, 0.000000000000000000 ) ) ;
#364 = ORIENTED_EDGE ( 'NONE', *, *, #275, .T. ) ;
#365 = DIRECTION ( 'NONE',  ( 0.000000000000000000, -1.000000000000000000, -0.000000000000000000 ) ) ;
#366 = AXIS2_PLACEMENT_3D ( 'NONE', #10, #161, #15 ) ;
#367 = AXIS2_PLACEMENT_3D ( 'NONE', #313, #271, #246 ) ;
#368 = CARTESIAN_POINT ( 'NONE',  ( 0.000000000000000000, 0.000000000000000000, 0.000000000000000000 ) ) ;
#369 = CARTESIAN_POINT ( 'NONE',  ( 0.000000000000000000, 0.5000000000000000000, 0.000000000000000000 ) ) ;
#370 = ADVANCED_FACE ( 'NONE', ( #155 ), #151, .T. ) ;
ENDSEC;
END-ISO-10303-21;
