ISO-10303-21;
HEADER;
FILE_DESCRIPTION (( 'STEP AP214' ),
    '1' );
FILE_NAME ('03152.STEP',
    '2023-06-22T14:58:18',
    ( '' ),
    ( '' ),
    'SwSTEP 2.0',
    'SolidWorks 2023',
    '' );
FILE_SCHEMA (( 'AUTOMOTIVE_DESIGN' ));
ENDSEC;

DATA;
#1 = AXIS2_PLACEMENT_3D ( 'NONE', #4, #48, #278 ) ;
#2 =( LENGTH_UNIT ( ) NAMED_UNIT ( * ) SI_UNIT ( $, .METRE. ) );
#3 = PRESENTATION_STYLE_ASSIGNMENT (( #265 ) ) ;
#4 = CARTESIAN_POINT ( 'NONE',  ( 8.874318240602707505E-35, 0.3750000000000000555, 0.000000000000000000 ) ) ;
#5 = CARTESIAN_POINT ( 'NONE',  ( 0.000000000000000000, 0.3750000000000000555, 0.000000000000000000 ) ) ;
#6 = MECHANICAL_DESIGN_GEOMETRIC_PRESENTATION_REPRESENTATION (  '', ( #296 ), #245 ) ;
#7 =( NAMED_UNIT ( * ) PLANE_ANGLE_UNIT ( ) SI_UNIT ( $, .RADIAN. ) );
#8 = ADVANCED_FACE ( 'NONE', ( #61 ), #40, .T. ) ;
#9 =( NAMED_UNIT ( * ) SI_UNIT ( $, .STERADIAN. ) SOLID_ANGLE_UNIT ( ) );
#10 = ORIENTED_EDGE ( 'NONE', *, *, #113, .T. ) ;
#11 = DIMENSIONAL_EXPONENTS ( 1.000000000000000000, 0.000000000000000000, 0.000000000000000000, 0.000000000000000000, 0.000000000000000000, 0.000000000000000000, 0.000000000000000000 ) ;
#12 = EDGE_LOOP ( 'NONE', ( #147, #57 ) ) ;
#13 = EDGE_CURVE ( 'NONE', #121, #301, #275, .T. ) ;
#14 = AXIS2_PLACEMENT_3D ( 'NONE', #191, #135, #215 ) ;
#15 = ORIENTED_EDGE ( 'NONE', *, *, #49, .F. ) ;
#16 = EDGE_CURVE ( 'NONE', #256, #121, #186, .T. ) ;
#17 = PRODUCT ( '03152', '03152', '', ( #184 ) ) ;
#18 = ORIENTED_EDGE ( 'NONE', *, *, #302, .T. ) ;
#19 = DIMENSIONAL_EXPONENTS ( 1.000000000000000000, 0.000000000000000000, 0.000000000000000000, 0.000000000000000000, 0.000000000000000000, 0.000000000000000000, 0.000000000000000000 ) ;
#20 = ORIENTED_EDGE ( 'NONE', *, *, #13, .T. ) ;
#21 = CARTESIAN_POINT ( 'NONE',  ( 0.000000000000000000, 0.3749999999999999445, 0.000000000000000000 ) ) ;
#22 = FILL_AREA_STYLE_COLOUR ( '', #289 ) ;
#23 = UNCERTAINTY_MEASURE_WITH_UNIT (LENGTH_MEASURE( 1.000000000000000082E-05 ), #160, 'distance_accuracy_value', 'NONE');
#24 = DIRECTION ( 'NONE',  ( -0.000000000000000000, -1.000000000000000000, -0.000000000000000000 ) ) ;
#25 = SURFACE_STYLE_USAGE ( .BOTH. , #240 ) ;
#26 = CIRCLE ( 'NONE', #103, 0.1250000000000000278 ) ;
#27 = DIRECTION ( 'NONE',  ( 0.000000000000000000, 0.000000000000000000, -1.000000000000000000 ) ) ;
#28 = ADVANCED_FACE ( 'NONE', ( #216 ), #162, .F. ) ;
#29 = DIRECTION ( 'NONE',  ( -0.000000000000000000, -1.000000000000000000, -0.000000000000000000 ) ) ;
#30 = DIRECTION ( 'NONE',  ( 0.000000000000000000, -1.000000000000000000, -0.000000000000000000 ) ) ;
#31 = EDGE_CURVE ( 'NONE', #256, #304, #305, .T. ) ;
#32 = DIRECTION ( 'NONE',  ( 1.000000000000000000, 0.000000000000000000, 0.000000000000000000 ) ) ;
#33 = STYLED_ITEM ( 'NONE', ( #267 ), #285 ) ;
#34 = LINE ( 'NONE', #141, #73 ) ;
#35 = LENGTH_MEASURE_WITH_UNIT ( LENGTH_MEASURE( 0.02539999999999999897 ), #116 );
#36 = COLOUR_RGB ( '',1.000000000000000000, 0.000000000000000000, 0.000000000000000000 ) ;
#37 = FILL_AREA_STYLE ('',( #246 ) ) ;
#38 = ORIENTED_EDGE ( 'NONE', *, *, #142, .F. ) ;
#39 = ORIENTED_EDGE ( 'NONE', *, *, #91, .T. ) ;
#40 = CYLINDRICAL_SURFACE ( 'NONE', #200, 0.1250000000000000000 ) ;
#41 = DIRECTION ( 'NONE',  ( -0.000000000000000000, -1.000000000000000000, -0.000000000000000000 ) ) ;
#42 = APPLICATION_PROTOCOL_DEFINITION ( 'draft international standard', 'automotive_design', 1998, #217 ) ;
#43 =( NAMED_UNIT ( * ) SI_UNIT ( $, .STERADIAN. ) SOLID_ANGLE_UNIT ( ) );
#44 = CLOSED_SHELL ( 'NONE', ( #177, #68, #8, #202 ) ) ;
#45 = PRESENTATION_STYLE_ASSIGNMENT (( #259 ) ) ;
#46 = CARTESIAN_POINT ( 'NONE',  ( 0.1250000000000000278, 0.3749999999999999445, 1.530808498934191817E-17 ) ) ;
#47 = PLANE ( 'NONE',  #94 ) ;
#48 = DIRECTION ( 'NONE',  ( 3.768143997376471359E-17, 1.000000000000000000, -0.000000000000000000 ) ) ;
#49 = EDGE_CURVE ( 'NONE', #62, #151, #75, .T. ) ;
#50 = CARTESIAN_POINT ( 'NONE',  ( 6.123233995736766036E-17, 2.000000000000000000, 0.000000000000000000 ) ) ;
#51 =( NAMED_UNIT ( * ) SI_UNIT ( $, .STERADIAN. ) SOLID_ANGLE_UNIT ( ) );
#52 =( GEOMETRIC_REPRESENTATION_CONTEXT ( 3 ) GLOBAL_UNCERTAINTY_ASSIGNED_CONTEXT ( ( #189 ) ) GLOBAL_UNIT_ASSIGNED_CONTEXT ( ( #118, #76, #269 ) ) REPRESENTATION_CONTEXT ( 'NONE', 'WORKASPACE' ) );
#53 =( CONVERSION_BASED_UNIT ( 'INCH', #35 ) LENGTH_UNIT ( ) NAMED_UNIT ( #211 ) );
#54 =( NAMED_UNIT ( * ) PLANE_ANGLE_UNIT ( ) SI_UNIT ( $, .RADIAN. ) );
#55 = ADVANCED_FACE ( 'NONE', ( #128 ), #65, .F. ) ;
#56 = ORIENTED_EDGE ( 'NONE', *, *, #171, .T. ) ;
#57 = ORIENTED_EDGE ( 'NONE', *, *, #142, .T. ) ;
#58 = ORIENTED_EDGE ( 'NONE', *, *, #247, .F. ) ;
#59 = LINE ( 'NONE', #150, #148 ) ;
#60 = PRODUCT_DEFINITION_SHAPE ( 'NONE', 'NONE',  #198 ) ;
#61 = FACE_OUTER_BOUND ( 'NONE', #249, .T. ) ;
#62 = VERTEX_POINT ( 'NONE', #134 ) ;
#63 = EDGE_CURVE ( 'NONE', #301, #121, #164, .T. ) ;
#64 = SURFACE_STYLE_FILL_AREA ( #306 ) ;
#65 = PLANE ( 'NONE',  #1 ) ;
#66 = FACE_OUTER_BOUND ( 'NONE', #149, .T. ) ;
#67 = FACE_OUTER_BOUND ( 'NONE', #12, .T. ) ;
#68 = ADVANCED_FACE ( 'NONE', ( #239 ), #190, .T. ) ;
#69 = UNCERTAINTY_MEASURE_WITH_UNIT (LENGTH_MEASURE( 1.000000000000000082E-05 ), #170, 'distance_accuracy_value', 'NONE');
#70 = CARTESIAN_POINT ( 'NONE',  ( 0.1250000000000000555, 2.000000000000000000, 1.530808498934191201E-17 ) ) ;
#71 = DIRECTION ( 'NONE',  ( 0.000000000000000000, 0.000000000000000000, -1.000000000000000000 ) ) ;
#72 = FILL_AREA_STYLE_COLOUR ( '', #242 ) ;
#73 = VECTOR ( 'NONE', #295, 39.37007874015748143 ) ;
#74 = SURFACE_STYLE_FILL_AREA ( #37 ) ;
#75 = CIRCLE ( 'NONE', #226, 0.1250000000000000000 ) ;
#76 =( NAMED_UNIT ( * ) PLANE_ANGLE_UNIT ( ) SI_UNIT ( $, .RADIAN. ) );
#77 = LENGTH_MEASURE_WITH_UNIT ( LENGTH_MEASURE( 0.02539999999999999897 ), #95 );
#78 = SHAPE_DEFINITION_REPRESENTATION ( #60, #161 ) ;
#79 = ORIENTED_EDGE ( 'NONE', *, *, #16, .T. ) ;
#80 = DIRECTION ( 'NONE',  ( -0.000000000000000000, -1.000000000000000000, -0.000000000000000000 ) ) ;
#81 = DIRECTION ( 'NONE',  ( -1.000000000000000000, 0.000000000000000000, 0.000000000000000000 ) ) ;
#82 = ORIENTED_EDGE ( 'NONE', *, *, #113, .F. ) ;
#83 = ORIENTED_EDGE ( 'NONE', *, *, #31, .F. ) ;
#84 = CIRCLE ( 'NONE', #276, 0.1250000000000000278 ) ;
#85 = DIRECTION ( 'NONE',  ( -1.000000000000000000, 0.000000000000000000, 0.000000000000000000 ) ) ;
#86 = DIRECTION ( 'NONE',  ( -1.000000000000000000, 0.000000000000000000, 0.000000000000000000 ) ) ;
#87 = SURFACE_STYLE_USAGE ( .BOTH. , #308 ) ;
#88 = DIRECTION ( 'NONE',  ( -1.000000000000000000, 0.000000000000000000, 0.000000000000000000 ) ) ;
#89 = CIRCLE ( 'NONE', #111, 0.1250000000000000000 ) ;
#90 =( GEOMETRIC_REPRESENTATION_CONTEXT ( 3 ) GLOBAL_UNCERTAINTY_ASSIGNED_CONTEXT ( ( #69 ) ) GLOBAL_UNIT_ASSIGNED_CONTEXT ( ( #170, #54, #9 ) ) REPRESENTATION_CONTEXT ( 'NONE', 'WORKASPACE' ) );
#91 = EDGE_CURVE ( 'NONE', #255, #62, #221, .T. ) ;
#92 = CARTESIAN_POINT ( 'NONE',  ( 0.000000000000000000, 0.000000000000000000, 0.000000000000000000 ) ) ;
#93 = CARTESIAN_POINT ( 'NONE',  ( 1.530808498934191817E-17, 0.3750000000000000555, 0.1250000000000000278 ) ) ;
#94 = AXIS2_PLACEMENT_3D ( 'NONE', #92, #30, #27 ) ;
#95 =( LENGTH_UNIT ( ) NAMED_UNIT ( * ) SI_UNIT ( $, .METRE. ) );
#96 = ORIENTED_EDGE ( 'NONE', *, *, #302, .F. ) ;
#97 = AXIS2_PLACEMENT_3D ( 'NONE', #5, #195, #290 ) ;
#98 = STYLED_ITEM ( 'NONE', ( #270 ), #287 ) ;
#99 = ORIENTED_EDGE ( 'NONE', *, *, #63, .T. ) ;
#100 = DIMENSIONAL_EXPONENTS ( 1.000000000000000000, 0.000000000000000000, 0.000000000000000000, 0.000000000000000000, 0.000000000000000000, 0.000000000000000000, 0.000000000000000000 ) ;
#101 = SURFACE_SIDE_STYLE ('',( #127 ) ) ;
#102 = DIRECTION ( 'NONE',  ( -0.000000000000000000, -1.000000000000000000, -0.000000000000000000 ) ) ;
#103 = AXIS2_PLACEMENT_3D ( 'NONE', #303, #233, #231 ) ;
#104 = PRESENTATION_LAYER_ASSIGNMENT (  '', '', ( #98 ) ) ;
#105 = DIRECTION ( 'NONE',  ( 0.000000000000000000, 0.000000000000000000, -1.000000000000000000 ) ) ;
#106 = DIRECTION ( 'NONE',  ( 3.768143997376471359E-17, 1.000000000000000000, -0.000000000000000000 ) ) ;
#107 = SURFACE_STYLE_FILL_AREA ( #156 ) ;
#108 = UNCERTAINTY_MEASURE_WITH_UNIT (LENGTH_MEASURE( 1.000000000000000082E-05 ), #53, 'distance_accuracy_value', 'NONE');
#109 = DIRECTION ( 'NONE',  ( 3.768143997376471359E-17, 1.000000000000000000, -0.000000000000000000 ) ) ;
#110 = FILL_AREA_STYLE ('',( #72 ) ) ;
#111 = AXIS2_PLACEMENT_3D ( 'NONE', #179, #102, #105 ) ;
#112 = PRESENTATION_LAYER_ASSIGNMENT (  '', '', ( #144 ) ) ;
#113 = EDGE_CURVE ( 'NONE', #255, #203, #197, .T. ) ;
#114 = DIRECTION ( 'NONE',  ( 3.768143997376471359E-17, 1.000000000000000000, -0.000000000000000000 ) ) ;
#115 = LENGTH_MEASURE_WITH_UNIT ( LENGTH_MEASURE( 0.02539999999999999897 ), #274 );
#116 =( LENGTH_UNIT ( ) NAMED_UNIT ( * ) SI_UNIT ( $, .METRE. ) );
#117 = ADVANCED_FACE ( 'NONE', ( #183 ), #208, .T. ) ;
#118 =( CONVERSION_BASED_UNIT ( 'INCH', #294 ) LENGTH_UNIT ( ) NAMED_UNIT ( #153 ) );
#119 = SURFACE_SIDE_STYLE ('',( #74 ) ) ;
#120 = DIMENSIONAL_EXPONENTS ( 1.000000000000000000, 0.000000000000000000, 0.000000000000000000, 0.000000000000000000, 0.000000000000000000, 0.000000000000000000, 0.000000000000000000 ) ;
#121 = VERTEX_POINT ( 'NONE', #152 ) ;
#122 = EDGE_LOOP ( 'NONE', ( #10, #56, #15, #272 ) ) ;
#123 = PRESENTATION_LAYER_ASSIGNMENT (  '', '', ( #253 ) ) ;
#124 = COLOUR_RGB ( '',0.7921568627450980005, 0.8196078431372548767, 0.9333333333333333481 ) ;
#125 = DIRECTION ( 'NONE',  ( 3.768143997376471359E-17, 1.000000000000000000, -0.000000000000000000 ) ) ;
#126 = FILL_AREA_STYLE_COLOUR ( '', #300 ) ;
#127 = SURFACE_STYLE_FILL_AREA ( #232 ) ;
#128 = FACE_OUTER_BOUND ( 'NONE', #175, .T. ) ;
#129 = FACE_OUTER_BOUND ( 'NONE', #122, .T. ) ;
#130 = PRODUCT_RELATED_PRODUCT_CATEGORY ( 'part', '', ( #17 ) ) ;
#131 = CARTESIAN_POINT ( 'NONE',  ( 0.000000000000000000, 0.000000000000000000, 0.000000000000000000 ) ) ;
#132 = SURFACE_SIDE_STYLE ('',( #64 ) ) ;
#133 = FILL_AREA_STYLE_COLOUR ( '', #124 ) ;
#134 = CARTESIAN_POINT ( 'NONE',  ( 0.000000000000000000, 0.000000000000000000, -0.1250000000000000000 ) ) ;
#135 = DIRECTION ( 'NONE',  ( -0.000000000000000000, -1.000000000000000000, -0.000000000000000000 ) ) ;
#136 =( NAMED_UNIT ( * ) PLANE_ANGLE_UNIT ( ) SI_UNIT ( $, .RADIAN. ) );
#137 = UNCERTAINTY_MEASURE_WITH_UNIT (LENGTH_MEASURE( 1.000000000000000082E-05 ), #185, 'distance_accuracy_value', 'NONE');
#138 = SURFACE_STYLE_USAGE ( .BOTH. , #119 ) ;
#139 = CLOSED_SHELL ( 'NONE', ( #219, #55, #117, #28 ) ) ;
#140 = AXIS2_PLACEMENT_3D ( 'NONE', #293, #167, #32 ) ;
#141 = CARTESIAN_POINT ( 'NONE',  ( -0.1249999999999999167, 2.000000000000000000, 0.000000000000000000 ) ) ;
#142 = EDGE_CURVE ( 'NONE', #151, #62, #89, .T. ) ;
#143 = AXIS2_PLACEMENT_3D ( 'NONE', #146, #279, #206 ) ;
#144 = STYLED_ITEM ( 'NONE', ( #3 ), #202 ) ;
#145 = CARTESIAN_POINT ( 'NONE',  ( -0.1249999999999998751, 2.000000000000000000, 0.000000000000000000 ) ) ;
#146 = CARTESIAN_POINT ( 'NONE',  ( 0.000000000000000000, 0.3750000000000000555, 0.000000000000000000 ) ) ;
#147 = ORIENTED_EDGE ( 'NONE', *, *, #49, .T. ) ;
#148 = VECTOR ( 'NONE', #41, 39.37007874015748143 ) ;
#149 = EDGE_LOOP ( 'NONE', ( #178, #79, #205, #96 ) ) ;
#150 = CARTESIAN_POINT ( 'NONE',  ( 1.530808498934191509E-17, 0.000000000000000000, 0.1250000000000000000 ) ) ;
#151 = VERTEX_POINT ( 'NONE', #176 ) ;
#152 = CARTESIAN_POINT ( 'NONE',  ( 0.1250000000000000278, 2.000000000000000000, 1.530808498934191817E-17 ) ) ;
#153 = DIMENSIONAL_EXPONENTS ( 1.000000000000000000, 0.000000000000000000, 0.000000000000000000, 0.000000000000000000, 0.000000000000000000, 0.000000000000000000, 0.000000000000000000 ) ;
#154 =( NAMED_UNIT ( * ) SI_UNIT ( $, .STERADIAN. ) SOLID_ANGLE_UNIT ( ) );
#155 = FILL_AREA_STYLE_COLOUR ( '', #36 ) ;
#156 = FILL_AREA_STYLE ('',( #133 ) ) ;
#157 = PRESENTATION_LAYER_ASSIGNMENT (  '', '', ( #296 ) ) ;
#158 = DIRECTION ( 'NONE',  ( 0.000000000000000000, 0.000000000000000000, -1.000000000000000000 ) ) ;
#159 =( CONVERSION_BASED_UNIT ( 'INCH', #223 ) LENGTH_UNIT ( ) NAMED_UNIT ( #100 ) );
#160 =( CONVERSION_BASED_UNIT ( 'INCH', #236 ) LENGTH_UNIT ( ) NAMED_UNIT ( #11 ) );
#161 = ADVANCED_BREP_SHAPE_REPRESENTATION ( '03152', ( #285, #287, #140 ), #90 ) ;
#162 = PLANE ( 'NONE',  #224 ) ;
#163 = SURFACE_SIDE_STYLE ('',( #244 ) ) ;
#164 = CIRCLE ( 'NONE', #268, 0.1249999999999999445 ) ;
#165 = AXIS2_PLACEMENT_3D ( 'NONE', #193, #114, #88 ) ;
#166 =( LENGTH_UNIT ( ) NAMED_UNIT ( * ) SI_UNIT ( $, .METRE. ) );
#167 = DIRECTION ( 'NONE',  ( 0.000000000000000000, 0.000000000000000000, 1.000000000000000000 ) ) ;
#168 = AXIS2_PLACEMENT_3D ( 'NONE', #257, #106, #85 ) ;
#169 =( GEOMETRIC_REPRESENTATION_CONTEXT ( 3 ) GLOBAL_UNCERTAINTY_ASSIGNED_CONTEXT ( ( #261 ) ) GLOBAL_UNIT_ASSIGNED_CONTEXT ( ( #159, #238, #196 ) ) REPRESENTATION_CONTEXT ( 'NONE', 'WORKASPACE' ) );
#170 =( CONVERSION_BASED_UNIT ( 'INCH', #77 ) LENGTH_UNIT ( ) NAMED_UNIT ( #19 ) );
#171 = EDGE_CURVE ( 'NONE', #203, #151, #59, .T. ) ;
#172 = AXIS2_PLACEMENT_3D ( 'NONE', #21, #109, #86 ) ;
#173 =( GEOMETRIC_REPRESENTATION_CONTEXT ( 3 ) GLOBAL_UNCERTAINTY_ASSIGNED_CONTEXT ( ( #108 ) ) GLOBAL_UNIT_ASSIGNED_CONTEXT ( ( #53, #7, #199 ) ) REPRESENTATION_CONTEXT ( 'NONE', 'WORKASPACE' ) );
#174 = EDGE_CURVE ( 'NONE', #304, #256, #26, .T. ) ;
#175 = EDGE_LOOP ( 'NONE', ( #209, #83 ) ) ;
#176 = CARTESIAN_POINT ( 'NONE',  ( 1.530808498934191509E-17, 0.000000000000000000, 0.1250000000000000000 ) ) ;
#177 = ADVANCED_FACE ( 'NONE', ( #129 ), #237, .T. ) ;
#178 = ORIENTED_EDGE ( 'NONE', *, *, #174, .T. ) ;
#179 = CARTESIAN_POINT ( 'NONE',  ( 0.000000000000000000, 0.000000000000000000, 0.000000000000000000 ) ) ;
#180 = VECTOR ( 'NONE', #307, 39.37007874015748143 ) ;
#181 = PRODUCT_DEFINITION_FORMATION_WITH_SPECIFIED_SOURCE ( 'ANY', '', #17, .NOT_KNOWN. ) ;
#182 = EDGE_LOOP ( 'NONE', ( #99, #20 ) ) ;
#183 = FACE_OUTER_BOUND ( 'NONE', #227, .T. ) ;
#184 = PRODUCT_CONTEXT ( 'NONE', #292, 'mechanical' ) ;
#185 =( CONVERSION_BASED_UNIT ( 'INCH', #284 ) LENGTH_UNIT ( ) NAMED_UNIT ( #235 ) );
#186 = LINE ( 'NONE', #70, #180 ) ;
#187 = CARTESIAN_POINT ( 'NONE',  ( 0.000000000000000000, 0.3750000000000000555, 0.000000000000000000 ) ) ;
#188 = VECTOR ( 'NONE', #80, 39.37007874015748143 ) ;
#189 = UNCERTAINTY_MEASURE_WITH_UNIT (LENGTH_MEASURE( 1.000000000000000082E-05 ), #118, 'distance_accuracy_value', 'NONE');
#190 = PLANE ( 'NONE',  #97 ) ;
#191 = CARTESIAN_POINT ( 'NONE',  ( 0.000000000000000000, 0.000000000000000000, 0.000000000000000000 ) ) ;
#192 =( NAMED_UNIT ( * ) PLANE_ANGLE_UNIT ( ) SI_UNIT ( $, .RADIAN. ) );
#193 = CARTESIAN_POINT ( 'NONE',  ( 6.123233995736766036E-17, 2.000000000000000000, 0.000000000000000000 ) ) ;
#194 = UNCERTAINTY_MEASURE_WITH_UNIT (LENGTH_MEASURE( 1.000000000000000082E-05 ), #241, 'distance_accuracy_value', 'NONE');
#195 = DIRECTION ( 'NONE',  ( 0.000000000000000000, 1.000000000000000000, 0.000000000000000000 ) ) ;
#196 =( NAMED_UNIT ( * ) SI_UNIT ( $, .STERADIAN. ) SOLID_ANGLE_UNIT ( ) );
#197 = CIRCLE ( 'NONE', #143, 0.1250000000000000278 ) ;
#198 = PRODUCT_DEFINITION ( 'UNKNOWN', '', #181, #282 ) ;
#199 =( NAMED_UNIT ( * ) SI_UNIT ( $, .STERADIAN. ) SOLID_ANGLE_UNIT ( ) );
#200 = AXIS2_PLACEMENT_3D ( 'NONE', #213, #29, #158 ) ;
#201 = MECHANICAL_DESIGN_GEOMETRIC_PRESENTATION_REPRESENTATION (  '', ( #144 ), #169 ) ;
#202 = ADVANCED_FACE ( 'NONE', ( #67 ), #47, .T. ) ;
#203 = VERTEX_POINT ( 'NONE', #93 ) ;
#204 = MECHANICAL_DESIGN_GEOMETRIC_PRESENTATION_REPRESENTATION (  '', ( #253 ), #210 ) ;
#205 = ORIENTED_EDGE ( 'NONE', *, *, #63, .F. ) ;
#206 = DIRECTION ( 'NONE',  ( 0.000000000000000000, 0.000000000000000000, -1.000000000000000000 ) ) ;
#207 = EDGE_LOOP ( 'NONE', ( #82, #58 ) ) ;
#208 = CYLINDRICAL_SURFACE ( 'NONE', #229, 0.1249999999999999861 ) ;
#209 = ORIENTED_EDGE ( 'NONE', *, *, #174, .F. ) ;
#210 =( GEOMETRIC_REPRESENTATION_CONTEXT ( 3 ) GLOBAL_UNCERTAINTY_ASSIGNED_CONTEXT ( ( #137 ) ) GLOBAL_UNIT_ASSIGNED_CONTEXT ( ( #185, #309, #154 ) ) REPRESENTATION_CONTEXT ( 'NONE', 'WORKASPACE' ) );
#211 = DIMENSIONAL_EXPONENTS ( 1.000000000000000000, 0.000000000000000000, 0.000000000000000000, 0.000000000000000000, 0.000000000000000000, 0.000000000000000000, 0.000000000000000000 ) ;
#212 = CARTESIAN_POINT ( 'NONE',  ( 6.123233995736766036E-17, 2.000000000000000000, 0.000000000000000000 ) ) ;
#213 = CARTESIAN_POINT ( 'NONE',  ( 0.000000000000000000, 0.000000000000000000, 0.000000000000000000 ) ) ;
#214 = FILL_AREA_STYLE ('',( #22 ) ) ;
#215 = DIRECTION ( 'NONE',  ( 0.000000000000000000, 0.000000000000000000, -1.000000000000000000 ) ) ;
#216 = FACE_OUTER_BOUND ( 'NONE', #182, .T. ) ;
#217 = APPLICATION_CONTEXT ( 'automotive_design' ) ;
#218 = PRESENTATION_LAYER_ASSIGNMENT (  '', '', ( #248 ) ) ;
#219 = ADVANCED_FACE ( 'NONE', ( #66 ), #288, .T. ) ;
#220 = DIRECTION ( 'NONE',  ( -3.768143997376471359E-17, -1.000000000000000000, 0.000000000000000000 ) ) ;
#221 = LINE ( 'NONE', #291, #188 ) ;
#222 = CARTESIAN_POINT ( 'NONE',  ( 0.000000000000000000, 0.3750000000000000555, -0.1250000000000000278 ) ) ;
#223 = LENGTH_MEASURE_WITH_UNIT ( LENGTH_MEASURE( 0.02539999999999999897 ), #166 );
#224 = AXIS2_PLACEMENT_3D ( 'NONE', #243, #220, #262 ) ;
#225 = APPLICATION_PROTOCOL_DEFINITION ( 'draft international standard', 'automotive_design', 1998, #292 ) ;
#226 = AXIS2_PLACEMENT_3D ( 'NONE', #131, #280, #264 ) ;
#227 = EDGE_LOOP ( 'NONE', ( #273, #251, #18, #228 ) ) ;
#228 = ORIENTED_EDGE ( 'NONE', *, *, #13, .F. ) ;
#229 = AXIS2_PLACEMENT_3D ( 'NONE', #212, #125, #81 ) ;
#230 = MECHANICAL_DESIGN_GEOMETRIC_PRESENTATION_REPRESENTATION (  '', ( #248 ), #254 ) ;
#231 = DIRECTION ( 'NONE',  ( -1.000000000000000000, 0.000000000000000000, 0.000000000000000000 ) ) ;
#232 = FILL_AREA_STYLE ('',( #126 ) ) ;
#233 = DIRECTION ( 'NONE',  ( 3.768143997376471359E-17, 1.000000000000000000, -0.000000000000000000 ) ) ;
#234 = PRESENTATION_STYLE_ASSIGNMENT (( #277 ) ) ;
#235 = DIMENSIONAL_EXPONENTS ( 1.000000000000000000, 0.000000000000000000, 0.000000000000000000, 0.000000000000000000, 0.000000000000000000, 0.000000000000000000, 0.000000000000000000 ) ;
#236 = LENGTH_MEASURE_WITH_UNIT ( LENGTH_MEASURE( 0.02539999999999999897 ), #298 );
#237 = CYLINDRICAL_SURFACE ( 'NONE', #14, 0.1250000000000000000 ) ;
#238 =( NAMED_UNIT ( * ) PLANE_ANGLE_UNIT ( ) SI_UNIT ( $, .RADIAN. ) );
#239 = FACE_OUTER_BOUND ( 'NONE', #207, .T. ) ;
#240 = SURFACE_SIDE_STYLE ('',( #107 ) ) ;
#241 =( CONVERSION_BASED_UNIT ( 'INCH', #115 ) LENGTH_UNIT ( ) NAMED_UNIT ( #120 ) );
#242 = COLOUR_RGB ( '',1.000000000000000000, 0.000000000000000000, 0.000000000000000000 ) ;
#243 = CARTESIAN_POINT ( 'NONE',  ( 0.1250000000000000278, 2.000000000000000000, 0.000000000000000000 ) ) ;
#244 = SURFACE_STYLE_FILL_AREA ( #110 ) ;
#245 =( GEOMETRIC_REPRESENTATION_CONTEXT ( 3 ) GLOBAL_UNCERTAINTY_ASSIGNED_CONTEXT ( ( #23 ) ) GLOBAL_UNIT_ASSIGNED_CONTEXT ( ( #160, #192, #43 ) ) REPRESENTATION_CONTEXT ( 'NONE', 'WORKASPACE' ) );
#246 = FILL_AREA_STYLE_COLOUR ( '', #266 ) ;
#247 = EDGE_CURVE ( 'NONE', #203, #255, #84, .T. ) ;
#248 = STYLED_ITEM ( 'NONE', ( #281 ), #177 ) ;
#249 = EDGE_LOOP ( 'NONE', ( #250, #299, #39, #38 ) ) ;
#250 = ORIENTED_EDGE ( 'NONE', *, *, #171, .F. ) ;
#251 = ORIENTED_EDGE ( 'NONE', *, *, #31, .T. ) ;
#252 = SURFACE_STYLE_FILL_AREA ( #214 ) ;
#253 = STYLED_ITEM ( 'NONE', ( #45 ), #68 ) ;
#254 =( GEOMETRIC_REPRESENTATION_CONTEXT ( 3 ) GLOBAL_UNCERTAINTY_ASSIGNED_CONTEXT ( ( #194 ) ) GLOBAL_UNIT_ASSIGNED_CONTEXT ( ( #241, #136, #51 ) ) REPRESENTATION_CONTEXT ( 'NONE', 'WORKASPACE' ) );
#255 = VERTEX_POINT ( 'NONE', #222 ) ;
#256 = VERTEX_POINT ( 'NONE', #46 ) ;
#257 = CARTESIAN_POINT ( 'NONE',  ( 6.123233995736766036E-17, 2.000000000000000000, 0.000000000000000000 ) ) ;
#258 = MECHANICAL_DESIGN_GEOMETRIC_PRESENTATION_REPRESENTATION (  '', ( #33 ), #52 ) ;
#259 = SURFACE_STYLE_USAGE ( .BOTH. , #132 ) ;
#260 = DIRECTION ( 'NONE',  ( -1.000000000000000000, 0.000000000000000000, 0.000000000000000000 ) ) ;
#261 = UNCERTAINTY_MEASURE_WITH_UNIT (LENGTH_MEASURE( 1.000000000000000082E-05 ), #159, 'distance_accuracy_value', 'NONE');
#262 = DIRECTION ( 'NONE',  ( 1.000000000000000000, -3.768143997376471359E-17, 0.000000000000000000 ) ) ;
#263 =( LENGTH_UNIT ( ) NAMED_UNIT ( * ) SI_UNIT ( $, .METRE. ) );
#264 = DIRECTION ( 'NONE',  ( 0.000000000000000000, 0.000000000000000000, -1.000000000000000000 ) ) ;
#265 = SURFACE_STYLE_USAGE ( .BOTH. , #163 ) ;
#266 = COLOUR_RGB ( '',0.7921568627450980005, 0.8196078431372548767, 0.9333333333333333481 ) ;
#267 = PRESENTATION_STYLE_ASSIGNMENT (( #25 ) ) ;
#268 = AXIS2_PLACEMENT_3D ( 'NONE', #50, #286, #260 ) ;
#269 =( NAMED_UNIT ( * ) SI_UNIT ( $, .STERADIAN. ) SOLID_ANGLE_UNIT ( ) );
#270 = PRESENTATION_STYLE_ASSIGNMENT (( #138 ) ) ;
#271 = PRESENTATION_LAYER_ASSIGNMENT (  '', '', ( #33 ) ) ;
#272 = ORIENTED_EDGE ( 'NONE', *, *, #91, .F. ) ;
#273 = ORIENTED_EDGE ( 'NONE', *, *, #16, .F. ) ;
#274 =( LENGTH_UNIT ( ) NAMED_UNIT ( * ) SI_UNIT ( $, .METRE. ) );
#275 = CIRCLE ( 'NONE', #168, 0.1249999999999999445 ) ;
#276 = AXIS2_PLACEMENT_3D ( 'NONE', #187, #24, #71 ) ;
#277 = SURFACE_STYLE_USAGE ( .BOTH. , #101 ) ;
#278 = DIRECTION ( 'NONE',  ( -1.000000000000000000, 3.768143997376471359E-17, 0.000000000000000000 ) ) ;
#279 = DIRECTION ( 'NONE',  ( -0.000000000000000000, -1.000000000000000000, -0.000000000000000000 ) ) ;
#280 = DIRECTION ( 'NONE',  ( -0.000000000000000000, -1.000000000000000000, -0.000000000000000000 ) ) ;
#281 = PRESENTATION_STYLE_ASSIGNMENT (( #87 ) ) ;
#282 = PRODUCT_DEFINITION_CONTEXT ( 'detailed design', #217, 'design' ) ;
#283 = MECHANICAL_DESIGN_GEOMETRIC_PRESENTATION_REPRESENTATION (  '', ( #98 ), #173 ) ;
#284 = LENGTH_MEASURE_WITH_UNIT ( LENGTH_MEASURE( 0.02539999999999999897 ), #2 );
#285 = MANIFOLD_SOLID_BREP ( 'Revolve - Cutting Edge', #44 ) ;
#286 = DIRECTION ( 'NONE',  ( 3.768143997376471359E-17, 1.000000000000000000, -0.000000000000000000 ) ) ;
#287 = MANIFOLD_SOLID_BREP ( 'Revolve - Tool Body (Straight Shanked)', #139 ) ;
#288 = CYLINDRICAL_SURFACE ( 'NONE', #165, 0.1249999999999999861 ) ;
#289 = COLOUR_RGB ( '',1.000000000000000000, 0.000000000000000000, 0.000000000000000000 ) ;
#290 = DIRECTION ( 'NONE',  ( 0.000000000000000000, -0.000000000000000000, 1.000000000000000000 ) ) ;
#291 = CARTESIAN_POINT ( 'NONE',  ( 0.000000000000000000, 0.000000000000000000, -0.1250000000000000000 ) ) ;
#292 = APPLICATION_CONTEXT ( 'automotive_design' ) ;
#293 = CARTESIAN_POINT ( 'NONE',  ( 0.000000000000000000, 0.000000000000000000, 0.000000000000000000 ) ) ;
#294 = LENGTH_MEASURE_WITH_UNIT ( LENGTH_MEASURE( 0.02539999999999999897 ), #263 );
#295 = DIRECTION ( 'NONE',  ( 3.768143997376471359E-17, 1.000000000000000000, -0.000000000000000000 ) ) ;
#296 = STYLED_ITEM ( 'NONE', ( #234 ), #8 ) ;
#297 = CARTESIAN_POINT ( 'NONE',  ( -0.1250000000000000278, 0.3749999999999999445, 0.000000000000000000 ) ) ;
#298 =( LENGTH_UNIT ( ) NAMED_UNIT ( * ) SI_UNIT ( $, .METRE. ) );
#299 = ORIENTED_EDGE ( 'NONE', *, *, #247, .T. ) ;
#300 = COLOUR_RGB ( '',1.000000000000000000, 0.000000000000000000, 0.000000000000000000 ) ;
#301 = VERTEX_POINT ( 'NONE', #145 ) ;
#302 = EDGE_CURVE ( 'NONE', #304, #301, #34, .T. ) ;
#303 = CARTESIAN_POINT ( 'NONE',  ( 0.000000000000000000, 0.3749999999999999445, 0.000000000000000000 ) ) ;
#304 = VERTEX_POINT ( 'NONE', #297 ) ;
#305 = CIRCLE ( 'NONE', #172, 0.1250000000000000278 ) ;
#306 = FILL_AREA_STYLE ('',( #155 ) ) ;
#307 = DIRECTION ( 'NONE',  ( 3.768143997376471359E-17, 1.000000000000000000, -0.000000000000000000 ) ) ;
#308 = SURFACE_SIDE_STYLE ('',( #252 ) ) ;
#309 =( NAMED_UNIT ( * ) PLANE_ANGLE_UNIT ( ) SI_UNIT ( $, .RADIAN. ) );
ENDSEC;
END-ISO-10303-21;
