ISO-10303-21;
HEADER;
FILE_DESCRIPTION (( 'STEP AP214' ),
    '1' );
FILE_NAME ('59780.STEP',
    '2023-07-24T15:38:08',
    ( '' ),
    ( '' ),
    'SwSTEP 2.0',
    'SolidWorks 2023',
    '' );
FILE_SCHEMA (( 'AUTOMOTIVE_DESIGN' ));
ENDSEC;

DATA;
#1 = STYLED_ITEM ( 'NONE', ( #341 ), #5 ) ;
#2 = COLOUR_RGB ( '',1.000000000000000000, 0.000000000000000000, 0.000000000000000000 ) ;
#3 = EDGE_LOOP ( 'NONE', ( #200, #202, #32, #281 ) ) ;
#4 = SURFACE_STYLE_USAGE ( .BOTH. , #145 ) ;
#5 = ADVANCED_FACE ( 'NONE', ( #139 ), #176, .T. ) ;
#6 = FILL_AREA_STYLE_COLOUR ( '', #95 ) ;
#7 = LINE ( 'NONE', #92, #365 ) ;
#8 = DIRECTION ( 'NONE',  ( -0.000000000000000000, -1.000000000000000000, -0.000000000000000000 ) ) ;
#9 =( NAMED_UNIT ( * ) PLANE_ANGLE_UNIT ( ) SI_UNIT ( $, .RADIAN. ) );
#10 = UNCERTAINTY_MEASURE_WITH_UNIT (LENGTH_MEASURE( 1.000000000000000082E-05 ), #81, 'distance_accuracy_value', 'NONE');
#11 = CIRCLE ( 'NONE', #315, 7.999999999999994671 ) ;
#12 = EDGE_CURVE ( 'NONE', #173, #113, #44, .T. ) ;
#13 = DIRECTION ( 'NONE',  ( -1.279215233315390572E-16, 1.000000000000000000, -0.000000000000000000 ) ) ;
#14 = VERTEX_POINT ( 'NONE', #320 ) ;
#15 = SURFACE_STYLE_USAGE ( .BOTH. , #360 ) ;
#16 = DIRECTION ( 'NONE',  ( 0.000000000000000000, -0.000000000000000000, 1.000000000000000000 ) ) ;
#17 = EDGE_CURVE ( 'NONE', #225, #78, #70, .T. ) ;
#18 = AXIS2_PLACEMENT_3D ( 'NONE', #77, #272, #307 ) ;
#19 = DIRECTION ( 'NONE',  ( -0.000000000000000000, -1.000000000000000000, -0.000000000000000000 ) ) ;
#20 = CARTESIAN_POINT ( 'NONE',  ( 0.000000000000000000, 0.5000000000000000000, -7.500000000000000000 ) ) ;
#21 =( LENGTH_UNIT ( ) NAMED_UNIT ( * ) SI_UNIT ( .MILLI., .METRE. ) );
#22 =( GEOMETRIC_REPRESENTATION_CONTEXT ( 3 ) GLOBAL_UNCERTAINTY_ASSIGNED_CONTEXT ( ( #10 ) ) GLOBAL_UNIT_ASSIGNED_CONTEXT ( ( #81, #280, #251 ) ) REPRESENTATION_CONTEXT ( 'NONE', 'WORKASPACE' ) );
#23 = PLANE ( 'NONE',  #18 ) ;
#24 =( GEOMETRIC_REPRESENTATION_CONTEXT ( 3 ) GLOBAL_UNCERTAINTY_ASSIGNED_CONTEXT ( ( #353 ) ) GLOBAL_UNIT_ASSIGNED_CONTEXT ( ( #178, #61, #146 ) ) REPRESENTATION_CONTEXT ( 'NONE', 'WORKASPACE' ) );
#25 = ORIENTED_EDGE ( 'NONE', *, *, #349, .F. ) ;
#26 = CYLINDRICAL_SURFACE ( 'NONE', #265, 8.000000000000000000 ) ;
#27 = PLANE ( 'NONE',  #186 ) ;
#28 = ORIENTED_EDGE ( 'NONE', *, *, #52, .T. ) ;
#29 = FILL_AREA_STYLE_COLOUR ( '', #253 ) ;
#30 = MECHANICAL_DESIGN_GEOMETRIC_PRESENTATION_REPRESENTATION (  '', ( #1 ), #204 ) ;
#31 = CIRCLE ( 'NONE', #238, 8.000000000000001776 ) ;
#32 = ORIENTED_EDGE ( 'NONE', *, *, #256, .T. ) ;
#33 = DIRECTION ( 'NONE',  ( -1.000000000000000000, 0.000000000000000000, 0.000000000000000000 ) ) ;
#34 = DIRECTION ( 'NONE',  ( -1.279215233315390572E-16, 1.000000000000000000, -0.000000000000000000 ) ) ;
#35 = DIRECTION ( 'NONE',  ( -1.000000000000000000, 0.000000000000000000, 0.000000000000000000 ) ) ;
#36 = DIRECTION ( 'NONE',  ( 0.000000000000000000, 0.000000000000000000, 1.000000000000000000 ) ) ;
#37 =( LENGTH_UNIT ( ) NAMED_UNIT ( * ) SI_UNIT ( .MILLI., .METRE. ) );
#38 = AXIS2_PLACEMENT_3D ( 'NONE', #220, #215, #16 ) ;
#39 = APPLICATION_PROTOCOL_DEFINITION ( 'draft international standard', 'automotive_design', 1998, #122 ) ;
#40 = DIRECTION ( 'NONE',  ( -0.000000000000000000, -1.000000000000000000, -0.000000000000000000 ) ) ;
#41 = ORIENTED_EDGE ( 'NONE', *, *, #349, .T. ) ;
#42 =( NAMED_UNIT ( * ) PLANE_ANGLE_UNIT ( ) SI_UNIT ( $, .RADIAN. ) );
#43 = PRODUCT_DEFINITION_CONTEXT ( 'detailed design', #122, 'design' ) ;
#44 = CIRCLE ( 'NONE', #246, 8.000000000000001776 ) ;
#45 = CIRCLE ( 'NONE', #248, 8.000000000000000000 ) ;
#46 = FILL_AREA_STYLE_COLOUR ( '', #235 ) ;
#47 = SURFACE_STYLE_USAGE ( .BOTH. , #357 ) ;
#48 = CIRCLE ( 'NONE', #222, 7.999999999999994671 ) ;
#49 = CARTESIAN_POINT ( 'NONE',  ( 0.000000000000000000, 0.000000000000000000, 0.000000000000000000 ) ) ;
#50 = EDGE_LOOP ( 'NONE', ( #283, #98, #267, #227 ) ) ;
#51 = VERTEX_POINT ( 'NONE', #261 ) ;
#52 = EDGE_CURVE ( 'NONE', #366, #113, #209, .T. ) ;
#53 = STYLED_ITEM ( 'NONE', ( #236 ), #99 ) ;
#54 = CARTESIAN_POINT ( 'NONE',  ( 9.797174393178825657E-16, 0.000000000000000000, 8.000000000000000000 ) ) ;
#55 = EDGE_LOOP ( 'NONE', ( #57, #157 ) ) ;
#56 = ORIENTED_EDGE ( 'NONE', *, *, #362, .T. ) ;
#57 = ORIENTED_EDGE ( 'NONE', *, *, #321, .T. ) ;
#58 = DIRECTION ( 'NONE',  ( -1.279215233315390572E-16, 1.000000000000000000, -0.000000000000000000 ) ) ;
#59 = DIRECTION ( 'NONE',  ( -1.279215233315390572E-16, 1.000000000000000000, -0.000000000000000000 ) ) ;
#60 = ADVANCED_FACE ( 'NONE', ( #188 ), #124, .T. ) ;
#61 =( NAMED_UNIT ( * ) PLANE_ANGLE_UNIT ( ) SI_UNIT ( $, .RADIAN. ) );
#62 = DIRECTION ( 'NONE',  ( 0.000000000000000000, 0.000000000000000000, -1.000000000000000000 ) ) ;
#63 = SURFACE_STYLE_FILL_AREA ( #207 ) ;
#64 = AXIS2_PLACEMENT_3D ( 'NONE', #165, #138, #171 ) ;
#65 = SHAPE_DEFINITION_REPRESENTATION ( #301, #249 ) ;
#66 =( NAMED_UNIT ( * ) SI_UNIT ( $, .STERADIAN. ) SOLID_ANGLE_UNIT ( ) );
#67 = UNCERTAINTY_MEASURE_WITH_UNIT (LENGTH_MEASURE( 1.000000000000000082E-05 ), #137, 'distance_accuracy_value', 'NONE');
#68 = EDGE_CURVE ( 'NONE', #370, #51, #295, .T. ) ;
#69 = CARTESIAN_POINT ( 'NONE',  ( -8.000000000000003553, 89.00000000000000000, 0.000000000000000000 ) ) ;
#70 = CIRCLE ( 'NONE', #210, 8.000000000000000000 ) ;
#71 = ADVANCED_FACE ( 'NONE', ( #91 ), #143, .T. ) ;
#72 = PRESENTATION_LAYER_ASSIGNMENT (  '', '', ( #53 ) ) ;
#73 = CARTESIAN_POINT ( 'NONE',  ( 0.000000000000000000, 40.00000000000000000, 0.000000000000000000 ) ) ;
#74 = CARTESIAN_POINT ( 'NONE',  ( 0.000000000000000000, 0.000000000000000000, 0.000000000000000000 ) ) ;
#75 = STYLED_ITEM ( 'NONE', ( #112 ), #221 ) ;
#76 = LINE ( 'NONE', #110, #144 ) ;
#77 = CARTESIAN_POINT ( 'NONE',  ( 8.000000000000000000, 89.00000000000000000, 0.000000000000000000 ) ) ;
#78 = VERTEX_POINT ( 'NONE', #156 ) ;
#79 =( NAMED_UNIT ( * ) SI_UNIT ( $, .STERADIAN. ) SOLID_ANGLE_UNIT ( ) );
#80 = CARTESIAN_POINT ( 'NONE',  ( 0.000000000000000000, 0.000000000000000000, 0.000000000000000000 ) ) ;
#81 =( LENGTH_UNIT ( ) NAMED_UNIT ( * ) SI_UNIT ( .MILLI., .METRE. ) );
#82 = ORIENTED_EDGE ( 'NONE', *, *, #52, .F. ) ;
#83 =( NAMED_UNIT ( * ) SI_UNIT ( $, .STERADIAN. ) SOLID_ANGLE_UNIT ( ) );
#84 = EDGE_LOOP ( 'NONE', ( #115, #107 ) ) ;
#85 = CARTESIAN_POINT ( 'NONE',  ( 8.000000000000000000, 40.00000000000000000, 9.797174393178825657E-16 ) ) ;
#86 = STYLED_ITEM ( 'NONE', ( #230 ), #224 ) ;
#87 = CARTESIAN_POINT ( 'NONE',  ( 0.000000000000000000, 0.5000000000000000000, 0.000000000000000000 ) ) ;
#88 = CIRCLE ( 'NONE', #96, 0.5000000000000004441 ) ;
#89 = SURFACE_SIDE_STYLE ('',( #185 ) ) ;
#90 = EDGE_CURVE ( 'NONE', #366, #308, #11, .T. ) ;
#91 = FACE_OUTER_BOUND ( 'NONE', #50, .T. ) ;
#92 = CARTESIAN_POINT ( 'NONE',  ( 7.999999999999996447, 89.00000000000000000, 9.797174393178823685E-16 ) ) ;
#93 = DIRECTION ( 'NONE',  ( 0.000000000000000000, 0.000000000000000000, -1.000000000000000000 ) ) ;
#94 = CARTESIAN_POINT ( 'NONE',  ( 9.184850993605147944E-16, 0.5000000000000000000, 7.500000000000000000 ) ) ;
#95 = COLOUR_RGB ( '',1.000000000000000000, 0.000000000000000000, 0.000000000000000000 ) ;
#96 = AXIS2_PLACEMENT_3D ( 'NONE', #94, #292, #286 ) ;
#97 =( NAMED_UNIT ( * ) PLANE_ANGLE_UNIT ( ) SI_UNIT ( $, .RADIAN. ) );
#98 = ORIENTED_EDGE ( 'NONE', *, *, #163, .T. ) ;
#99 = ADVANCED_FACE ( 'NONE', ( #263 ), #352, .T. ) ;
#100 = ORIENTED_EDGE ( 'NONE', *, *, #321, .F. ) ;
#101 = DIRECTION ( 'NONE',  ( -0.000000000000000000, -1.000000000000000000, -0.000000000000000000 ) ) ;
#102 = AXIS2_PLACEMENT_3D ( 'NONE', #80, #201, #310 ) ;
#103 =( GEOMETRIC_REPRESENTATION_CONTEXT ( 3 ) GLOBAL_UNCERTAINTY_ASSIGNED_CONTEXT ( ( #67 ) ) GLOBAL_UNIT_ASSIGNED_CONTEXT ( ( #137, #282, #79 ) ) REPRESENTATION_CONTEXT ( 'NONE', 'WORKASPACE' ) );
#104 = SURFACE_SIDE_STYLE ('',( #134 ) ) ;
#105 = VECTOR ( 'NONE', #304, 1000.000000000000000 ) ;
#106 = CARTESIAN_POINT ( 'NONE',  ( 4.553649124439118623E-15, 40.00000000000000000, 0.000000000000000000 ) ) ;
#107 = ORIENTED_EDGE ( 'NONE', *, *, #148, .F. ) ;
#108 = DIRECTION ( 'NONE',  ( -1.000000000000000000, -1.279215233315390572E-16, 0.000000000000000000 ) ) ;
#109 = ORIENTED_EDGE ( 'NONE', *, *, #17, .F. ) ;
#110 = CARTESIAN_POINT ( 'NONE',  ( 0.000000000000000000, 0.000000000000000000, -8.000000000000000000 ) ) ;
#111 = MECHANICAL_DESIGN_GEOMETRIC_PRESENTATION_REPRESENTATION (  '', ( #53 ), #323 ) ;
#112 = PRESENTATION_STYLE_ASSIGNMENT (( #364 ) ) ;
#113 = VERTEX_POINT ( 'NONE', #69 ) ;
#114 = CARTESIAN_POINT ( 'NONE',  ( -1.714505518806293849E-15, 89.00000000000000000, 0.000000000000000000 ) ) ;
#115 = ORIENTED_EDGE ( 'NONE', *, *, #343, .F. ) ;
#116 = UNCERTAINTY_MEASURE_WITH_UNIT (LENGTH_MEASURE( 1.000000000000000082E-05 ), #219, 'distance_accuracy_value', 'NONE');
#117 = DIRECTION ( 'NONE',  ( -1.000000000000000000, 0.000000000000000000, 0.000000000000000000 ) ) ;
#118 = STYLED_ITEM ( 'NONE', ( #294 ), #71 ) ;
#119 = APPLICATION_PROTOCOL_DEFINITION ( 'draft international standard', 'automotive_design', 1998, #175 ) ;
#120 = PRESENTATION_LAYER_ASSIGNMENT (  '', '', ( #75 ) ) ;
#121 = AXIS2_PLACEMENT_3D ( 'NONE', #158, #266, #192 ) ;
#122 = APPLICATION_CONTEXT ( 'automotive_design' ) ;
#123 =( NAMED_UNIT ( * ) PLANE_ANGLE_UNIT ( ) SI_UNIT ( $, .RADIAN. ) );
#124 = CYLINDRICAL_SURFACE ( 'NONE', #275, 7.999999999999998224 ) ;
#125 = COLOUR_RGB ( '',0.7921568627450980005, 0.8196078431372548767, 0.9333333333333333481 ) ;
#126 = FILL_AREA_STYLE_COLOUR ( '', #291 ) ;
#127 = CARTESIAN_POINT ( 'NONE',  ( 0.000000000000000000, 0.5000000000000000000, 0.000000000000000000 ) ) ;
#128 = PRESENTATION_STYLE_ASSIGNMENT (( #15 ) ) ;
#129 = CLOSED_SHELL ( 'NONE', ( #224, #151, #5, #71, #216, #99 ) ) ;
#130 = AXIS2_PLACEMENT_3D ( 'NONE', #74, #19, #162 ) ;
#131 = AXIS2_PLACEMENT_3D ( 'NONE', #181, #36, #149 ) ;
#132 = CARTESIAN_POINT ( 'NONE',  ( 4.553649124439119412E-15, 40.00000000000000000, 0.000000000000000000 ) ) ;
#133 = FILL_AREA_STYLE_COLOUR ( '', #300 ) ;
#134 = SURFACE_STYLE_FILL_AREA ( #334 ) ;
#135 = ORIENTED_EDGE ( 'NONE', *, *, #306, .F. ) ;
#136 = AXIS2_PLACEMENT_3D ( 'NONE', #234, #40, #152 ) ;
#137 =( LENGTH_UNIT ( ) NAMED_UNIT ( * ) SI_UNIT ( .MILLI., .METRE. ) );
#138 = DIRECTION ( 'NONE',  ( -0.000000000000000000, -1.000000000000000000, -0.000000000000000000 ) ) ;
#139 = FACE_OUTER_BOUND ( 'NONE', #255, .T. ) ;
#140 = DIRECTION ( 'NONE',  ( -0.000000000000000000, -1.000000000000000000, -0.000000000000000000 ) ) ;
#141 = ORIENTED_EDGE ( 'NONE', *, *, #90, .F. ) ;
#142 = UNCERTAINTY_MEASURE_WITH_UNIT (LENGTH_MEASURE( 1.000000000000000082E-05 ), #213, 'distance_accuracy_value', 'NONE');
#143 = TOROIDAL_SURFACE ( 'NONE', #354, 7.500000000000000000, 0.5000000000000002220 ) ;
#144 = VECTOR ( 'NONE', #140, 1000.000000000000000 ) ;
#145 = SURFACE_SIDE_STYLE ('',( #168 ) ) ;
#146 =( NAMED_UNIT ( * ) SI_UNIT ( $, .STERADIAN. ) SOLID_ANGLE_UNIT ( ) );
#147 = SURFACE_STYLE_USAGE ( .BOTH. , #239 ) ;
#148 = EDGE_CURVE ( 'NONE', #14, #279, #45, .T. ) ;
#149 = DIRECTION ( 'NONE',  ( 1.000000000000000000, 0.000000000000000000, 0.000000000000000000 ) ) ;
#150 = MECHANICAL_DESIGN_GEOMETRIC_PRESENTATION_REPRESENTATION (  '', ( #331 ), #169 ) ;
#151 = ADVANCED_FACE ( 'NONE', ( #297 ), #177, .T. ) ;
#152 = DIRECTION ( 'NONE',  ( 0.000000000000000000, 0.000000000000000000, -1.000000000000000000 ) ) ;
#153 = FILL_AREA_STYLE_COLOUR ( '', #125 ) ;
#154 =( NAMED_UNIT ( * ) SI_UNIT ( $, .STERADIAN. ) SOLID_ANGLE_UNIT ( ) );
#155 = ORIENTED_EDGE ( 'NONE', *, *, #243, .T. ) ;
#156 = CARTESIAN_POINT ( 'NONE',  ( 9.797174393178825657E-16, 0.5000000000000000000, 8.000000000000000000 ) ) ;
#157 = ORIENTED_EDGE ( 'NONE', *, *, #12, .T. ) ;
#158 = CARTESIAN_POINT ( 'NONE',  ( 0.000000000000000000, 0.5000000000000000000, 0.000000000000000000 ) ) ;
#159 = PRESENTATION_LAYER_ASSIGNMENT (  '', '', ( #331 ) ) ;
#160 = AXIS2_PLACEMENT_3D ( 'NONE', #114, #317, #35 ) ;
#161 = PRESENTATION_STYLE_ASSIGNMENT (( #47 ) ) ;
#162 = DIRECTION ( 'NONE',  ( 0.000000000000000000, 0.000000000000000000, -1.000000000000000000 ) ) ;
#163 = EDGE_CURVE ( 'NONE', #78, #225, #212, .T. ) ;
#164 = PRESENTATION_LAYER_ASSIGNMENT (  '', '', ( #118 ) ) ;
#165 = CARTESIAN_POINT ( 'NONE',  ( 0.000000000000000000, 0.000000000000000000, 0.000000000000000000 ) ) ;
#166 = EDGE_LOOP ( 'NONE', ( #141, #311 ) ) ;
#167 = DIRECTION ( 'NONE',  ( -1.279215233315390572E-16, 1.000000000000000000, 0.000000000000000000 ) ) ;
#168 = SURFACE_STYLE_FILL_AREA ( #273 ) ;
#169 =( GEOMETRIC_REPRESENTATION_CONTEXT ( 3 ) GLOBAL_UNCERTAINTY_ASSIGNED_CONTEXT ( ( #116 ) ) GLOBAL_UNIT_ASSIGNED_CONTEXT ( ( #219, #97, #241 ) ) REPRESENTATION_CONTEXT ( 'NONE', 'WORKASPACE' ) );
#170 = STYLED_ITEM ( 'NONE', ( #288 ), #340 ) ;
#171 = DIRECTION ( 'NONE',  ( 0.000000000000000000, 0.000000000000000000, -1.000000000000000000 ) ) ;
#172 = SURFACE_STYLE_USAGE ( .BOTH. , #199 ) ;
#173 = VERTEX_POINT ( 'NONE', #268 ) ;
#174 = SURFACE_STYLE_FILL_AREA ( #245 ) ;
#175 = APPLICATION_CONTEXT ( 'automotive_design' ) ;
#176 = PLANE ( 'NONE',  #102 ) ;
#177 = TOROIDAL_SURFACE ( 'NONE', #218, 7.500000000000000000, 0.5000000000000002220 ) ;
#178 =( LENGTH_UNIT ( ) NAMED_UNIT ( * ) SI_UNIT ( .MILLI., .METRE. ) );
#179 = DIRECTION ( 'NONE',  ( -1.279215233315390572E-16, 1.000000000000000000, -0.000000000000000000 ) ) ;
#180 = UNCERTAINTY_MEASURE_WITH_UNIT (LENGTH_MEASURE( 1.000000000000000082E-05 ), #258, 'distance_accuracy_value', 'NONE');
#181 = CARTESIAN_POINT ( 'NONE',  ( 0.000000000000000000, 0.000000000000000000, 0.000000000000000000 ) ) ;
#182 = CARTESIAN_POINT ( 'NONE',  ( -1.714505518806293652E-15, 89.00000000000000000, 0.000000000000000000 ) ) ;
#183 = PRESENTATION_LAYER_ASSIGNMENT (  '', '', ( #1 ) ) ;
#184 = EDGE_CURVE ( 'NONE', #308, #366, #48, .T. ) ;
#185 = SURFACE_STYLE_FILL_AREA ( #313 ) ;
#186 = AXIS2_PLACEMENT_3D ( 'NONE', #106, #167, #108 ) ;
#187 = SURFACE_STYLE_USAGE ( .BOTH. , #318 ) ;
#188 = FACE_OUTER_BOUND ( 'NONE', #250, .T. ) ;
#189 = DIRECTION ( 'NONE',  ( 0.000000000000000000, 0.000000000000000000, -1.000000000000000000 ) ) ;
#190 = FACE_OUTER_BOUND ( 'NONE', #3, .T. ) ;
#191 = PRESENTATION_LAYER_ASSIGNMENT (  '', '', ( #277 ) ) ;
#192 = DIRECTION ( 'NONE',  ( 0.000000000000000000, 0.000000000000000000, -1.000000000000000000 ) ) ;
#193 = FILL_AREA_STYLE ('',( #46 ) ) ;
#194 = MECHANICAL_DESIGN_GEOMETRIC_PRESENTATION_REPRESENTATION (  '', ( #118 ), #299 ) ;
#195 = AXIS2_PLACEMENT_3D ( 'NONE', #20, #223, #274 ) ;
#196 = DIRECTION ( 'NONE',  ( 0.000000000000000000, 0.000000000000000000, -1.000000000000000000 ) ) ;
#197 = DIRECTION ( 'NONE',  ( -0.000000000000000000, -1.000000000000000000, -0.000000000000000000 ) ) ;
#198 = ORIENTED_EDGE ( 'NONE', *, *, #17, .T. ) ;
#199 = SURFACE_SIDE_STYLE ('',( #174 ) ) ;
#200 = ORIENTED_EDGE ( 'NONE', *, *, #243, .F. ) ;
#201 = DIRECTION ( 'NONE',  ( 0.000000000000000000, -1.000000000000000000, -0.000000000000000000 ) ) ;
#202 = ORIENTED_EDGE ( 'NONE', *, *, #148, .T. ) ;
#203 = CARTESIAN_POINT ( 'NONE',  ( -1.714505518806293652E-15, 89.00000000000000000, 0.000000000000000000 ) ) ;
#204 =( GEOMETRIC_REPRESENTATION_CONTEXT ( 3 ) GLOBAL_UNCERTAINTY_ASSIGNED_CONTEXT ( ( #214 ) ) GLOBAL_UNIT_ASSIGNED_CONTEXT ( ( #21, #305, #335 ) ) REPRESENTATION_CONTEXT ( 'NONE', 'WORKASPACE' ) );
#205 = FACE_OUTER_BOUND ( 'NONE', #247, .T. ) ;
#206 = PRODUCT ( '59780', '59780', '', ( #344 ) ) ;
#207 = FILL_AREA_STYLE ('',( #348 ) ) ;
#208 = CARTESIAN_POINT ( 'NONE',  ( 0.000000000000000000, 40.00000000000000000, 0.000000000000000000 ) ) ;
#209 = LINE ( 'NONE', #259, #330 ) ;
#210 = AXIS2_PLACEMENT_3D ( 'NONE', #257, #325, #62 ) ;
#211 = DIRECTION ( 'NONE',  ( -0.000000000000000000, -1.000000000000000000, -0.000000000000000000 ) ) ;
#212 = CIRCLE ( 'NONE', #121, 8.000000000000000000 ) ;
#213 =( LENGTH_UNIT ( ) NAMED_UNIT ( * ) SI_UNIT ( .MILLI., .METRE. ) );
#214 = UNCERTAINTY_MEASURE_WITH_UNIT (LENGTH_MEASURE( 1.000000000000000082E-05 ), #21, 'distance_accuracy_value', 'NONE');
#215 = DIRECTION ( 'NONE',  ( 0.000000000000000000, 1.000000000000000000, 0.000000000000000000 ) ) ;
#216 = ADVANCED_FACE ( 'NONE', ( #190 ), #328, .T. ) ;
#217 = ORIENTED_EDGE ( 'NONE', *, *, #343, .T. ) ;
#218 = AXIS2_PLACEMENT_3D ( 'NONE', #127, #101, #244 ) ;
#219 =( LENGTH_UNIT ( ) NAMED_UNIT ( * ) SI_UNIT ( .MILLI., .METRE. ) );
#220 = CARTESIAN_POINT ( 'NONE',  ( 0.000000000000000000, 40.00000000000000000, 0.000000000000000000 ) ) ;
#221 = MANIFOLD_SOLID_BREP ( 'Revolve - Cutting Edge', #129 ) ;
#222 = AXIS2_PLACEMENT_3D ( 'NONE', #132, #13, #240 ) ;
#223 = DIRECTION ( 'NONE',  ( -1.000000000000000000, 0.000000000000000000, 0.000000000000000000 ) ) ;
#224 = ADVANCED_FACE ( 'NONE', ( #367 ), #26, .T. ) ;
#225 = VERTEX_POINT ( 'NONE', #309 ) ;
#226 = FACE_OUTER_BOUND ( 'NONE', #55, .T. ) ;
#227 = ORIENTED_EDGE ( 'NONE', *, *, #302, .F. ) ;
#228 = CLOSED_SHELL ( 'NONE', ( #346, #242, #60, #262 ) ) ;
#229 = CIRCLE ( 'NONE', #64, 7.500000000000000000 ) ;
#230 = PRESENTATION_STYLE_ASSIGNMENT (( #172 ) ) ;
#231 = ORIENTED_EDGE ( 'NONE', *, *, #68, .T. ) ;
#232 = ORIENTED_EDGE ( 'NONE', *, *, #90, .T. ) ;
#233 = SURFACE_STYLE_USAGE ( .BOTH. , #89 ) ;
#234 = CARTESIAN_POINT ( 'NONE',  ( 0.000000000000000000, 0.000000000000000000, 0.000000000000000000 ) ) ;
#235 = COLOUR_RGB ( '',1.000000000000000000, 0.000000000000000000, 0.000000000000000000 ) ;
#236 = PRESENTATION_STYLE_ASSIGNMENT (( #187 ) ) ;
#237 = CARTESIAN_POINT ( 'NONE',  ( 4.553649124439119412E-15, 40.00000000000000000, 0.000000000000000000 ) ) ;
#238 = AXIS2_PLACEMENT_3D ( 'NONE', #203, #293, #33 ) ;
#239 = SURFACE_SIDE_STYLE ('',( #289 ) ) ;
#240 = DIRECTION ( 'NONE',  ( -1.000000000000000000, 0.000000000000000000, 0.000000000000000000 ) ) ;
#241 =( NAMED_UNIT ( * ) SI_UNIT ( $, .STERADIAN. ) SOLID_ANGLE_UNIT ( ) );
#242 = ADVANCED_FACE ( 'NONE', ( #332 ), #27, .F. ) ;
#243 = EDGE_CURVE ( 'NONE', #14, #78, #369, .T. ) ;
#244 = DIRECTION ( 'NONE',  ( 0.000000000000000000, 0.000000000000000000, -1.000000000000000000 ) ) ;
#245 = FILL_AREA_STYLE ('',( #133 ) ) ;
#246 = AXIS2_PLACEMENT_3D ( 'NONE', #182, #58, #287 ) ;
#247 = EDGE_LOOP ( 'NONE', ( #232, #41, #100, #82 ) ) ;
#248 = AXIS2_PLACEMENT_3D ( 'NONE', #73, #326, #189 ) ;
#249 = ADVANCED_BREP_SHAPE_REPRESENTATION ( '59780', ( #221, #340, #131 ), #24 ) ;
#250 = EDGE_LOOP ( 'NONE', ( #25, #252, #28, #356 ) ) ;
#251 =( NAMED_UNIT ( * ) SI_UNIT ( $, .STERADIAN. ) SOLID_ANGLE_UNIT ( ) );
#252 = ORIENTED_EDGE ( 'NONE', *, *, #184, .T. ) ;
#253 = COLOUR_RGB ( '',0.7921568627450980005, 0.8196078431372548767, 0.9333333333333333481 ) ;
#254 = CARTESIAN_POINT ( 'NONE',  ( 0.000000000000000000, 0.000000000000000000, -7.500000000000000000 ) ) ;
#255 = EDGE_LOOP ( 'NONE', ( #231, #350 ) ) ;
#256 = EDGE_CURVE ( 'NONE', #279, #225, #76, .T. ) ;
#257 = CARTESIAN_POINT ( 'NONE',  ( 0.000000000000000000, 0.5000000000000000000, 0.000000000000000000 ) ) ;
#258 =( LENGTH_UNIT ( ) NAMED_UNIT ( * ) SI_UNIT ( .MILLI., .METRE. ) );
#259 = CARTESIAN_POINT ( 'NONE',  ( -8.000000000000000000, 89.00000000000000000, 0.000000000000000000 ) ) ;
#260 = CYLINDRICAL_SURFACE ( 'NONE', #160, 7.999999999999998224 ) ;
#261 = CARTESIAN_POINT ( 'NONE',  ( 9.491012693391985815E-16, 0.000000000000000000, 7.500000000000000000 ) ) ;
#262 = ADVANCED_FACE ( 'NONE', ( #226 ), #23, .F. ) ;
#263 = FACE_OUTER_BOUND ( 'NONE', #84, .T. ) ;
#264 = COLOUR_RGB ( '',1.000000000000000000, 0.000000000000000000, 0.000000000000000000 ) ;
#265 = AXIS2_PLACEMENT_3D ( 'NONE', #49, #197, #196 ) ;
#266 = DIRECTION ( 'NONE',  ( -0.000000000000000000, -1.000000000000000000, -0.000000000000000000 ) ) ;
#267 = ORIENTED_EDGE ( 'NONE', *, *, #306, .T. ) ;
#268 = CARTESIAN_POINT ( 'NONE',  ( 8.000000000000000000, 89.00000000000000000, 9.797174393178825657E-16 ) ) ;
#269 = CIRCLE ( 'NONE', #195, 0.5000000000000004441 ) ;
#270 =( LENGTH_UNIT ( ) NAMED_UNIT ( * ) SI_UNIT ( .MILLI., .METRE. ) );
#271 =( GEOMETRIC_REPRESENTATION_CONTEXT ( 3 ) GLOBAL_UNCERTAINTY_ASSIGNED_CONTEXT ( ( #180 ) ) GLOBAL_UNIT_ASSIGNED_CONTEXT ( ( #258, #319, #83 ) ) REPRESENTATION_CONTEXT ( 'NONE', 'WORKASPACE' ) );
#272 = DIRECTION ( 'NONE',  ( 1.279215233315390572E-16, -1.000000000000000000, 0.000000000000000000 ) ) ;
#273 = FILL_AREA_STYLE ('',( #337 ) ) ;
#274 = DIRECTION ( 'NONE',  ( 0.000000000000000000, 0.000000000000000000, 1.000000000000000000 ) ) ;
#275 = AXIS2_PLACEMENT_3D ( 'NONE', #322, #345, #314 ) ;
#276 = ORIENTED_EDGE ( 'NONE', *, *, #256, .F. ) ;
#277 = STYLED_ITEM ( 'NONE', ( #161 ), #151 ) ;
#278 = PRODUCT_DEFINITION ( 'UNKNOWN', '', #358, #43 ) ;
#279 = VERTEX_POINT ( 'NONE', #303 ) ;
#280 =( NAMED_UNIT ( * ) PLANE_ANGLE_UNIT ( ) SI_UNIT ( $, .RADIAN. ) );
#281 = ORIENTED_EDGE ( 'NONE', *, *, #163, .F. ) ;
#282 =( NAMED_UNIT ( * ) PLANE_ANGLE_UNIT ( ) SI_UNIT ( $, .RADIAN. ) );
#283 = ORIENTED_EDGE ( 'NONE', *, *, #362, .F. ) ;
#284 = MECHANICAL_DESIGN_GEOMETRIC_PRESENTATION_REPRESENTATION (  '', ( #277 ), #336 ) ;
#285 = AXIS2_PLACEMENT_3D ( 'NONE', #208, #211, #351 ) ;
#286 = DIRECTION ( 'NONE',  ( -1.224646799147353454E-16, 0.000000000000000000, -1.000000000000000000 ) ) ;
#287 = DIRECTION ( 'NONE',  ( -1.000000000000000000, 0.000000000000000000, 0.000000000000000000 ) ) ;
#288 = PRESENTATION_STYLE_ASSIGNMENT (( #233 ) ) ;
#289 = SURFACE_STYLE_FILL_AREA ( #342 ) ;
#290 = UNCERTAINTY_MEASURE_WITH_UNIT (LENGTH_MEASURE( 1.000000000000000082E-05 ), #270, 'distance_accuracy_value', 'NONE');
#291 = COLOUR_RGB ( '',1.000000000000000000, 0.000000000000000000, 0.000000000000000000 ) ;
#292 = DIRECTION ( 'NONE',  ( 1.000000000000000000, 0.000000000000000000, -1.224646799147353207E-16 ) ) ;
#293 = DIRECTION ( 'NONE',  ( -1.279215233315390572E-16, 1.000000000000000000, -0.000000000000000000 ) ) ;
#294 = PRESENTATION_STYLE_ASSIGNMENT (( #147 ) ) ;
#295 = CIRCLE ( 'NONE', #136, 7.500000000000000000 ) ;
#296 = PRESENTATION_LAYER_ASSIGNMENT (  '', '', ( #86 ) ) ;
#297 = FACE_OUTER_BOUND ( 'NONE', #339, .T. ) ;
#298 = SURFACE_STYLE_FILL_AREA ( #355 ) ;
#299 =( GEOMETRIC_REPRESENTATION_CONTEXT ( 3 ) GLOBAL_UNCERTAINTY_ASSIGNED_CONTEXT ( ( #312 ) ) GLOBAL_UNIT_ASSIGNED_CONTEXT ( ( #37, #123, #154 ) ) REPRESENTATION_CONTEXT ( 'NONE', 'WORKASPACE' ) );
#300 = COLOUR_RGB ( '',1.000000000000000000, 0.000000000000000000, 0.000000000000000000 ) ;
#301 = PRODUCT_DEFINITION_SHAPE ( 'NONE', 'NONE',  #278 ) ;
#302 = EDGE_CURVE ( 'NONE', #51, #370, #229, .T. ) ;
#303 = CARTESIAN_POINT ( 'NONE',  ( 0.000000000000000000, 40.00000000000000000, -8.000000000000000000 ) ) ;
#304 = DIRECTION ( 'NONE',  ( -0.000000000000000000, -1.000000000000000000, -0.000000000000000000 ) ) ;
#305 =( NAMED_UNIT ( * ) PLANE_ANGLE_UNIT ( ) SI_UNIT ( $, .RADIAN. ) );
#306 = EDGE_CURVE ( 'NONE', #225, #370, #269, .T. ) ;
#307 = DIRECTION ( 'NONE',  ( 1.000000000000000000, 1.279215233315390572E-16, 0.000000000000000000 ) ) ;
#308 = VERTEX_POINT ( 'NONE', #85 ) ;
#309 = CARTESIAN_POINT ( 'NONE',  ( 0.000000000000000000, 0.5000000000000000000, -8.000000000000000000 ) ) ;
#310 = DIRECTION ( 'NONE',  ( 0.000000000000000000, 0.000000000000000000, -1.000000000000000000 ) ) ;
#311 = ORIENTED_EDGE ( 'NONE', *, *, #184, .F. ) ;
#312 = UNCERTAINTY_MEASURE_WITH_UNIT (LENGTH_MEASURE( 1.000000000000000082E-05 ), #37, 'distance_accuracy_value', 'NONE');
#313 = FILL_AREA_STYLE ('',( #153 ) ) ;
#314 = DIRECTION ( 'NONE',  ( -1.000000000000000000, 0.000000000000000000, 0.000000000000000000 ) ) ;
#315 = AXIS2_PLACEMENT_3D ( 'NONE', #237, #34, #117 ) ;
#316 = MECHANICAL_DESIGN_GEOMETRIC_PRESENTATION_REPRESENTATION (  '', ( #75 ), #103 ) ;
#317 = DIRECTION ( 'NONE',  ( -1.279215233315390572E-16, 1.000000000000000000, -0.000000000000000000 ) ) ;
#318 = SURFACE_SIDE_STYLE ('',( #63 ) ) ;
#319 =( NAMED_UNIT ( * ) PLANE_ANGLE_UNIT ( ) SI_UNIT ( $, .RADIAN. ) );
#320 = CARTESIAN_POINT ( 'NONE',  ( 9.797174393178825657E-16, 40.00000000000000000, 8.000000000000000000 ) ) ;
#321 = EDGE_CURVE ( 'NONE', #113, #173, #31, .T. ) ;
#322 = CARTESIAN_POINT ( 'NONE',  ( -1.714505518806293849E-15, 89.00000000000000000, 0.000000000000000000 ) ) ;
#323 =( GEOMETRIC_REPRESENTATION_CONTEXT ( 3 ) GLOBAL_UNCERTAINTY_ASSIGNED_CONTEXT ( ( #142 ) ) GLOBAL_UNIT_ASSIGNED_CONTEXT ( ( #213, #9, #66 ) ) REPRESENTATION_CONTEXT ( 'NONE', 'WORKASPACE' ) );
#324 = PRESENTATION_LAYER_ASSIGNMENT (  '', '', ( #170 ) ) ;
#325 = DIRECTION ( 'NONE',  ( -0.000000000000000000, -1.000000000000000000, -0.000000000000000000 ) ) ;
#326 = DIRECTION ( 'NONE',  ( -0.000000000000000000, -1.000000000000000000, -0.000000000000000000 ) ) ;
#327 = ORIENTED_EDGE ( 'NONE', *, *, #68, .F. ) ;
#328 = CYLINDRICAL_SURFACE ( 'NONE', #130, 8.000000000000000000 ) ;
#329 =( NAMED_UNIT ( * ) SI_UNIT ( $, .STERADIAN. ) SOLID_ANGLE_UNIT ( ) );
#330 = VECTOR ( 'NONE', #179, 1000.000000000000000 ) ;
#331 = STYLED_ITEM ( 'NONE', ( #128 ), #216 ) ;
#332 = FACE_OUTER_BOUND ( 'NONE', #166, .T. ) ;
#333 = MECHANICAL_DESIGN_GEOMETRIC_PRESENTATION_REPRESENTATION (  '', ( #170 ), #271 ) ;
#334 = FILL_AREA_STYLE ('',( #29 ) ) ;
#335 =( NAMED_UNIT ( * ) SI_UNIT ( $, .STERADIAN. ) SOLID_ANGLE_UNIT ( ) );
#336 =( GEOMETRIC_REPRESENTATION_CONTEXT ( 3 ) GLOBAL_UNCERTAINTY_ASSIGNED_CONTEXT ( ( #290 ) ) GLOBAL_UNIT_ASSIGNED_CONTEXT ( ( #270, #42, #329 ) ) REPRESENTATION_CONTEXT ( 'NONE', 'WORKASPACE' ) );
#337 = FILL_AREA_STYLE_COLOUR ( '', #264 ) ;
#338 = CIRCLE ( 'NONE', #285, 8.000000000000000000 ) ;
#339 = EDGE_LOOP ( 'NONE', ( #198, #56, #327, #135 ) ) ;
#340 = MANIFOLD_SOLID_BREP ( 'Revolve - Tool Body (Straight Shanked)', #228 ) ;
#341 = PRESENTATION_STYLE_ASSIGNMENT (( #4 ) ) ;
#342 = FILL_AREA_STYLE ('',( #6 ) ) ;
#343 = EDGE_CURVE ( 'NONE', #279, #14, #338, .T. ) ;
#344 = PRODUCT_CONTEXT ( 'NONE', #175, 'mechanical' ) ;
#345 = DIRECTION ( 'NONE',  ( -1.279215233315390572E-16, 1.000000000000000000, -0.000000000000000000 ) ) ;
#346 = ADVANCED_FACE ( 'NONE', ( #205 ), #260, .T. ) ;
#347 = CARTESIAN_POINT ( 'NONE',  ( -7.999999999999989342, 40.00000000000000000, 0.000000000000000000 ) ) ;
#348 = FILL_AREA_STYLE_COLOUR ( '', #2 ) ;
#349 = EDGE_CURVE ( 'NONE', #308, #173, #7, .T. ) ;
#350 = ORIENTED_EDGE ( 'NONE', *, *, #302, .T. ) ;
#351 = DIRECTION ( 'NONE',  ( 0.000000000000000000, 0.000000000000000000, -1.000000000000000000 ) ) ;
#352 = PLANE ( 'NONE',  #38 ) ;
#353 = UNCERTAINTY_MEASURE_WITH_UNIT (LENGTH_MEASURE( 1.000000000000000082E-05 ), #178, 'distance_accuracy_value', 'NONE');
#354 = AXIS2_PLACEMENT_3D ( 'NONE', #87, #8, #93 ) ;
#355 = FILL_AREA_STYLE ('',( #126 ) ) ;
#356 = ORIENTED_EDGE ( 'NONE', *, *, #12, .F. ) ;
#357 = SURFACE_SIDE_STYLE ('',( #298 ) ) ;
#358 = PRODUCT_DEFINITION_FORMATION_WITH_SPECIFIED_SOURCE ( 'ANY', '', #206, .NOT_KNOWN. ) ;
#359 = PRODUCT_RELATED_PRODUCT_CATEGORY ( 'part', '', ( #206 ) ) ;
#360 = SURFACE_SIDE_STYLE ('',( #361 ) ) ;
#361 = SURFACE_STYLE_FILL_AREA ( #193 ) ;
#362 = EDGE_CURVE ( 'NONE', #78, #51, #88, .T. ) ;
#363 = MECHANICAL_DESIGN_GEOMETRIC_PRESENTATION_REPRESENTATION (  '', ( #86 ), #22 ) ;
#364 = SURFACE_STYLE_USAGE ( .BOTH. , #104 ) ;
#365 = VECTOR ( 'NONE', #59, 1000.000000000000000 ) ;
#366 = VERTEX_POINT ( 'NONE', #347 ) ;
#367 = FACE_OUTER_BOUND ( 'NONE', #368, .T. ) ;
#368 = EDGE_LOOP ( 'NONE', ( #217, #155, #109, #276 ) ) ;
#369 = LINE ( 'NONE', #54, #105 ) ;
#370 = VERTEX_POINT ( 'NONE', #254 ) ;
ENDSEC;
END-ISO-10303-21;
