ISO-10303-21;
HEADER;
FILE_DESCRIPTION (( 'STEP AP214' ),
    '1' );
FILE_NAME ('05532.STEP',
    '2023-06-22T16:12:04',
    ( '' ),
    ( '' ),
    'SwSTEP 2.0',
    'SolidWorks 2023',
    '' );
FILE_SCHEMA (( 'AUTOMOTIVE_DESIGN' ));
ENDSEC;

DATA;
#1 = CARTESIAN_POINT ( 'NONE',  ( 0.000000000000000000, 0.000000000000000000, -0.2500000000000000000 ) ) ;
#2 = CARTESIAN_POINT ( 'NONE',  ( -0.2500000000000000000, 2.500000000000000000, 0.000000000000000000 ) ) ;
#3 = ORIENTED_EDGE ( 'NONE', *, *, #72, .F. ) ;
#4 =( GEOMETRIC_REPRESENTATION_CONTEXT ( 3 ) GLOBAL_UNCERTAINTY_ASSIGNED_CONTEXT ( ( #205 ) ) GLOBAL_UNIT_ASSIGNED_CONTEXT ( ( #276, #106, #130 ) ) REPRESENTATION_CONTEXT ( 'NONE', 'WORKASPACE' ) );
#5 = DIMENSIONAL_EXPONENTS ( 1.000000000000000000, 0.000000000000000000, 0.000000000000000000, 0.000000000000000000, 0.000000000000000000, 0.000000000000000000, 0.000000000000000000 ) ;
#6 = ORIENTED_EDGE ( 'NONE', *, *, #286, .F. ) ;
#7 = FILL_AREA_STYLE ('',( #194 ) ) ;
#8 = ORIENTED_EDGE ( 'NONE', *, *, #77, .T. ) ;
#9 = DIMENSIONAL_EXPONENTS ( 1.000000000000000000, 0.000000000000000000, 0.000000000000000000, 0.000000000000000000, 0.000000000000000000, 0.000000000000000000, 0.000000000000000000 ) ;
#10 = FACE_OUTER_BOUND ( 'NONE', #129, .T. ) ;
#11 = AXIS2_PLACEMENT_3D ( 'NONE', #89, #69, #132 ) ;
#12 =( GEOMETRIC_REPRESENTATION_CONTEXT ( 3 ) GLOBAL_UNCERTAINTY_ASSIGNED_CONTEXT ( ( #301 ) ) GLOBAL_UNIT_ASSIGNED_CONTEXT ( ( #220, #233, #184 ) ) REPRESENTATION_CONTEXT ( 'NONE', 'WORKASPACE' ) );
#13 = PRESENTATION_STYLE_ASSIGNMENT (( #227 ) ) ;
#14 =( GEOMETRIC_REPRESENTATION_CONTEXT ( 3 ) GLOBAL_UNCERTAINTY_ASSIGNED_CONTEXT ( ( #90 ) ) GLOBAL_UNIT_ASSIGNED_CONTEXT ( ( #87, #202, #156 ) ) REPRESENTATION_CONTEXT ( 'NONE', 'WORKASPACE' ) );
#15 = EDGE_LOOP ( 'NONE', ( #128, #98 ) ) ;
#16 = CARTESIAN_POINT ( 'NONE',  ( 0.2500000000000000555, 5.000000000000000000, 3.061616997868384251E-17 ) ) ;
#17 =( LENGTH_UNIT ( ) NAMED_UNIT ( * ) SI_UNIT ( $, .METRE. ) );
#18 = ADVANCED_FACE ( 'NONE', ( #10 ), #100, .T. ) ;
#19 = DIRECTION ( 'NONE',  ( -0.000000000000000000, -1.000000000000000000, -0.000000000000000000 ) ) ;
#20 = COLOUR_RGB ( '',1.000000000000000000, 0.000000000000000000, 0.000000000000000000 ) ;
#21 = PRESENTATION_STYLE_ASSIGNMENT (( #137 ) ) ;
#22 = DIRECTION ( 'NONE',  ( -0.000000000000000000, -1.000000000000000000, -0.000000000000000000 ) ) ;
#23 =( NAMED_UNIT ( * ) SI_UNIT ( $, .STERADIAN. ) SOLID_ANGLE_UNIT ( ) );
#24 = LINE ( 'NONE', #188, #123 ) ;
#25 = STYLED_ITEM ( 'NONE', ( #244 ), #166 ) ;
#26 = PRODUCT_DEFINITION_FORMATION_WITH_SPECIFIED_SOURCE ( 'ANY', '', #283, .NOT_KNOWN. ) ;
#27 = SURFACE_STYLE_FILL_AREA ( #49 ) ;
#28 = SURFACE_SIDE_STYLE ('',( #27 ) ) ;
#29 =( CONVERSION_BASED_UNIT ( 'INCH', #218 ) LENGTH_UNIT ( ) NAMED_UNIT ( #5 ) );
#30 =( NAMED_UNIT ( * ) PLANE_ANGLE_UNIT ( ) SI_UNIT ( $, .RADIAN. ) );
#31 = ORIENTED_EDGE ( 'NONE', *, *, #107, .F. ) ;
#32 = CIRCLE ( 'NONE', #96, 0.2500000000000000000 ) ;
#33 = ADVANCED_FACE ( 'NONE', ( #253 ), #261, .F. ) ;
#34 = CYLINDRICAL_SURFACE ( 'NONE', #78, 0.2500000000000000555 ) ;
#35 = VERTEX_POINT ( 'NONE', #212 ) ;
#36 = ORIENTED_EDGE ( 'NONE', *, *, #86, .F. ) ;
#37 = LENGTH_MEASURE_WITH_UNIT ( LENGTH_MEASURE( 0.02539999999999999897 ), #118 );
#38 = VERTEX_POINT ( 'NONE', #16 ) ;
#39 = CLOSED_SHELL ( 'NONE', ( #254, #177, #18, #267 ) ) ;
#40 = PRESENTATION_LAYER_ASSIGNMENT (  '', '', ( #25 ) ) ;
#41 = DIRECTION ( 'NONE',  ( -0.000000000000000000, -1.000000000000000000, -0.000000000000000000 ) ) ;
#42 = SURFACE_SIDE_STYLE ('',( #161 ) ) ;
#43 = FILL_AREA_STYLE ('',( #203 ) ) ;
#44 = ADVANCED_FACE ( 'NONE', ( #110 ), #232, .F. ) ;
#45 = DIRECTION ( 'NONE',  ( -1.000000000000000000, 0.000000000000000000, 0.000000000000000000 ) ) ;
#46 = CARTESIAN_POINT ( 'NONE',  ( 0.2500000000000000000, 5.000000000000000000, 0.000000000000000000 ) ) ;
#47 = CARTESIAN_POINT ( 'NONE',  ( 0.000000000000000000, 2.500000000000000000, -0.2500000000000000000 ) ) ;
#48 = UNCERTAINTY_MEASURE_WITH_UNIT (LENGTH_MEASURE( 1.000000000000000082E-05 ), #29, 'distance_accuracy_value', 'NONE');
#49 = FILL_AREA_STYLE ('',( #241 ) ) ;
#50 = MECHANICAL_DESIGN_GEOMETRIC_PRESENTATION_REPRESENTATION (  '', ( #247 ), #229 ) ;
#51 = CARTESIAN_POINT ( 'NONE',  ( 0.000000000000000000, 2.500000000000000000, 0.000000000000000000 ) ) ;
#52 = PRESENTATION_LAYER_ASSIGNMENT (  '', '', ( #187 ) ) ;
#53 = APPLICATION_CONTEXT ( 'automotive_design' ) ;
#54 = EDGE_CURVE ( 'NONE', #249, #35, #144, .T. ) ;
#55 = FACE_OUTER_BOUND ( 'NONE', #179, .T. ) ;
#56 = ORIENTED_EDGE ( 'NONE', *, *, #86, .T. ) ;
#57 = COLOUR_RGB ( '',1.000000000000000000, 0.000000000000000000, 0.000000000000000000 ) ;
#58 = EDGE_LOOP ( 'NONE', ( #80, #268, #225, #172 ) ) ;
#59 = ORIENTED_EDGE ( 'NONE', *, *, #113, .T. ) ;
#60 = MANIFOLD_SOLID_BREP ( 'Revolve - Tool Body (Straight Shanked)', #199 ) ;
#61 = LENGTH_MEASURE_WITH_UNIT ( LENGTH_MEASURE( 0.02539999999999999897 ), #302 );
#62 = DIRECTION ( 'NONE',  ( -4.898587196589412459E-17, 1.000000000000000000, 0.000000000000000000 ) ) ;
#63 = EDGE_CURVE ( 'NONE', #35, #249, #32, .T. ) ;
#64 = PRESENTATION_LAYER_ASSIGNMENT (  '', '', ( #213 ) ) ;
#65 = CARTESIAN_POINT ( 'NONE',  ( 0.000000000000000000, 0.000000000000000000, 0.000000000000000000 ) ) ;
#66 = DIRECTION ( 'NONE',  ( 4.898587196589412459E-17, -1.000000000000000000, 0.000000000000000000 ) ) ;
#67 = AXIS2_PLACEMENT_3D ( 'NONE', #46, #66, #303 ) ;
#68 = COLOUR_RGB ( '',1.000000000000000000, 0.000000000000000000, 0.000000000000000000 ) ;
#69 = DIRECTION ( 'NONE',  ( -4.898587196589413075E-17, 1.000000000000000000, -0.000000000000000000 ) ) ;
#70 = CARTESIAN_POINT ( 'NONE',  ( 0.000000000000000000, 0.000000000000000000, 0.000000000000000000 ) ) ;
#71 = DIRECTION ( 'NONE',  ( 0.000000000000000000, 0.000000000000000000, -1.000000000000000000 ) ) ;
#72 = EDGE_CURVE ( 'NONE', #122, #294, #193, .T. ) ;
#73 =( NAMED_UNIT ( * ) SI_UNIT ( $, .STERADIAN. ) SOLID_ANGLE_UNIT ( ) );
#74 = CIRCLE ( 'NONE', #266, 0.2500000000000000000 ) ;
#75 = SURFACE_SIDE_STYLE ('',( #287 ) ) ;
#76 = SHAPE_DEFINITION_REPRESENTATION ( #258, #190 ) ;
#77 = EDGE_CURVE ( 'NONE', #99, #38, #265, .T. ) ;
#78 = AXIS2_PLACEMENT_3D ( 'NONE', #97, #170, #195 ) ;
#79 = ORIENTED_EDGE ( 'NONE', *, *, #308, .T. ) ;
#80 = ORIENTED_EDGE ( 'NONE', *, *, #72, .T. ) ;
#81 = AXIS2_PLACEMENT_3D ( 'NONE', #51, #165, #71 ) ;
#82 = ORIENTED_EDGE ( 'NONE', *, *, #246, .T. ) ;
#83 = CARTESIAN_POINT ( 'NONE',  ( 0.000000000000000000, 0.000000000000000000, 0.000000000000000000 ) ) ;
#84 = DIRECTION ( 'NONE',  ( 0.000000000000000000, 0.000000000000000000, -1.000000000000000000 ) ) ;
#85 = COLOUR_RGB ( '',0.7921568627450980005, 0.8196078431372548767, 0.9333333333333333481 ) ;
#86 = EDGE_CURVE ( 'NONE', #150, #149, #243, .T. ) ;
#87 =( CONVERSION_BASED_UNIT ( 'INCH', #61 ) LENGTH_UNIT ( ) NAMED_UNIT ( #230 ) );
#88 = MECHANICAL_DESIGN_GEOMETRIC_PRESENTATION_REPRESENTATION (  '', ( #187 ), #4 ) ;
#89 = CARTESIAN_POINT ( 'NONE',  ( 1.516480271171051896E-32, 2.500000000000000000, 0.000000000000000000 ) ) ;
#90 = UNCERTAINTY_MEASURE_WITH_UNIT (LENGTH_MEASURE( 1.000000000000000082E-05 ), #87, 'distance_accuracy_value', 'NONE');
#91 = DIRECTION ( 'NONE',  ( 0.000000000000000000, 0.000000000000000000, 1.000000000000000000 ) ) ;
#92 = LINE ( 'NONE', #142, #207 ) ;
#93 = ADVANCED_FACE ( 'NONE', ( #131 ), #231, .T. ) ;
#94 = MECHANICAL_DESIGN_GEOMETRIC_PRESENTATION_REPRESENTATION (  '', ( #213 ), #182 ) ;
#95 = ORIENTED_EDGE ( 'NONE', *, *, #119, .T. ) ;
#96 = AXIS2_PLACEMENT_3D ( 'NONE', #185, #186, #204 ) ;
#97 = CARTESIAN_POINT ( 'NONE',  ( -1.224646799147353207E-16, 5.000000000000000000, 0.000000000000000000 ) ) ;
#98 = ORIENTED_EDGE ( 'NONE', *, *, #63, .F. ) ;
#99 = VERTEX_POINT ( 'NONE', #167 ) ;
#100 = CYLINDRICAL_SURFACE ( 'NONE', #242, 0.2500000000000000000 ) ;
#101 =( GEOMETRIC_REPRESENTATION_CONTEXT ( 3 ) GLOBAL_UNCERTAINTY_ASSIGNED_CONTEXT ( ( #238 ) ) GLOBAL_UNIT_ASSIGNED_CONTEXT ( ( #192, #30, #269 ) ) REPRESENTATION_CONTEXT ( 'NONE', 'WORKASPACE' ) );
#102 = PRODUCT_RELATED_PRODUCT_CATEGORY ( 'part', '', ( #283 ) ) ;
#103 = DIRECTION ( 'NONE',  ( 0.000000000000000000, -1.000000000000000000, -0.000000000000000000 ) ) ;
#104 = PRESENTATION_STYLE_ASSIGNMENT (( #148 ) ) ;
#105 = FACE_OUTER_BOUND ( 'NONE', #221, .T. ) ;
#106 =( NAMED_UNIT ( * ) PLANE_ANGLE_UNIT ( ) SI_UNIT ( $, .RADIAN. ) );
#107 = EDGE_CURVE ( 'NONE', #294, #122, #173, .T. ) ;
#108 =( GEOMETRIC_REPRESENTATION_CONTEXT ( 3 ) GLOBAL_UNCERTAINTY_ASSIGNED_CONTEXT ( ( #48 ) ) GLOBAL_UNIT_ASSIGNED_CONTEXT ( ( #29, #115, #73 ) ) REPRESENTATION_CONTEXT ( 'NONE', 'WORKASPACE' ) );
#109 = LENGTH_MEASURE_WITH_UNIT ( LENGTH_MEASURE( 0.02539999999999999897 ), #17 );
#110 = FACE_OUTER_BOUND ( 'NONE', #147, .T. ) ;
#111 = CARTESIAN_POINT ( 'NONE',  ( 3.061616997868383018E-17, 2.500000000000000000, 0.2500000000000000000 ) ) ;
#112 = FILL_AREA_STYLE_COLOUR ( '', #85 ) ;
#113 = EDGE_CURVE ( 'NONE', #149, #150, #74, .T. ) ;
#114 = PRESENTATION_LAYER_ASSIGNMENT (  '', '', ( #247 ) ) ;
#115 =( NAMED_UNIT ( * ) PLANE_ANGLE_UNIT ( ) SI_UNIT ( $, .RADIAN. ) );
#116 = PLANE ( 'NONE',  #201 ) ;
#117 = AXIS2_PLACEMENT_3D ( 'NONE', #153, #41, #84 ) ;
#118 =( LENGTH_UNIT ( ) NAMED_UNIT ( * ) SI_UNIT ( $, .METRE. ) );
#119 = EDGE_CURVE ( 'NONE', #122, #149, #24, .T. ) ;
#120 = LENGTH_MEASURE_WITH_UNIT ( LENGTH_MEASURE( 0.02539999999999999897 ), #146 );
#121 = CARTESIAN_POINT ( 'NONE',  ( 0.000000000000000000, 2.500000000000000000, 0.000000000000000000 ) ) ;
#122 = VERTEX_POINT ( 'NONE', #47 ) ;
#123 = VECTOR ( 'NONE', #284, 39.37007874015748143 ) ;
#124 = DIRECTION ( 'NONE',  ( 0.000000000000000000, -0.000000000000000000, 1.000000000000000000 ) ) ;
#125 = ORIENTED_EDGE ( 'NONE', *, *, #77, .F. ) ;
#126 = LINE ( 'NONE', #291, #251 ) ;
#127 = DIMENSIONAL_EXPONENTS ( 1.000000000000000000, 0.000000000000000000, 0.000000000000000000, 0.000000000000000000, 0.000000000000000000, 0.000000000000000000, 0.000000000000000000 ) ;
#128 = ORIENTED_EDGE ( 'NONE', *, *, #54, .F. ) ;
#129 = EDGE_LOOP ( 'NONE', ( #6, #224, #95, #36 ) ) ;
#130 =( NAMED_UNIT ( * ) SI_UNIT ( $, .STERADIAN. ) SOLID_ANGLE_UNIT ( ) );
#131 = FACE_OUTER_BOUND ( 'NONE', #248, .T. ) ;
#132 = DIRECTION ( 'NONE',  ( -1.000000000000000000, 0.000000000000000000, 0.000000000000000000 ) ) ;
#133 = DIRECTION ( 'NONE',  ( -1.000000000000000000, -4.898587196589412459E-17, 0.000000000000000000 ) ) ;
#134 = SURFACE_STYLE_FILL_AREA ( #43 ) ;
#135 = LENGTH_MEASURE_WITH_UNIT ( LENGTH_MEASURE( 0.02539999999999999897 ), #280 );
#136 = DIRECTION ( 'NONE',  ( 0.000000000000000000, 0.000000000000000000, -1.000000000000000000 ) ) ;
#137 = SURFACE_STYLE_USAGE ( .BOTH. , #42 ) ;
#138 = DIRECTION ( 'NONE',  ( 1.000000000000000000, 0.000000000000000000, 0.000000000000000000 ) ) ;
#139 = MECHANICAL_DESIGN_GEOMETRIC_PRESENTATION_REPRESENTATION (  '', ( #25 ), #108 ) ;
#140 = DIRECTION ( 'NONE',  ( -0.000000000000000000, -1.000000000000000000, -0.000000000000000000 ) ) ;
#141 = FACE_OUTER_BOUND ( 'NONE', #196, .T. ) ;
#142 = CARTESIAN_POINT ( 'NONE',  ( 0.2499999999999999167, 5.000000000000000000, 3.061616997868383634E-17 ) ) ;
#143 = PRODUCT_CONTEXT ( 'NONE', #53, 'mechanical' ) ;
#144 = CIRCLE ( 'NONE', #11, 0.2500000000000000000 ) ;
#145 = CARTESIAN_POINT ( 'NONE',  ( 3.061616997868383018E-17, 0.000000000000000000, 0.2500000000000000000 ) ) ;
#146 =( LENGTH_UNIT ( ) NAMED_UNIT ( * ) SI_UNIT ( $, .METRE. ) );
#147 = EDGE_LOOP ( 'NONE', ( #8, #79 ) ) ;
#148 = SURFACE_STYLE_USAGE ( .BOTH. , #228 ) ;
#149 = VERTEX_POINT ( 'NONE', #1 ) ;
#150 = VERTEX_POINT ( 'NONE', #145 ) ;
#151 = SURFACE_STYLE_FILL_AREA ( #200 ) ;
#152 = DIRECTION ( 'NONE',  ( -1.000000000000000000, 0.000000000000000000, 0.000000000000000000 ) ) ;
#153 = CARTESIAN_POINT ( 'NONE',  ( 0.000000000000000000, 0.000000000000000000, 0.000000000000000000 ) ) ;
#154 = EDGE_CURVE ( 'NONE', #35, #38, #92, .T. ) ;
#155 = AXIS2_PLACEMENT_3D ( 'NONE', #163, #260, #152 ) ;
#156 =( NAMED_UNIT ( * ) SI_UNIT ( $, .STERADIAN. ) SOLID_ANGLE_UNIT ( ) );
#157 = DIRECTION ( 'NONE',  ( -0.000000000000000000, -1.000000000000000000, -0.000000000000000000 ) ) ;
#158 = APPLICATION_PROTOCOL_DEFINITION ( 'draft international standard', 'automotive_design', 1998, #53 ) ;
#159 =( NAMED_UNIT ( * ) SI_UNIT ( $, .STERADIAN. ) SOLID_ANGLE_UNIT ( ) );
#160 = DIRECTION ( 'NONE',  ( 0.000000000000000000, 0.000000000000000000, -1.000000000000000000 ) ) ;
#161 = SURFACE_STYLE_FILL_AREA ( #304 ) ;
#162 = PRODUCT_DEFINITION_CONTEXT ( 'detailed design', #278, 'design' ) ;
#163 = CARTESIAN_POINT ( 'NONE',  ( -1.224646799147353207E-16, 5.000000000000000000, 0.000000000000000000 ) ) ;
#164 = CARTESIAN_POINT ( 'NONE',  ( 0.000000000000000000, 0.000000000000000000, 0.000000000000000000 ) ) ;
#165 = DIRECTION ( 'NONE',  ( -0.000000000000000000, -1.000000000000000000, -0.000000000000000000 ) ) ;
#166 = MANIFOLD_SOLID_BREP ( 'Revolve - Cutting Edge', #39 ) ;
#167 = CARTESIAN_POINT ( 'NONE',  ( -0.2500000000000002776, 5.000000000000000000, 0.000000000000000000 ) ) ;
#168 = STYLED_ITEM ( 'NONE', ( #191 ), #177 ) ;
#169 = SURFACE_STYLE_USAGE ( .BOTH. , #75 ) ;
#170 = DIRECTION ( 'NONE',  ( -4.898587196589413075E-17, 1.000000000000000000, -0.000000000000000000 ) ) ;
#171 =( CONVERSION_BASED_UNIT ( 'INCH', #290 ) LENGTH_UNIT ( ) NAMED_UNIT ( #127 ) );
#172 = ORIENTED_EDGE ( 'NONE', *, *, #119, .F. ) ;
#173 = CIRCLE ( 'NONE', #81, 0.2500000000000000000 ) ;
#174 = DIMENSIONAL_EXPONENTS ( 1.000000000000000000, 0.000000000000000000, 0.000000000000000000, 0.000000000000000000, 0.000000000000000000, 0.000000000000000000, 0.000000000000000000 ) ;
#175 = SURFACE_STYLE_FILL_AREA ( #7 ) ;
#176 = ORIENTED_EDGE ( 'NONE', *, *, #308, .F. ) ;
#177 = ADVANCED_FACE ( 'NONE', ( #141 ), #116, .T. ) ;
#178 = DIMENSIONAL_EXPONENTS ( 1.000000000000000000, 0.000000000000000000, 0.000000000000000000, 0.000000000000000000, 0.000000000000000000, 0.000000000000000000, 0.000000000000000000 ) ;
#179 = EDGE_LOOP ( 'NONE', ( #272, #292, #82, #176 ) ) ;
#180 = PRESENTATION_STYLE_ASSIGNMENT (( #252 ) ) ;
#181 = CARTESIAN_POINT ( 'NONE',  ( -1.224646799147353207E-16, 5.000000000000000000, 0.000000000000000000 ) ) ;
#182 =( GEOMETRIC_REPRESENTATION_CONTEXT ( 3 ) GLOBAL_UNCERTAINTY_ASSIGNED_CONTEXT ( ( #307 ) ) GLOBAL_UNIT_ASSIGNED_CONTEXT ( ( #171, #210, #159 ) ) REPRESENTATION_CONTEXT ( 'NONE', 'WORKASPACE' ) );
#183 = AXIS2_PLACEMENT_3D ( 'NONE', #65, #103, #160 ) ;
#184 =( NAMED_UNIT ( * ) SI_UNIT ( $, .STERADIAN. ) SOLID_ANGLE_UNIT ( ) );
#185 = CARTESIAN_POINT ( 'NONE',  ( 1.516480271171051896E-32, 2.500000000000000000, 0.000000000000000000 ) ) ;
#186 = DIRECTION ( 'NONE',  ( -4.898587196589413075E-17, 1.000000000000000000, -0.000000000000000000 ) ) ;
#187 = STYLED_ITEM ( 'NONE', ( #180 ), #267 ) ;
#188 = CARTESIAN_POINT ( 'NONE',  ( 0.000000000000000000, 0.000000000000000000, -0.2500000000000000000 ) ) ;
#189 =( LENGTH_UNIT ( ) NAMED_UNIT ( * ) SI_UNIT ( $, .METRE. ) );
#190 = ADVANCED_BREP_SHAPE_REPRESENTATION ( '05532', ( #166, #60, #271 ), #14 ) ;
#191 = PRESENTATION_STYLE_ASSIGNMENT (( #169 ) ) ;
#192 =( CONVERSION_BASED_UNIT ( 'INCH', #37 ) LENGTH_UNIT ( ) NAMED_UNIT ( #174 ) );
#193 = CIRCLE ( 'NONE', #289, 0.2500000000000000000 ) ;
#194 = FILL_AREA_STYLE_COLOUR ( '', #57 ) ;
#195 = DIRECTION ( 'NONE',  ( -1.000000000000000000, 0.000000000000000000, 0.000000000000000000 ) ) ;
#196 = EDGE_LOOP ( 'NONE', ( #3, #31 ) ) ;
#197 = ORIENTED_EDGE ( 'NONE', *, *, #246, .F. ) ;
#198 = FACE_OUTER_BOUND ( 'NONE', #58, .T. ) ;
#199 = CLOSED_SHELL ( 'NONE', ( #93, #33, #209, #44 ) ) ;
#200 = FILL_AREA_STYLE ('',( #275 ) ) ;
#201 = AXIS2_PLACEMENT_3D ( 'NONE', #121, #223, #124 ) ;
#202 =( NAMED_UNIT ( * ) PLANE_ANGLE_UNIT ( ) SI_UNIT ( $, .RADIAN. ) );
#203 = FILL_AREA_STYLE_COLOUR ( '', #68 ) ;
#204 = DIRECTION ( 'NONE',  ( -1.000000000000000000, 0.000000000000000000, 0.000000000000000000 ) ) ;
#205 = UNCERTAINTY_MEASURE_WITH_UNIT (LENGTH_MEASURE( 1.000000000000000082E-05 ), #276, 'distance_accuracy_value', 'NONE');
#206 =( NAMED_UNIT ( * ) PLANE_ANGLE_UNIT ( ) SI_UNIT ( $, .RADIAN. ) );
#207 = VECTOR ( 'NONE', #263, 39.37007874015748143 ) ;
#208 =( CONVERSION_BASED_UNIT ( 'INCH', #135 ) LENGTH_UNIT ( ) NAMED_UNIT ( #293 ) );
#209 = ADVANCED_FACE ( 'NONE', ( #55 ), #34, .T. ) ;
#210 =( NAMED_UNIT ( * ) PLANE_ANGLE_UNIT ( ) SI_UNIT ( $, .RADIAN. ) );
#211 = APPLICATION_PROTOCOL_DEFINITION ( 'draft international standard', 'automotive_design', 1998, #278 ) ;
#212 = CARTESIAN_POINT ( 'NONE',  ( 0.2500000000000000555, 2.500000000000000000, 3.061616997868384251E-17 ) ) ;
#213 = STYLED_ITEM ( 'NONE', ( #104 ), #18 ) ;
#214 = UNCERTAINTY_MEASURE_WITH_UNIT (LENGTH_MEASURE( 1.000000000000000082E-05 ), #208, 'distance_accuracy_value', 'NONE');
#215 = CARTESIAN_POINT ( 'NONE',  ( 0.000000000000000000, 0.000000000000000000, 0.000000000000000000 ) ) ;
#216 = DIRECTION ( 'NONE',  ( -4.898587196589413075E-17, 1.000000000000000000, -0.000000000000000000 ) ) ;
#217 = AXIS2_PLACEMENT_3D ( 'NONE', #83, #19, #136 ) ;
#218 = LENGTH_MEASURE_WITH_UNIT ( LENGTH_MEASURE( 0.02539999999999999897 ), #189 );
#219 = FILL_AREA_STYLE ('',( #240 ) ) ;
#220 =( CONVERSION_BASED_UNIT ( 'INCH', #120 ) LENGTH_UNIT ( ) NAMED_UNIT ( #178 ) );
#221 = EDGE_LOOP ( 'NONE', ( #59, #56 ) ) ;
#222 = VECTOR ( 'NONE', #22, 39.37007874015748143 ) ;
#223 = DIRECTION ( 'NONE',  ( 0.000000000000000000, 1.000000000000000000, 0.000000000000000000 ) ) ;
#224 = ORIENTED_EDGE ( 'NONE', *, *, #107, .T. ) ;
#225 = ORIENTED_EDGE ( 'NONE', *, *, #113, .F. ) ;
#226 = DIRECTION ( 'NONE',  ( -4.898587196589412459E-17, 1.000000000000000000, -0.000000000000000000 ) ) ;
#227 = SURFACE_STYLE_USAGE ( .BOTH. , #288 ) ;
#228 = SURFACE_SIDE_STYLE ('',( #151 ) ) ;
#229 =( GEOMETRIC_REPRESENTATION_CONTEXT ( 3 ) GLOBAL_UNCERTAINTY_ASSIGNED_CONTEXT ( ( #214 ) ) GLOBAL_UNIT_ASSIGNED_CONTEXT ( ( #208, #206, #23 ) ) REPRESENTATION_CONTEXT ( 'NONE', 'WORKASPACE' ) );
#230 = DIMENSIONAL_EXPONENTS ( 1.000000000000000000, 0.000000000000000000, 0.000000000000000000, 0.000000000000000000, 0.000000000000000000, 0.000000000000000000, 0.000000000000000000 ) ;
#231 = CYLINDRICAL_SURFACE ( 'NONE', #277, 0.2500000000000000555 ) ;
#232 = PLANE ( 'NONE',  #67 ) ;
#233 =( NAMED_UNIT ( * ) PLANE_ANGLE_UNIT ( ) SI_UNIT ( $, .RADIAN. ) );
#234 = MECHANICAL_DESIGN_GEOMETRIC_PRESENTATION_REPRESENTATION (  '', ( #306 ), #12 ) ;
#235 = PLANE ( 'NONE',  #183 ) ;
#236 = COLOUR_RGB ( '',1.000000000000000000, 0.000000000000000000, 0.000000000000000000 ) ;
#237 = CIRCLE ( 'NONE', #155, 0.2500000000000001110 ) ;
#238 = UNCERTAINTY_MEASURE_WITH_UNIT (LENGTH_MEASURE( 1.000000000000000082E-05 ), #192, 'distance_accuracy_value', 'NONE');
#239 = DIRECTION ( 'NONE',  ( -1.000000000000000000, 0.000000000000000000, 0.000000000000000000 ) ) ;
#240 = FILL_AREA_STYLE_COLOUR ( '', #20 ) ;
#241 = FILL_AREA_STYLE_COLOUR ( '', #285 ) ;
#242 = AXIS2_PLACEMENT_3D ( 'NONE', #164, #157, #300 ) ;
#243 = CIRCLE ( 'NONE', #117, 0.2500000000000000000 ) ;
#244 = PRESENTATION_STYLE_ASSIGNMENT (( #309 ) ) ;
#245 =( LENGTH_UNIT ( ) NAMED_UNIT ( * ) SI_UNIT ( $, .METRE. ) );
#246 = EDGE_CURVE ( 'NONE', #249, #99, #126, .T. ) ;
#247 = STYLED_ITEM ( 'NONE', ( #21 ), #60 ) ;
#248 = EDGE_LOOP ( 'NONE', ( #297, #273, #125, #197 ) ) ;
#249 = VERTEX_POINT ( 'NONE', #2 ) ;
#250 = CARTESIAN_POINT ( 'NONE',  ( 2.999519565323715729E-34, 2.500000000000000000, 0.000000000000000000 ) ) ;
#251 = VECTOR ( 'NONE', #226, 39.37007874015748143 ) ;
#252 = SURFACE_STYLE_USAGE ( .BOTH. , #274 ) ;
#253 = FACE_OUTER_BOUND ( 'NONE', #15, .T. ) ;
#254 = ADVANCED_FACE ( 'NONE', ( #198 ), #296, .T. ) ;
#255 = DIRECTION ( 'NONE',  ( -4.898587196589413075E-17, 1.000000000000000000, -0.000000000000000000 ) ) ;
#256 = CARTESIAN_POINT ( 'NONE',  ( 3.061616997868383018E-17, 0.000000000000000000, 0.2500000000000000000 ) ) ;
#257 = CARTESIAN_POINT ( 'NONE',  ( -1.224646799147353207E-16, 5.000000000000000000, 0.000000000000000000 ) ) ;
#258 = PRODUCT_DEFINITION_SHAPE ( 'NONE', 'NONE',  #295 ) ;
#259 = AXIS2_PLACEMENT_3D ( 'NONE', #257, #255, #45 ) ;
#260 = DIRECTION ( 'NONE',  ( -4.898587196589413075E-17, 1.000000000000000000, -0.000000000000000000 ) ) ;
#261 = PLANE ( 'NONE',  #264 ) ;
#262 = DIRECTION ( 'NONE',  ( 0.000000000000000000, 0.000000000000000000, -1.000000000000000000 ) ) ;
#263 = DIRECTION ( 'NONE',  ( -4.898587196589412459E-17, 1.000000000000000000, -0.000000000000000000 ) ) ;
#264 = AXIS2_PLACEMENT_3D ( 'NONE', #250, #62, #133 ) ;
#265 = CIRCLE ( 'NONE', #259, 0.2500000000000001110 ) ;
#266 = AXIS2_PLACEMENT_3D ( 'NONE', #215, #140, #262 ) ;
#267 = ADVANCED_FACE ( 'NONE', ( #105 ), #235, .T. ) ;
#268 = ORIENTED_EDGE ( 'NONE', *, *, #286, .T. ) ;
#269 =( NAMED_UNIT ( * ) SI_UNIT ( $, .STERADIAN. ) SOLID_ANGLE_UNIT ( ) );
#270 = MECHANICAL_DESIGN_GEOMETRIC_PRESENTATION_REPRESENTATION (  '', ( #168 ), #101 ) ;
#271 = AXIS2_PLACEMENT_3D ( 'NONE', #70, #91, #138 ) ;
#272 = ORIENTED_EDGE ( 'NONE', *, *, #154, .F. ) ;
#273 = ORIENTED_EDGE ( 'NONE', *, *, #154, .T. ) ;
#274 = SURFACE_SIDE_STYLE ('',( #134 ) ) ;
#275 = FILL_AREA_STYLE_COLOUR ( '', #236 ) ;
#276 =( CONVERSION_BASED_UNIT ( 'INCH', #109 ) LENGTH_UNIT ( ) NAMED_UNIT ( #9 ) );
#277 = AXIS2_PLACEMENT_3D ( 'NONE', #181, #216, #239 ) ;
#278 = APPLICATION_CONTEXT ( 'automotive_design' ) ;
#279 = LINE ( 'NONE', #256, #222 ) ;
#280 =( LENGTH_UNIT ( ) NAMED_UNIT ( * ) SI_UNIT ( $, .METRE. ) );
#281 = CARTESIAN_POINT ( 'NONE',  ( 0.000000000000000000, 2.500000000000000000, 0.000000000000000000 ) ) ;
#282 = PRESENTATION_LAYER_ASSIGNMENT (  '', '', ( #306 ) ) ;
#283 = PRODUCT ( '05532', '05532', '', ( #143 ) ) ;
#284 = DIRECTION ( 'NONE',  ( -0.000000000000000000, -1.000000000000000000, -0.000000000000000000 ) ) ;
#285 = COLOUR_RGB ( '',0.7921568627450980005, 0.8196078431372548767, 0.9333333333333333481 ) ;
#286 = EDGE_CURVE ( 'NONE', #294, #150, #279, .T. ) ;
#287 = SURFACE_STYLE_FILL_AREA ( #219 ) ;
#288 = SURFACE_SIDE_STYLE ('',( #175 ) ) ;
#289 = AXIS2_PLACEMENT_3D ( 'NONE', #281, #305, #298 ) ;
#290 = LENGTH_MEASURE_WITH_UNIT ( LENGTH_MEASURE( 0.02539999999999999897 ), #245 );
#291 = CARTESIAN_POINT ( 'NONE',  ( -0.2500000000000002220, 5.000000000000000000, 0.000000000000000000 ) ) ;
#292 = ORIENTED_EDGE ( 'NONE', *, *, #63, .T. ) ;
#293 = DIMENSIONAL_EXPONENTS ( 1.000000000000000000, 0.000000000000000000, 0.000000000000000000, 0.000000000000000000, 0.000000000000000000, 0.000000000000000000, 0.000000000000000000 ) ;
#294 = VERTEX_POINT ( 'NONE', #111 ) ;
#295 = PRODUCT_DEFINITION ( 'UNKNOWN', '', #26, #162 ) ;
#296 = CYLINDRICAL_SURFACE ( 'NONE', #217, 0.2500000000000000000 ) ;
#297 = ORIENTED_EDGE ( 'NONE', *, *, #54, .T. ) ;
#298 = DIRECTION ( 'NONE',  ( 0.000000000000000000, 0.000000000000000000, -1.000000000000000000 ) ) ;
#299 = PRESENTATION_LAYER_ASSIGNMENT (  '', '', ( #168 ) ) ;
#300 = DIRECTION ( 'NONE',  ( 0.000000000000000000, 0.000000000000000000, -1.000000000000000000 ) ) ;
#301 = UNCERTAINTY_MEASURE_WITH_UNIT (LENGTH_MEASURE( 1.000000000000000082E-05 ), #220, 'distance_accuracy_value', 'NONE');
#302 =( LENGTH_UNIT ( ) NAMED_UNIT ( * ) SI_UNIT ( $, .METRE. ) );
#303 = DIRECTION ( 'NONE',  ( 1.000000000000000000, 4.898587196589412459E-17, 0.000000000000000000 ) ) ;
#304 = FILL_AREA_STYLE ('',( #112 ) ) ;
#305 = DIRECTION ( 'NONE',  ( -0.000000000000000000, -1.000000000000000000, -0.000000000000000000 ) ) ;
#306 = STYLED_ITEM ( 'NONE', ( #13 ), #254 ) ;
#307 = UNCERTAINTY_MEASURE_WITH_UNIT (LENGTH_MEASURE( 1.000000000000000082E-05 ), #171, 'distance_accuracy_value', 'NONE');
#308 = EDGE_CURVE ( 'NONE', #38, #99, #237, .T. ) ;
#309 = SURFACE_STYLE_USAGE ( .BOTH. , #28 ) ;
ENDSEC;
END-ISO-10303-21;
