ISO-10303-21;
HEADER;
FILE_DESCRIPTION (( 'STEP AP214' ),
    '1' );
FILE_NAME ('Micro_DM-187-290.STEP',
    '2021-09-02T15:59:36',
    ( '' ),
    ( '' ),
    'SwSTEP 2.0',
    'SolidWorks 2020',
    '' );
FILE_SCHEMA (( 'AUTOMOTIVE_DESIGN' ));
ENDSEC;

DATA;
#1 = DIRECTION ( 'NONE',  ( -0.0000000000000000000, -0.0000000000000000000, -1.000000000000000000 ) ) ;
#2 = LENGTH_MEASURE_WITH_UNIT ( LENGTH_MEASURE( 0.02539999999999999897 ), #252 );
#3 = ORIENTED_EDGE ( 'NONE', *, *, #183, .F. ) ;
#4 = FACE_OUTER_BOUND ( 'NONE', #53, .T. ) ;
#5 = EDGE_CURVE ( 'NONE', #121, #140, #159, .T. ) ;
#6 = VERTEX_POINT ( 'NONE', #269 ) ;
#7 = VECTOR ( 'NONE', #184, 39.37007874015748143 ) ;
#8 = DIRECTION ( 'NONE',  ( 1.000000000000000000, 0.0000000000000000000, 0.0000000000000000000 ) ) ;
#9 = CARTESIAN_POINT ( 'NONE',  ( 0.0000000000000000000, 0.0000000000000000000, 1.707404996040164512E-17 ) ) ;
#10 = LINE ( 'NONE', #112, #42 ) ;
#11 = EDGE_LOOP ( 'NONE', ( #3, #298, #278, #97 ) ) ;
#12 = ADVANCED_FACE ( 'NONE', ( #192 ), #296, .T. ) ;
#13 = AXIS2_PLACEMENT_3D ( 'NONE', #241, #100, #25 ) ;
#14 = CARTESIAN_POINT ( 'NONE',  ( 0.07874999999999980627, 9.644093543285380530E-18, 2.000000000000000000 ) ) ;
#15 = EDGE_CURVE ( 'NONE', #167, #95, #151, .T. ) ;
#16 = DIRECTION ( 'NONE',  ( -1.000000000000000000, 0.0000000000000000000, 0.0000000000000000000 ) ) ;
#17 = CIRCLE ( 'NONE', #225, 0.09370000000000001938 ) ;
#18 = DIRECTION ( 'NONE',  ( -1.000000000000000000, 0.0000000000000000000, 0.0000000000000000000 ) ) ;
#19 = DIRECTION ( 'NONE',  ( -1.000000000000000000, 0.0000000000000000000, 0.0000000000000000000 ) ) ;
#20 = ADVANCED_FACE ( 'NONE', ( #194 ), #157, .T. ) ;
#21 = LINE ( 'NONE', #239, #263 ) ;
#22 = ORIENTED_EDGE ( 'NONE', *, *, #54, .T. ) ;
#23 = DIRECTION ( 'NONE',  ( -0.7071067811865490160, 8.659560562354951347E-17, 0.7071067811865460184 ) ) ;
#24 = AXIS2_PLACEMENT_3D ( 'NONE', #9, #111, #204 ) ;
#25 = DIRECTION ( 'NONE',  ( -1.000000000000000000, 0.0000000000000000000, 0.0000000000000000000 ) ) ;
#26 = CIRCLE ( 'NONE', #288, 0.09375000000000001388 ) ;
#27 = DIRECTION ( 'NONE',  ( 1.000000000000000000, 0.0000000000000000000, 0.0000000000000000000 ) ) ;
#28 =( CONVERSION_BASED_UNIT ( 'INCH', #2 ) LENGTH_UNIT ( ) NAMED_UNIT ( #88 ) );
#29 = ORIENTED_EDGE ( 'NONE', *, *, #254, .T. ) ;
#30 = DIRECTION ( 'NONE',  ( -1.000000000000000000, 0.0000000000000000000, 0.0000000000000000000 ) ) ;
#31 = ADVANCED_FACE ( 'NONE', ( #62 ), #35, .F. ) ;
#32 =( GEOMETRIC_REPRESENTATION_CONTEXT ( 3 ) GLOBAL_UNCERTAINTY_ASSIGNED_CONTEXT ( ( #312 ) ) GLOBAL_UNIT_ASSIGNED_CONTEXT ( ( #28, #181, #258 ) ) REPRESENTATION_CONTEXT ( 'NONE', 'WORKASPACE' ) );
#33 = EDGE_LOOP ( 'NONE', ( #236, #164, #187, #291 ) ) ;
#34 = FILL_AREA_STYLE ('',( #224 ) ) ;
#35 = PLANE ( 'NONE',  #323 ) ;
#36 = COLOUR_RGB ( '',0.7921568627450980005, 0.8196078431372548767, 0.9333333333333333481 ) ;
#37 = CARTESIAN_POINT ( 'NONE',  ( 0.09370000000000001938, 0.0000000000000000000, 0.08619999999999966578 ) ) ;
#38 = ORIENTED_EDGE ( 'NONE', *, *, #315, .F. ) ;
#39 = EDGE_CURVE ( 'NONE', #95, #167, #17, .T. ) ;
#40 = DIRECTION ( 'NONE',  ( -0.0000000000000000000, -0.0000000000000000000, -1.000000000000000000 ) ) ;
#41 = AXIS2_PLACEMENT_3D ( 'NONE', #142, #294, #216 ) ;
#42 = VECTOR ( 'NONE', #205, 39.37007874015748143 ) ;
#43 = ADVANCED_FACE ( 'NONE', ( #63 ), #311, .T. ) ;
#44 = FACE_OUTER_BOUND ( 'NONE', #248, .T. ) ;
#45 = FILL_AREA_STYLE ('',( #287 ) ) ;
#46 = FACE_OUTER_BOUND ( 'NONE', #246, .T. ) ;
#47 = EDGE_CURVE ( 'NONE', #118, #280, #161, .T. ) ;
#48 = CARTESIAN_POINT ( 'NONE',  ( 0.0000000000000000000, 0.0000000000000000000, 1.984999999999999654 ) ) ;
#49 = CARTESIAN_POINT ( 'NONE',  ( 0.0000000000000000000, 0.0000000000000000000, 0.0000000000000000000 ) ) ;
#50 = ORIENTED_EDGE ( 'NONE', *, *, #47, .F. ) ;
#51 = DIRECTION ( 'NONE',  ( 0.0000000000000000000, 0.0000000000000000000, 1.000000000000000000 ) ) ;
#52 = AXIS2_PLACEMENT_3D ( 'NONE', #212, #101, #300 ) ;
#53 = EDGE_LOOP ( 'NONE', ( #76, #29, #275, #38 ) ) ;
#54 = EDGE_CURVE ( 'NONE', #280, #95, #81, .T. ) ;
#55 = ADVANCED_FACE ( 'NONE', ( #4 ), #189, .T. ) ;
#56 = CARTESIAN_POINT ( 'NONE',  ( 0.0000000000000000000, 0.0000000000000000000, 0.0000000000000000000 ) ) ;
#57 = DIRECTION ( 'NONE',  ( 0.0000000000000000000, 0.0000000000000000000, 1.000000000000000000 ) ) ;
#58 = ORIENTED_EDGE ( 'NONE', *, *, #317, .T. ) ;
#59 = DIRECTION ( 'NONE',  ( 0.0000000000000000000, 0.0000000000000000000, -1.000000000000000000 ) ) ;
#60 = AXIS2_PLACEMENT_3D ( 'NONE', #316, #162, #72 ) ;
#61 = AXIS2_PLACEMENT_3D ( 'NONE', #131, #174, #108 ) ;
#62 = FACE_OUTER_BOUND ( 'NONE', #123, .T. ) ;
#63 = FACE_OUTER_BOUND ( 'NONE', #319, .T. ) ;
#64 = PRODUCT_DEFINITION_CONTEXT ( 'detailed design', #68, 'design' ) ;
#65 = AXIS2_PLACEMENT_3D ( 'NONE', #286, #255, #154 ) ;
#66 = COLOUR_RGB ( '',0.7921568627450980005, 0.8196078431372548767, 0.9333333333333333481 ) ;
#67 = CARTESIAN_POINT ( 'NONE',  ( 0.0000000000000000000, 0.0000000000000000000, 0.6250000000000000000 ) ) ;
#68 = APPLICATION_CONTEXT ( 'automotive_design' ) ;
#69 = CIRCLE ( 'NONE', #171, 0.09375000000000001388 ) ;
#70 =( GEOMETRIC_REPRESENTATION_CONTEXT ( 3 ) GLOBAL_UNCERTAINTY_ASSIGNED_CONTEXT ( ( #284 ) ) GLOBAL_UNIT_ASSIGNED_CONTEXT ( ( #110, #327, #175 ) ) REPRESENTATION_CONTEXT ( 'NONE', 'WORKASPACE' ) );
#71 = CIRCLE ( 'NONE', #122, 0.09375000000000001388 ) ;
#72 = DIRECTION ( 'NONE',  ( 1.000000000000000000, 0.0000000000000000000, 0.0000000000000000000 ) ) ;
#73 = DIRECTION ( 'NONE',  ( 0.0000000000000000000, 0.0000000000000000000, -1.000000000000000000 ) ) ;
#74 = DIRECTION ( 'NONE',  ( -0.0000000000000000000, -0.0000000000000000000, -1.000000000000000000 ) ) ;
#75 =( NAMED_UNIT ( * ) SI_UNIT ( $, .STERADIAN. ) SOLID_ANGLE_UNIT ( ) );
#76 = ORIENTED_EDGE ( 'NONE', *, *, #5, .F. ) ;
#77 = EDGE_CURVE ( 'NONE', #140, #121, #180, .T. ) ;
#78 = DIRECTION ( 'NONE',  ( 0.0000000000000000000, 0.0000000000000000000, -1.000000000000000000 ) ) ;
#79 = CARTESIAN_POINT ( 'NONE',  ( 0.09370000000000008877, 1.147494050801071143E-17, 0.6250000000000000000 ) ) ;
#80 = ORIENTED_EDGE ( 'NONE', *, *, #47, .T. ) ;
#81 = LINE ( 'NONE', #282, #232 ) ;
#82 = PRESENTATION_STYLE_ASSIGNMENT (( #302 ) ) ;
#83 = ORIENTED_EDGE ( 'NONE', *, *, #243, .F. ) ;
#84 = DIRECTION ( 'NONE',  ( -1.000000000000000000, 0.0000000000000000000, 0.0000000000000000000 ) ) ;
#85 = EDGE_LOOP ( 'NONE', ( #50, #176 ) ) ;
#86 = DIRECTION ( 'NONE',  ( 1.000000000000000000, 0.0000000000000000000, 0.0000000000000000000 ) ) ;
#87 = CIRCLE ( 'NONE', #132, 0.09370000000000008877 ) ;
#88 = DIMENSIONAL_EXPONENTS ( 1.000000000000000000, 0.0000000000000000000, 0.0000000000000000000, 0.0000000000000000000, 0.0000000000000000000, 0.0000000000000000000, 0.0000000000000000000 ) ;
#89 = APPLICATION_PROTOCOL_DEFINITION ( 'draft international standard', 'automotive_design', 1998, #68 ) ;
#90 = EDGE_CURVE ( 'NONE', #118, #167, #198, .T. ) ;
#91 = PRODUCT_DEFINITION ( 'UNKNOWN', '', #133, #64 ) ;
#92 = DIMENSIONAL_EXPONENTS ( 1.000000000000000000, 0.0000000000000000000, 0.0000000000000000000, 0.0000000000000000000, 0.0000000000000000000, 0.0000000000000000000, 0.0000000000000000000 ) ;
#93 = AXIS2_PLACEMENT_3D ( 'NONE', #124, #1, #126 ) ;
#94 = ORIENTED_EDGE ( 'NONE', *, *, #285, .F. ) ;
#95 = VERTEX_POINT ( 'NONE', #37 ) ;
#96 = CARTESIAN_POINT ( 'NONE',  ( 0.0000000000000000000, 0.0000000000000000000, 2.000000000000000000 ) ) ;
#97 = ORIENTED_EDGE ( 'NONE', *, *, #317, .F. ) ;
#98 = AXIS2_PLACEMENT_3D ( 'NONE', #165, #141, #116 ) ;
#99 = LENGTH_MEASURE_WITH_UNIT ( LENGTH_MEASURE( 0.02539999999999999897 ), #139 );
#100 = DIRECTION ( 'NONE',  ( -0.0000000000000000000, -0.0000000000000000000, -1.000000000000000000 ) ) ;
#101 = DIRECTION ( 'NONE',  ( -0.0000000000000000000, -0.0000000000000000000, -1.000000000000000000 ) ) ;
#102 = CIRCLE ( 'NONE', #262, 0.09375000000000001388 ) ;
#103 = DIRECTION ( 'NONE',  ( -0.0000000000000000000, -0.0000000000000000000, -1.000000000000000000 ) ) ;
#104 = DIRECTION ( 'NONE',  ( 0.0000000000000000000, 0.0000000000000000000, 1.000000000000000000 ) ) ;
#105 = ORIENTED_EDGE ( 'NONE', *, *, #155, .F. ) ;
#106 = CARTESIAN_POINT ( 'NONE',  ( -0.007499999999999999722, 6.196712803685606757E-18, 1.707404996040164512E-17 ) ) ;
#107 = ADVANCED_FACE ( 'NONE', ( #329 ), #303, .T. ) ;
#108 = DIRECTION ( 'NONE',  ( 1.000000000000000000, 0.0000000000000000000, -0.0000000000000000000 ) ) ;
#109 = DIMENSIONAL_EXPONENTS ( 1.000000000000000000, 0.0000000000000000000, 0.0000000000000000000, 0.0000000000000000000, 0.0000000000000000000, 0.0000000000000000000, 0.0000000000000000000 ) ;
#110 =( CONVERSION_BASED_UNIT ( 'INCH', #130 ) LENGTH_UNIT ( ) NAMED_UNIT ( #109 ) );
#111 = DIRECTION ( 'NONE',  ( 0.0000000000000000000, 0.0000000000000000000, 1.000000000000000000 ) ) ;
#112 = CARTESIAN_POINT ( 'NONE',  ( 0.09375000000000001388, 1.148106374200643863E-17, 2.000000000000000000 ) ) ;
#113 = EDGE_CURVE ( 'NONE', #280, #118, #87, .T. ) ;
#114 = CARTESIAN_POINT ( 'NONE',  ( -0.09370000000000001938, 1.147494050801070064E-17, 0.08619999999999966578 ) ) ;
#115 = CLOSED_SHELL ( 'NONE', ( #12, #55, #20, #270, #228, #43, #304, #163, #308, #107, #31 ) ) ;
#116 = DIRECTION ( 'NONE',  ( 1.000000000000000000, 0.0000000000000000000, 0.0000000000000000000 ) ) ;
#117 =( LENGTH_UNIT ( ) NAMED_UNIT ( * ) SI_UNIT ( $, .METRE. ) );
#118 = VERTEX_POINT ( 'NONE', #279 ) ;
#119 = FACE_OUTER_BOUND ( 'NONE', #172, .T. ) ;
#120 = DIRECTION ( 'NONE',  ( 0.0000000000000000000, 0.0000000000000000000, -1.000000000000000000 ) ) ;
#121 = VERTEX_POINT ( 'NONE', #106 ) ;
#122 = AXIS2_PLACEMENT_3D ( 'NONE', #290, #245, #19 ) ;
#123 = EDGE_LOOP ( 'NONE', ( #134, #273 ) ) ;
#124 = CARTESIAN_POINT ( 'NONE',  ( 0.0000000000000000000, 0.0000000000000000000, 0.0000000000000000000 ) ) ;
#125 = EDGE_LOOP ( 'NONE', ( #80, #22, #148, #147 ) ) ;
#126 = DIRECTION ( 'NONE',  ( -1.000000000000000000, 0.0000000000000000000, 0.0000000000000000000 ) ) ;
#127 = PRODUCT_CONTEXT ( 'NONE', #190, 'mechanical' ) ;
#128 = DIRECTION ( 'NONE',  ( 1.000000000000000000, 0.0000000000000000000, -0.0000000000000000000 ) ) ;
#129 = EDGE_CURVE ( 'NONE', #145, #320, #26, .T. ) ;
#130 = LENGTH_MEASURE_WITH_UNIT ( LENGTH_MEASURE( 0.02539999999999999897 ), #117 );
#131 = CARTESIAN_POINT ( 'NONE',  ( 0.0000000000000000000, 0.0000000000000000000, 2.000000000000000000 ) ) ;
#132 = AXIS2_PLACEMENT_3D ( 'NONE', #257, #103, #305 ) ;
#133 = PRODUCT_DEFINITION_FORMATION_WITH_SPECIFIED_SOURCE ( 'ANY', '', #324, .NOT_KNOWN. ) ;
#134 = ORIENTED_EDGE ( 'NONE', *, *, #77, .T. ) ;
#135 = DIRECTION ( 'NONE',  ( -1.000000000000000000, 0.0000000000000000000, 0.0000000000000000000 ) ) ;
#136 = CIRCLE ( 'NONE', #98, 0.07874999999999980627 ) ;
#137 = PLANE ( 'NONE',  #230 ) ;
#138 = EDGE_CURVE ( 'NONE', #173, #320, #153, .T. ) ;
#139 =( LENGTH_UNIT ( ) NAMED_UNIT ( * ) SI_UNIT ( $, .METRE. ) );
#140 = VERTEX_POINT ( 'NONE', #206 ) ;
#141 = DIRECTION ( 'NONE',  ( 0.0000000000000000000, 0.0000000000000000000, 1.000000000000000000 ) ) ;
#142 = CARTESIAN_POINT ( 'NONE',  ( 0.0000000000000000000, 0.0000000000000000000, 1.707404996040164512E-17 ) ) ;
#143 = ADVANCED_BREP_SHAPE_REPRESENTATION ( 'Micro_DM-187-290', ( #218, #179 ), #70 ) ;
#144 =( NAMED_UNIT ( * ) PLANE_ANGLE_UNIT ( ) SI_UNIT ( $, .RADIAN. ) );
#145 = VERTEX_POINT ( 'NONE', #289 ) ;
#146 = CARTESIAN_POINT ( 'NONE',  ( 0.007499999999999999722, 0.0000000000000000000, 1.707404996040164512E-17 ) ) ;
#147 = ORIENTED_EDGE ( 'NONE', *, *, #90, .F. ) ;
#148 = ORIENTED_EDGE ( 'NONE', *, *, #15, .F. ) ;
#149 = EDGE_CURVE ( 'NONE', #253, #6, #69, .T. ) ;
#150 = ORIENTED_EDGE ( 'NONE', *, *, #149, .F. ) ;
#151 = CIRCLE ( 'NONE', #13, 0.09370000000000001938 ) ;
#152 = STYLED_ITEM ( 'NONE', ( #82 ), #143 ) ;
#153 = LINE ( 'NONE', #223, #188 ) ;
#154 = DIRECTION ( 'NONE',  ( -1.000000000000000000, 0.0000000000000000000, 0.0000000000000000000 ) ) ;
#155 = EDGE_CURVE ( 'NONE', #306, #145, #231, .T. ) ;
#156 = DIRECTION ( 'NONE',  ( -0.0000000000000000000, -0.0000000000000000000, -1.000000000000000000 ) ) ;
#157 = CONICAL_SURFACE ( 'NONE', #309, 0.07874999999999980627, 0.7853981633974466137 ) ;
#158 = DIRECTION ( 'NONE',  ( -0.7071067811865463515, 0.0000000000000000000, -0.7071067811865486830 ) ) ;
#159 = CIRCLE ( 'NONE', #41, 0.007499999999999999722 ) ;
#160 = EDGE_CURVE ( 'NONE', #173, #306, #281, .T. ) ;
#161 = CIRCLE ( 'NONE', #301, 0.09370000000000008877 ) ;
#162 = DIRECTION ( 'NONE',  ( 0.0000000000000000000, 0.0000000000000000000, 1.000000000000000000 ) ) ;
#163 = ADVANCED_FACE ( 'NONE', ( #264, #44 ), #137, .T. ) ;
#164 = ORIENTED_EDGE ( 'NONE', *, *, #113, .T. ) ;
#165 = CARTESIAN_POINT ( 'NONE',  ( 0.0000000000000000000, 0.0000000000000000000, 2.000000000000000000 ) ) ;
#166 = SURFACE_STYLE_FILL_AREA ( #45 ) ;
#167 = VERTEX_POINT ( 'NONE', #114 ) ;
#168 = CARTESIAN_POINT ( 'NONE',  ( 0.07874999999999980627, 1.056257864264590573E-17, 2.000000000000000000 ) ) ;
#169 = ORIENTED_EDGE ( 'NONE', *, *, #243, .T. ) ;
#170 = PRODUCT_RELATED_PRODUCT_CATEGORY ( 'part', '', ( #324 ) ) ;
#171 = AXIS2_PLACEMENT_3D ( 'NONE', #67, #40, #135 ) ;
#172 = EDGE_LOOP ( 'NONE', ( #276, #326, #219, #178 ) ) ;
#173 = VERTEX_POINT ( 'NONE', #208 ) ;
#174 = DIRECTION ( 'NONE',  ( 0.0000000000000000000, 0.0000000000000000000, 1.000000000000000000 ) ) ;
#175 =( NAMED_UNIT ( * ) SI_UNIT ( $, .STERADIAN. ) SOLID_ANGLE_UNIT ( ) );
#176 = ORIENTED_EDGE ( 'NONE', *, *, #113, .F. ) ;
#177 = VECTOR ( 'NONE', #318, 39.37007874015748143 ) ;
#178 = ORIENTED_EDGE ( 'NONE', *, *, #39, .T. ) ;
#179 = AXIS2_PLACEMENT_3D ( 'NONE', #56, #104, #8 ) ;
#180 = CIRCLE ( 'NONE', #65, 0.007499999999999999722 ) ;
#181 =( NAMED_UNIT ( * ) PLANE_ANGLE_UNIT ( ) SI_UNIT ( $, .RADIAN. ) );
#182 = CARTESIAN_POINT ( 'NONE',  ( 0.0000000000000000000, 0.0000000000000000000, 0.08619999999999966578 ) ) ;
#183 = EDGE_CURVE ( 'NONE', #145, #6, #10, .T. ) ;
#184 = DIRECTION ( 'NONE',  ( 0.7071067811865463515, 8.659560562354916834E-17, -0.7071067811865486830 ) ) ;
#185 = ORIENTED_EDGE ( 'NONE', *, *, #328, .T. ) ;
#186 =( CONVERSION_BASED_UNIT ( 'INCH', #99 ) LENGTH_UNIT ( ) NAMED_UNIT ( #92 ) );
#187 = ORIENTED_EDGE ( 'NONE', *, *, #90, .T. ) ;
#188 = VECTOR ( 'NONE', #158, 39.37007874015748143 ) ;
#189 = CONICAL_SURFACE ( 'NONE', #24, 0.007499999999999999722, 0.7853981633974503884 ) ;
#190 = APPLICATION_CONTEXT ( 'automotive_design' ) ;
#191 = LINE ( 'NONE', #146, #177 ) ;
#192 = FACE_OUTER_BOUND ( 'NONE', #125, .T. ) ;
#193 = PRESENTATION_STYLE_ASSIGNMENT (( #237 ) ) ;
#194 = FACE_OUTER_BOUND ( 'NONE', #267, .T. ) ;
#195 =( GEOMETRIC_REPRESENTATION_CONTEXT ( 3 ) GLOBAL_UNCERTAINTY_ASSIGNED_CONTEXT ( ( #207 ) ) GLOBAL_UNIT_ASSIGNED_CONTEXT ( ( #186, #144, #75 ) ) REPRESENTATION_CONTEXT ( 'NONE', 'WORKASPACE' ) );
#196 = MECHANICAL_DESIGN_GEOMETRIC_PRESENTATION_REPRESENTATION (  '', ( #152 ), #32 ) ;
#197 = ORIENTED_EDGE ( 'NONE', *, *, #155, .T. ) ;
#198 = LINE ( 'NONE', #260, #201 ) ;
#199 = ORIENTED_EDGE ( 'NONE', *, *, #129, .F. ) ;
#200 = CARTESIAN_POINT ( 'NONE',  ( 0.0000000000000000000, 0.0000000000000000000, 1.984999999999999654 ) ) ;
#201 = VECTOR ( 'NONE', #220, 39.37007874015748143 ) ;
#202 = DIRECTION ( 'NONE',  ( -1.000000000000000000, 0.0000000000000000000, 0.0000000000000000000 ) ) ;
#203 = CONICAL_SURFACE ( 'NONE', #259, 0.007499999999999999722, 0.7853981633974503884 ) ;
#204 = DIRECTION ( 'NONE',  ( 1.000000000000000000, 0.0000000000000000000, 0.0000000000000000000 ) ) ;
#205 = DIRECTION ( 'NONE',  ( -0.0000000000000000000, -0.0000000000000000000, -1.000000000000000000 ) ) ;
#206 = CARTESIAN_POINT ( 'NONE',  ( 0.007499999999999999722, 0.0000000000000000000, 1.707404996040164512E-17 ) ) ;
#207 = UNCERTAINTY_MEASURE_WITH_UNIT (LENGTH_MEASURE( 1.000000000000000082E-05 ), #186, 'distance_accuracy_value', 'NONE');
#208 = CARTESIAN_POINT ( 'NONE',  ( -0.07874999999999980627, 0.0000000000000000000, 2.000000000000000000 ) ) ;
#209 = LINE ( 'NONE', #292, #244 ) ;
#210 = CARTESIAN_POINT ( 'NONE',  ( -0.09375000000000001388, 0.0000000000000000000, 1.984999999999999654 ) ) ;
#211 = ORIENTED_EDGE ( 'NONE', *, *, #160, .T. ) ;
#212 = CARTESIAN_POINT ( 'NONE',  ( 0.0000000000000000000, 0.0000000000000000000, 2.000000000000000000 ) ) ;
#213 = DIRECTION ( 'NONE',  ( -1.000000000000000000, 0.0000000000000000000, 0.0000000000000000000 ) ) ;
#214 = AXIS2_PLACEMENT_3D ( 'NONE', #96, #234, #266 ) ;
#215 = DIRECTION ( 'NONE',  ( 1.000000000000000000, 0.0000000000000000000, 0.0000000000000000000 ) ) ;
#216 = DIRECTION ( 'NONE',  ( -1.000000000000000000, 0.0000000000000000000, 0.0000000000000000000 ) ) ;
#217 = CARTESIAN_POINT ( 'NONE',  ( 0.0000000000000000000, 0.0000000000000000000, 0.0000000000000000000 ) ) ;
#218 = MANIFOLD_SOLID_BREP ( 'Cut-Revolve4', #115 ) ;
#219 = ORIENTED_EDGE ( 'NONE', *, *, #315, .T. ) ;
#220 = DIRECTION ( 'NONE',  ( -0.0000000000000000000, -0.0000000000000000000, -1.000000000000000000 ) ) ;
#221 = SURFACE_SIDE_STYLE ('',( #283 ) ) ;
#222 = ORIENTED_EDGE ( 'NONE', *, *, #149, .T. ) ;
#223 = CARTESIAN_POINT ( 'NONE',  ( -0.07874999999999980627, 0.0000000000000000000, 2.000000000000000000 ) ) ;
#224 = FILL_AREA_STYLE_COLOUR ( '', #66 ) ;
#225 = AXIS2_PLACEMENT_3D ( 'NONE', #182, #310, #84 ) ;
#226 = PRESENTATION_LAYER_ASSIGNMENT (  '', '', ( #152 ) ) ;
#227 = CARTESIAN_POINT ( 'NONE',  ( 0.0000000000000000000, 0.0000000000000000000, 0.6250000000000000000 ) ) ;
#228 = ADVANCED_FACE ( 'NONE', ( #295 ), #314, .T. ) ;
#229 = ORIENTED_EDGE ( 'NONE', *, *, #183, .T. ) ;
#230 = AXIS2_PLACEMENT_3D ( 'NONE', #265, #233, #16 ) ;
#231 = LINE ( 'NONE', #14, #7 ) ;
#232 = VECTOR ( 'NONE', #251, 39.37007874015748143 ) ;
#233 = DIRECTION ( 'NONE',  ( -0.0000000000000000000, 0.0000000000000000000, -1.000000000000000000 ) ) ;
#234 = DIRECTION ( 'NONE',  ( -0.0000000000000000000, -0.0000000000000000000, -1.000000000000000000 ) ) ;
#235 = FACE_OUTER_BOUND ( 'NONE', #277, .T. ) ;
#236 = ORIENTED_EDGE ( 'NONE', *, *, #54, .F. ) ;
#237 = SURFACE_STYLE_USAGE ( .BOTH. , #297 ) ;
#238 = DIRECTION ( 'NONE',  ( -0.0000000000000000000, -0.0000000000000000000, -1.000000000000000000 ) ) ;
#239 = CARTESIAN_POINT ( 'NONE',  ( -0.007499999999999999722, 9.184850993605147975E-19, 1.707404996040164512E-17 ) ) ;
#240 = PRODUCT_DEFINITION_SHAPE ( 'NONE', 'NONE',  #91 ) ;
#241 = CARTESIAN_POINT ( 'NONE',  ( 0.0000000000000000000, 0.0000000000000000000, 0.08619999999999966578 ) ) ;
#242 = PRESENTATION_LAYER_ASSIGNMENT (  '', '', ( #274 ) ) ;
#243 = EDGE_CURVE ( 'NONE', #306, #173, #136, .T. ) ;
#244 = VECTOR ( 'NONE', #74, 39.37007874015748143 ) ;
#245 = DIRECTION ( 'NONE',  ( -0.0000000000000000000, -0.0000000000000000000, -1.000000000000000000 ) ) ;
#246 = EDGE_LOOP ( 'NONE', ( #105, #250, #271, #199 ) ) ;
#247 = ORIENTED_EDGE ( 'NONE', *, *, #328, .F. ) ;
#248 = EDGE_LOOP ( 'NONE', ( #222, #58 ) ) ;
#249 = APPLICATION_PROTOCOL_DEFINITION ( 'draft international standard', 'automotive_design', 1998, #190 ) ;
#250 = ORIENTED_EDGE ( 'NONE', *, *, #160, .F. ) ;
#251 = DIRECTION ( 'NONE',  ( -0.0000000000000000000, -0.0000000000000000000, -1.000000000000000000 ) ) ;
#252 =( LENGTH_UNIT ( ) NAMED_UNIT ( * ) SI_UNIT ( $, .METRE. ) );
#253 = VERTEX_POINT ( 'NONE', #325 ) ;
#254 = EDGE_CURVE ( 'NONE', #121, #167, #21, .T. ) ;
#255 = DIRECTION ( 'NONE',  ( -0.0000000000000000000, -0.0000000000000000000, -1.000000000000000000 ) ) ;
#256 = SHAPE_DEFINITION_REPRESENTATION ( #240, #143 ) ;
#257 = CARTESIAN_POINT ( 'NONE',  ( 0.0000000000000000000, 0.0000000000000000000, 0.6250000000000000000 ) ) ;
#258 =( NAMED_UNIT ( * ) SI_UNIT ( $, .STERADIAN. ) SOLID_ANGLE_UNIT ( ) );
#259 = AXIS2_PLACEMENT_3D ( 'NONE', #272, #51, #215 ) ;
#260 = CARTESIAN_POINT ( 'NONE',  ( -0.09370000000000004714, 0.0000000000000000000, 0.0000000000000000000 ) ) ;
#261 = MECHANICAL_DESIGN_GEOMETRIC_PRESENTATION_REPRESENTATION (  '', ( #274 ), #195 ) ;
#262 = AXIS2_PLACEMENT_3D ( 'NONE', #48, #73, #27 ) ;
#263 = VECTOR ( 'NONE', #23, 39.37007874015748143 ) ;
#264 = FACE_BOUND ( 'NONE', #85, .T. ) ;
#265 = CARTESIAN_POINT ( 'NONE',  ( 0.09370000000000008877, 0.0000000000000000000, 0.6250000000000000000 ) ) ;
#266 = DIRECTION ( 'NONE',  ( -1.000000000000000000, 0.0000000000000000000, 0.0000000000000000000 ) ) ;
#267 = EDGE_LOOP ( 'NONE', ( #83, #197, #247, #313 ) ) ;
#268 = CYLINDRICAL_SURFACE ( 'NONE', #52, 0.09375000000000001388 ) ;
#269 = CARTESIAN_POINT ( 'NONE',  ( 0.09375000000000001388, 1.148106374200643863E-17, 0.6250000000000000000 ) ) ;
#270 = ADVANCED_FACE ( 'NONE', ( #235 ), #268, .T. ) ;
#271 = ORIENTED_EDGE ( 'NONE', *, *, #138, .T. ) ;
#272 = CARTESIAN_POINT ( 'NONE',  ( 0.0000000000000000000, 0.0000000000000000000, 1.707404996040164512E-17 ) ) ;
#273 = ORIENTED_EDGE ( 'NONE', *, *, #5, .T. ) ;
#274 = STYLED_ITEM ( 'NONE', ( #193 ), #218 ) ;
#275 = ORIENTED_EDGE ( 'NONE', *, *, #15, .T. ) ;
#276 = ORIENTED_EDGE ( 'NONE', *, *, #254, .F. ) ;
#277 = EDGE_LOOP ( 'NONE', ( #185, #229, #150, #94 ) ) ;
#278 = ORIENTED_EDGE ( 'NONE', *, *, #285, .T. ) ;
#279 = CARTESIAN_POINT ( 'NONE',  ( -0.09370000000000008877, 0.0000000000000000000, 0.6250000000000000000 ) ) ;
#280 = VERTEX_POINT ( 'NONE', #79 ) ;
#281 = CIRCLE ( 'NONE', #60, 0.07874999999999980627 ) ;
#282 = CARTESIAN_POINT ( 'NONE',  ( 0.09370000000000004714, 1.147494050801070527E-17, 0.0000000000000000000 ) ) ;
#283 = SURFACE_STYLE_FILL_AREA ( #34 ) ;
#284 = UNCERTAINTY_MEASURE_WITH_UNIT (LENGTH_MEASURE( 1.000000000000000082E-05 ), #110, 'distance_accuracy_value', 'NONE');
#285 = EDGE_CURVE ( 'NONE', #320, #253, #209, .T. ) ;
#286 = CARTESIAN_POINT ( 'NONE',  ( 0.0000000000000000000, 0.0000000000000000000, 1.707404996040164512E-17 ) ) ;
#287 = FILL_AREA_STYLE_COLOUR ( '', #36 ) ;
#288 = AXIS2_PLACEMENT_3D ( 'NONE', #200, #59, #86 ) ;
#289 = CARTESIAN_POINT ( 'NONE',  ( 0.09375000000000001388, 1.148106374200643863E-17, 1.984999999999999654 ) ) ;
#290 = CARTESIAN_POINT ( 'NONE',  ( 0.0000000000000000000, 0.0000000000000000000, 0.6250000000000000000 ) ) ;
#291 = ORIENTED_EDGE ( 'NONE', *, *, #39, .F. ) ;
#292 = CARTESIAN_POINT ( 'NONE',  ( -0.09375000000000001388, 0.0000000000000000000, 2.000000000000000000 ) ) ;
#293 = CONICAL_SURFACE ( 'NONE', #322, 0.07874999999999980627, 0.7853981633974466137 ) ;
#294 = DIRECTION ( 'NONE',  ( -0.0000000000000000000, -0.0000000000000000000, -1.000000000000000000 ) ) ;
#295 = FACE_OUTER_BOUND ( 'NONE', #11, .T. ) ;
#296 = CYLINDRICAL_SURFACE ( 'NONE', #307, 0.09370000000000004714 ) ;
#297 = SURFACE_SIDE_STYLE ('',( #166 ) ) ;
#298 = ORIENTED_EDGE ( 'NONE', *, *, #129, .T. ) ;
#299 = CARTESIAN_POINT ( 'NONE',  ( 0.0000000000000000000, 0.0000000000000000000, 2.000000000000000000 ) ) ;
#300 = DIRECTION ( 'NONE',  ( -1.000000000000000000, 0.0000000000000000000, 0.0000000000000000000 ) ) ;
#301 = AXIS2_PLACEMENT_3D ( 'NONE', #227, #156, #202 ) ;
#302 = SURFACE_STYLE_USAGE ( .BOTH. , #221 ) ;
#303 = CYLINDRICAL_SURFACE ( 'NONE', #93, 0.09370000000000004714 ) ;
#304 = ADVANCED_FACE ( 'NONE', ( #46 ), #293, .T. ) ;
#305 = DIRECTION ( 'NONE',  ( -1.000000000000000000, 0.0000000000000000000, 0.0000000000000000000 ) ) ;
#306 = VERTEX_POINT ( 'NONE', #168 ) ;
#307 = AXIS2_PLACEMENT_3D ( 'NONE', #49, #238, #213 ) ;
#308 = ADVANCED_FACE ( 'NONE', ( #119 ), #203, .T. ) ;
#309 = AXIS2_PLACEMENT_3D ( 'NONE', #299, #78, #30 ) ;
#310 = DIRECTION ( 'NONE',  ( -0.0000000000000000000, -0.0000000000000000000, -1.000000000000000000 ) ) ;
#311 = PLANE ( 'NONE',  #61 ) ;
#312 = UNCERTAINTY_MEASURE_WITH_UNIT (LENGTH_MEASURE( 1.000000000000000082E-05 ), #28, 'distance_accuracy_value', 'NONE');
#313 = ORIENTED_EDGE ( 'NONE', *, *, #138, .F. ) ;
#314 = CYLINDRICAL_SURFACE ( 'NONE', #214, 0.09375000000000001388 ) ;
#315 = EDGE_CURVE ( 'NONE', #140, #95, #191, .T. ) ;
#316 = CARTESIAN_POINT ( 'NONE',  ( 0.0000000000000000000, 0.0000000000000000000, 2.000000000000000000 ) ) ;
#317 = EDGE_CURVE ( 'NONE', #6, #253, #71, .T. ) ;
#318 = DIRECTION ( 'NONE',  ( 0.7071067811865490160, 0.0000000000000000000, 0.7071067811865460184 ) ) ;
#319 = EDGE_LOOP ( 'NONE', ( #211, #169 ) ) ;
#320 = VERTEX_POINT ( 'NONE', #210 ) ;
#321 = CARTESIAN_POINT ( 'NONE',  ( 0.0000000000000000000, 0.0000000000000000000, 2.000000000000000000 ) ) ;
#322 = AXIS2_PLACEMENT_3D ( 'NONE', #321, #120, #18 ) ;
#323 = AXIS2_PLACEMENT_3D ( 'NONE', #217, #57, #128 ) ;
#324 = PRODUCT ( 'Micro_DM-187-290', 'Micro_DM-187-290', '', ( #127 ) ) ;
#325 = CARTESIAN_POINT ( 'NONE',  ( -0.09375000000000001388, 0.0000000000000000000, 0.6250000000000000000 ) ) ;
#326 = ORIENTED_EDGE ( 'NONE', *, *, #77, .F. ) ;
#327 =( NAMED_UNIT ( * ) PLANE_ANGLE_UNIT ( ) SI_UNIT ( $, .RADIAN. ) );
#328 = EDGE_CURVE ( 'NONE', #320, #145, #102, .T. ) ;
#329 = FACE_OUTER_BOUND ( 'NONE', #33, .T. ) ;
ENDSEC;
END-ISO-10303-21;
