ISO-10303-21;
HEADER;
FILE_DESCRIPTION (( 'STEP AP214' ),
    '1' );
FILE_NAME ('Micro_SFLM-020-40.STEP',
    '2021-09-02T05:15:25',
    ( '' ),
    ( '' ),
    'SwSTEP 2.0',
    'SolidWorks 2020',
    '' );
FILE_SCHEMA (( 'AUTOMOTIVE_DESIGN' ));
ENDSEC;

DATA;
#1 = ADVANCED_BREP_SHAPE_REPRESENTATION ( 'Micro_SFLM-020-40', ( #290, #121 ), #76 ) ;
#2 = DIRECTION ( 'NONE',  ( -1.000000000000000000, 0.0000000000000000000, 0.0000000000000000000 ) ) ;
#3 = VECTOR ( 'NONE', #208, 39.37007874015748143 ) ;
#4 = CARTESIAN_POINT ( 'NONE',  ( -0.03933062999999999837, 0.0000000000000000000, 4.816613013794885432E-18 ) ) ;
#5 = EDGE_LOOP ( 'NONE', ( #126, #241, #112, #9 ) ) ;
#6 = ORIENTED_EDGE ( 'NONE', *, *, #16, .F. ) ;
#7 = CIRCLE ( 'NONE', #273, 0.04405499999999960142 ) ;
#8 = CIRCLE ( 'NONE', #158, 0.04405499999999960142 ) ;
#9 = ORIENTED_EDGE ( 'NONE', *, *, #39, .F. ) ;
#10 = VERTEX_POINT ( 'NONE', #266 ) ;
#11 = ADVANCED_FACE ( 'NONE', ( #61 ), #150, .T. ) ;
#12 =( LENGTH_UNIT ( ) NAMED_UNIT ( * ) SI_UNIT ( $, .METRE. ) );
#13 = ORIENTED_EDGE ( 'NONE', *, *, #186, .F. ) ;
#14 = AXIS2_PLACEMENT_3D ( 'NONE', #82, #294, #274 ) ;
#15 =( NAMED_UNIT ( * ) PLANE_ANGLE_UNIT ( ) SI_UNIT ( $, .RADIAN. ) );
#16 = EDGE_CURVE ( 'NONE', #195, #283, #169, .T. ) ;
#17 = AXIS2_PLACEMENT_3D ( 'NONE', #261, #124, #276 ) ;
#18 = COLOUR_RGB ( '',0.7921568627450980005, 0.8196078431372548767, 0.9333333333333333481 ) ;
#19 = DIRECTION ( 'NONE',  ( 1.224646799147353207E-16, 0.0000000000000000000, 1.000000000000000000 ) ) ;
#20 = ADVANCED_FACE ( 'NONE', ( #175 ), #284, .T. ) ;
#21 = SURFACE_SIDE_STYLE ('',( #258 ) ) ;
#22 = CARTESIAN_POINT ( 'NONE',  ( 0.05905500000000010741, 7.232151672364707748E-18, 0.6630434609844124694 ) ) ;
#23 = DIRECTION ( 'NONE',  ( 0.0000000000000000000, 0.0000000000000000000, 1.000000000000000000 ) ) ;
#24 = CARTESIAN_POINT ( 'NONE',  ( -0.03933062999999992898, 4.816613013794885432E-18, 0.5511810000000000320 ) ) ;
#25 = CARTESIAN_POINT ( 'NONE',  ( 0.05905500000000001720, 7.232151672364695422E-18, 2.937755999999999368 ) ) ;
#26 = LINE ( 'NONE', #117, #95 ) ;
#27 = FACE_OUTER_BOUND ( 'NONE', #108, .T. ) ;
#28 = DIRECTION ( 'NONE',  ( 0.0000000000000000000, 0.0000000000000000000, -1.000000000000000000 ) ) ;
#29 = ADVANCED_FACE ( 'NONE', ( #200 ), #291, .T. ) ;
#30 = ORIENTED_EDGE ( 'NONE', *, *, #132, .T. ) ;
#31 = EDGE_LOOP ( 'NONE', ( #131, #83, #168, #221 ) ) ;
#32 = ORIENTED_EDGE ( 'NONE', *, *, #281, .F. ) ;
#33 = VECTOR ( 'NONE', #256, 39.37007874015748143 ) ;
#34 = MECHANICAL_DESIGN_GEOMETRIC_PRESENTATION_REPRESENTATION (  '', ( #229 ), #202 ) ;
#35 = FILL_AREA_STYLE_COLOUR ( '', #18 ) ;
#36 = ORIENTED_EDGE ( 'NONE', *, *, #220, .T. ) ;
#37 = CLOSED_SHELL ( 'NONE', ( #40, #189, #246, #29, #113, #222, #137, #20, #11, #292 ) ) ;
#38 = ORIENTED_EDGE ( 'NONE', *, *, #107, .T. ) ;
#39 = EDGE_CURVE ( 'NONE', #283, #196, #144, .T. ) ;
#40 = ADVANCED_FACE ( 'NONE', ( #297 ), #214, .T. ) ;
#41 = DIRECTION ( 'NONE',  ( 1.224646799147353207E-16, 0.0000000000000000000, 1.000000000000000000 ) ) ;
#42 = DIRECTION ( 'NONE',  ( 0.0000000000000000000, 0.0000000000000000000, -1.000000000000000000 ) ) ;
#43 = CIRCLE ( 'NONE', #14, 0.03933062999999999837 ) ;
#44 = CARTESIAN_POINT ( 'NONE',  ( 0.0000000000000000000, 0.0000000000000000000, 2.937755999999999368 ) ) ;
#45 =( NAMED_UNIT ( * ) SI_UNIT ( $, .STERADIAN. ) SOLID_ANGLE_UNIT ( ) );
#46 = LINE ( 'NONE', #99, #210 ) ;
#47 = APPLICATION_CONTEXT ( 'automotive_design' ) ;
#48 = LINE ( 'NONE', #123, #75 ) ;
#49 = CARTESIAN_POINT ( 'NONE',  ( 6.750020474008372993E-17, 0.0000000000000000000, 0.5511810000000000320 ) ) ;
#50 = CARTESIAN_POINT ( 'NONE',  ( 0.0000000000000000000, 0.0000000000000000000, 2.952755999999999936 ) ) ;
#51 = AXIS2_PLACEMENT_3D ( 'NONE', #184, #143, #227 ) ;
#52 = AXIS2_PLACEMENT_3D ( 'NONE', #138, #23, #298 ) ;
#53 = FILL_AREA_STYLE_COLOUR ( '', #67 ) ;
#54 = DIRECTION ( 'NONE',  ( 1.000000000000000000, 0.0000000000000000000, 0.0000000000000000000 ) ) ;
#55 = EDGE_CURVE ( 'NONE', #103, #85, #243, .T. ) ;
#56 = LINE ( 'NONE', #199, #226 ) ;
#57 = VERTEX_POINT ( 'NONE', #109 ) ;
#58 = EDGE_LOOP ( 'NONE', ( #147, #146, #171, #78 ) ) ;
#59 = ORIENTED_EDGE ( 'NONE', *, *, #39, .T. ) ;
#60 = EDGE_CURVE ( 'NONE', #10, #283, #56, .T. ) ;
#61 = FACE_OUTER_BOUND ( 'NONE', #58, .T. ) ;
#62 = EDGE_LOOP ( 'NONE', ( #219, #38 ) ) ;
#63 = EDGE_CURVE ( 'NONE', #280, #195, #278, .T. ) ;
#64 =( NAMED_UNIT ( * ) SI_UNIT ( $, .STERADIAN. ) SOLID_ANGLE_UNIT ( ) );
#65 = CARTESIAN_POINT ( 'NONE',  ( 0.0000000000000000000, 0.0000000000000000000, 0.0000000000000000000 ) ) ;
#66 = AXIS2_PLACEMENT_3D ( 'NONE', #136, #122, #206 ) ;
#67 = COLOUR_RGB ( '',0.7921568627450980005, 0.8196078431372548767, 0.9333333333333333481 ) ;
#68 = CARTESIAN_POINT ( 'NONE',  ( 6.750020474008372993E-17, 0.0000000000000000000, 0.5511810000000000320 ) ) ;
#69 = EDGE_CURVE ( 'NONE', #85, #103, #43, .T. ) ;
#70 = CARTESIAN_POINT ( 'NONE',  ( -0.03933062999999992898, 6.024382343079789657E-18, 0.5511810000000000320 ) ) ;
#71 = CARTESIAN_POINT ( 'NONE',  ( 0.0000000000000000000, 0.0000000000000000000, 2.952755999999999936 ) ) ;
#72 = SURFACE_STYLE_USAGE ( .BOTH. , #21 ) ;
#73 = EDGE_CURVE ( 'NONE', #195, #129, #48, .T. ) ;
#74 = PLANE ( 'NONE',  #17 ) ;
#75 = VECTOR ( 'NONE', #259, 39.37007874015748143 ) ;
#76 =( GEOMETRIC_REPRESENTATION_CONTEXT ( 3 ) GLOBAL_UNCERTAINTY_ASSIGNED_CONTEXT ( ( #251 ) ) GLOBAL_UNIT_ASSIGNED_CONTEXT ( ( #88, #15, #152 ) ) REPRESENTATION_CONTEXT ( 'NONE', 'WORKASPACE' ) );
#77 = DIRECTION ( 'NONE',  ( -1.224646799147353207E-16, -0.0000000000000000000, -1.000000000000000000 ) ) ;
#78 = ORIENTED_EDGE ( 'NONE', *, *, #69, .F. ) ;
#79 = DIRECTION ( 'NONE',  ( 0.7071067811865384689, 8.659560562354821925E-17, -0.7071067811865565655 ) ) ;
#80 = CIRCLE ( 'NONE', #197, 0.03933062999999999837 ) ;
#81 = EDGE_LOOP ( 'NONE', ( #149, #32, #287, #6 ) ) ;
#82 = CARTESIAN_POINT ( 'NONE',  ( 5.898649710075393742E-34, 0.0000000000000000000, 4.816613013794885432E-18 ) ) ;
#83 = ORIENTED_EDGE ( 'NONE', *, *, #167, .T. ) ;
#84 = APPLICATION_PROTOCOL_DEFINITION ( 'draft international standard', 'automotive_design', 1998, #282 ) ;
#85 = VERTEX_POINT ( 'NONE', #93 ) ;
#86 = SURFACE_STYLE_USAGE ( .BOTH. , #225 ) ;
#87 = AXIS2_PLACEMENT_3D ( 'NONE', #162, #28, #145 ) ;
#88 =( CONVERSION_BASED_UNIT ( 'INCH', #111 ) LENGTH_UNIT ( ) NAMED_UNIT ( #140 ) );
#89 = DIRECTION ( 'NONE',  ( 1.000000000000000000, 0.0000000000000000000, 0.0000000000000000000 ) ) ;
#90 = CONICAL_SURFACE ( 'NONE', #242, 0.04405499999999960142, 0.7853981633974355114 ) ;
#91 = STYLED_ITEM ( 'NONE', ( #172 ), #1 ) ;
#92 = FACE_OUTER_BOUND ( 'NONE', #134, .T. ) ;
#93 = CARTESIAN_POINT ( 'NONE',  ( 0.03933062999999999837, 4.816613013794885432E-18, 0.0000000000000000000 ) ) ;
#94 = FACE_OUTER_BOUND ( 'NONE', #265, .T. ) ;
#95 = VECTOR ( 'NONE', #96, 39.37007874015748143 ) ;
#96 = DIRECTION ( 'NONE',  ( 0.1736481776669313581, 0.0000000000000000000, 0.9848077530122077983 ) ) ;
#97 = CARTESIAN_POINT ( 'NONE',  ( 0.0000000000000000000, 0.0000000000000000000, 2.952755999999999936 ) ) ;
#98 = LINE ( 'NONE', #24, #114 ) ;
#99 = CARTESIAN_POINT ( 'NONE',  ( 0.03933062999999999837, 4.816613013794885432E-18, -4.816613013794885432E-18 ) ) ;
#100 = LENGTH_MEASURE_WITH_UNIT ( LENGTH_MEASURE( 0.02539999999999999897 ), #161 );
#101 = AXIS2_PLACEMENT_3D ( 'NONE', #270, #41, #154 ) ;
#102 = DIRECTION ( 'NONE',  ( 1.000000000000000000, 0.0000000000000000000, 0.0000000000000000000 ) ) ;
#103 = VERTEX_POINT ( 'NONE', #204 ) ;
#104 = AXIS2_PLACEMENT_3D ( 'NONE', #68, #19, #102 ) ;
#105 = ORIENTED_EDGE ( 'NONE', *, *, #213, .T. ) ;
#106 = ORIENTED_EDGE ( 'NONE', *, *, #279, .F. ) ;
#107 = EDGE_CURVE ( 'NONE', #280, #10, #7, .T. ) ;
#108 = EDGE_LOOP ( 'NONE', ( #248, #193, #13, #170 ) ) ;
#109 = CARTESIAN_POINT ( 'NONE',  ( 0.03933063000000006082, 0.0000000000000000000, 0.5511810000000000320 ) ) ;
#110 =( NAMED_UNIT ( * ) PLANE_ANGLE_UNIT ( ) SI_UNIT ( $, .RADIAN. ) );
#111 = LENGTH_MEASURE_WITH_UNIT ( LENGTH_MEASURE( 0.02539999999999999897 ), #12 );
#112 = ORIENTED_EDGE ( 'NONE', *, *, #119, .F. ) ;
#113 = ADVANCED_FACE ( 'NONE', ( #92 ), #203, .T. ) ;
#114 = VECTOR ( 'NONE', #180, 39.37007874015747433 ) ;
#115 = CIRCLE ( 'NONE', #267, 0.05905500000000001720 ) ;
#116 = DIRECTION ( 'NONE',  ( 1.000000000000000000, 0.0000000000000000000, 0.0000000000000000000 ) ) ;
#117 = CARTESIAN_POINT ( 'NONE',  ( 0.03933063000000006082, 0.0000000000000000000, 0.5511810000000000320 ) ) ;
#118 = CARTESIAN_POINT ( 'NONE',  ( -0.05905500000000001720, 0.0000000000000000000, 2.952755999999999936 ) ) ;
#119 = EDGE_CURVE ( 'NONE', #196, #129, #115, .T. ) ;
#120 = LINE ( 'NONE', #4, #3 ) ;
#121 = AXIS2_PLACEMENT_3D ( 'NONE', #65, #216, #192 ) ;
#122 = DIRECTION ( 'NONE',  ( -1.224646799147353207E-16, -0.0000000000000000000, -1.000000000000000000 ) ) ;
#123 = CARTESIAN_POINT ( 'NONE',  ( 0.05905500000000001720, 7.232151672364695422E-18, 2.952755999999999936 ) ) ;
#124 = DIRECTION ( 'NONE',  ( 0.0000000000000000000, 0.0000000000000000000, 1.000000000000000000 ) ) ;
#125 = CONICAL_SURFACE ( 'NONE', #104, 0.03933062999999999837, 0.1745329251994338637 ) ;
#126 = ORIENTED_EDGE ( 'NONE', *, *, #186, .T. ) ;
#127 = CARTESIAN_POINT ( 'NONE',  ( 0.0000000000000000000, 0.0000000000000000000, 0.0000000000000000000 ) ) ;
#128 = ORIENTED_EDGE ( 'NONE', *, *, #55, .T. ) ;
#129 = VERTEX_POINT ( 'NONE', #22 ) ;
#130 = SURFACE_STYLE_FILL_AREA ( #194 ) ;
#131 = ORIENTED_EDGE ( 'NONE', *, *, #213, .F. ) ;
#132 = EDGE_CURVE ( 'NONE', #57, #129, #26, .T. ) ;
#133 =( CONVERSION_BASED_UNIT ( 'INCH', #247 ) LENGTH_UNIT ( ) NAMED_UNIT ( #166 ) );
#134 = EDGE_LOOP ( 'NONE', ( #190, #174, #59, #106 ) ) ;
#135 = DIMENSIONAL_EXPONENTS ( 1.000000000000000000, 0.0000000000000000000, 0.0000000000000000000, 0.0000000000000000000, 0.0000000000000000000, 0.0000000000000000000, 0.0000000000000000000 ) ;
#136 = CARTESIAN_POINT ( 'NONE',  ( 8.119940521901437606E-17, 0.0000000000000000000, 0.6630434609844124694 ) ) ;
#137 = ADVANCED_FACE ( 'NONE', ( #299 ), #90, .T. ) ;
#138 = CARTESIAN_POINT ( 'NONE',  ( 0.0000000000000000000, 0.0000000000000000000, 0.0000000000000000000 ) ) ;
#139 = CARTESIAN_POINT ( 'NONE',  ( 6.750020474008372993E-17, 0.0000000000000000000, 0.5511810000000000320 ) ) ;
#140 = DIMENSIONAL_EXPONENTS ( 1.000000000000000000, 0.0000000000000000000, 0.0000000000000000000, 0.0000000000000000000, 0.0000000000000000000, 0.0000000000000000000, 0.0000000000000000000 ) ;
#141 = DIRECTION ( 'NONE',  ( 0.0000000000000000000, 0.0000000000000000000, 1.000000000000000000 ) ) ;
#142 = AXIS2_PLACEMENT_3D ( 'NONE', #127, #148, #198 ) ;
#143 = DIRECTION ( 'NONE',  ( 0.0000000000000000000, 0.0000000000000000000, -1.000000000000000000 ) ) ;
#144 = LINE ( 'NONE', #118, #33 ) ;
#145 = DIRECTION ( 'NONE',  ( -1.000000000000000000, 0.0000000000000000000, 0.0000000000000000000 ) ) ;
#146 = ORIENTED_EDGE ( 'NONE', *, *, #156, .T. ) ;
#147 = ORIENTED_EDGE ( 'NONE', *, *, #220, .F. ) ;
#148 = DIRECTION ( 'NONE',  ( -1.224646799147353207E-16, -0.0000000000000000000, -1.000000000000000000 ) ) ;
#149 = ORIENTED_EDGE ( 'NONE', *, *, #63, .F. ) ;
#150 = CYLINDRICAL_SURFACE ( 'NONE', #177, 0.03933062999999999837 ) ;
#151 = ORIENTED_EDGE ( 'NONE', *, *, #233, .F. ) ;
#152 =( NAMED_UNIT ( * ) SI_UNIT ( $, .STERADIAN. ) SOLID_ANGLE_UNIT ( ) );
#153 = AXIS2_PLACEMENT_3D ( 'NONE', #139, #232, #2 ) ;
#154 = DIRECTION ( 'NONE',  ( 1.000000000000000000, 0.0000000000000000000, 0.0000000000000000000 ) ) ;
#155 = DIRECTION ( 'NONE',  ( -0.0000000000000000000, -0.0000000000000000000, -1.000000000000000000 ) ) ;
#156 = EDGE_CURVE ( 'NONE', #57, #238, #228, .T. ) ;
#157 = DIRECTION ( 'NONE',  ( -1.000000000000000000, 0.0000000000000000000, 1.224646799147352961E-16 ) ) ;
#158 = AXIS2_PLACEMENT_3D ( 'NONE', #97, #141, #54 ) ;
#159 = DIRECTION ( 'NONE',  ( -1.224646799147353207E-16, -0.0000000000000000000, -1.000000000000000000 ) ) ;
#160 = DIRECTION ( 'NONE',  ( -0.0000000000000000000, -0.0000000000000000000, -1.000000000000000000 ) ) ;
#161 =( LENGTH_UNIT ( ) NAMED_UNIT ( * ) SI_UNIT ( $, .METRE. ) );
#162 = CARTESIAN_POINT ( 'NONE',  ( 0.0000000000000000000, 0.0000000000000000000, 2.952755999999999936 ) ) ;
#163 = AXIS2_PLACEMENT_3D ( 'NONE', #44, #42, #89 ) ;
#164 = PRODUCT_RELATED_PRODUCT_CATEGORY ( 'part', '', ( #250 ) ) ;
#165 = FACE_OUTER_BOUND ( 'NONE', #62, .T. ) ;
#166 = DIMENSIONAL_EXPONENTS ( 1.000000000000000000, 0.0000000000000000000, 0.0000000000000000000, 0.0000000000000000000, 0.0000000000000000000, 0.0000000000000000000, 0.0000000000000000000 ) ;
#167 = EDGE_CURVE ( 'NONE', #238, #196, #98, .T. ) ;
#168 = ORIENTED_EDGE ( 'NONE', *, *, #119, .T. ) ;
#169 = CIRCLE ( 'NONE', #163, 0.05905500000000001720 ) ;
#170 = ORIENTED_EDGE ( 'NONE', *, *, #60, .F. ) ;
#171 = ORIENTED_EDGE ( 'NONE', *, *, #233, .T. ) ;
#172 = PRESENTATION_STYLE_ASSIGNMENT (( #86 ) ) ;
#173 = CIRCLE ( 'NONE', #66, 0.05905500000000001720 ) ;
#174 = ORIENTED_EDGE ( 'NONE', *, *, #16, .T. ) ;
#175 = FACE_OUTER_BOUND ( 'NONE', #269, .T. ) ;
#176 = PRODUCT_DEFINITION ( 'UNKNOWN', '', #244, #224 ) ;
#177 = AXIS2_PLACEMENT_3D ( 'NONE', #245, #289, #253 ) ;
#178 = UNCERTAINTY_MEASURE_WITH_UNIT (LENGTH_MEASURE( 1.000000000000000082E-05 ), #187, 'distance_accuracy_value', 'NONE');
#179 = CARTESIAN_POINT ( 'NONE',  ( 0.0000000000000000000, 0.0000000000000000000, 2.952755999999999936 ) ) ;
#180 = DIRECTION ( 'NONE',  ( -0.1736481776669311639, 2.126576849575783008E-17, 0.9848077530122080203 ) ) ;
#181 = DIRECTION ( 'NONE',  ( -1.224646799147353207E-16, -0.0000000000000000000, -1.000000000000000000 ) ) ;
#182 = PLANE ( 'NONE',  #52 ) ;
#183 = DIRECTION ( 'NONE',  ( -1.000000000000000000, 0.0000000000000000000, 0.0000000000000000000 ) ) ;
#184 = CARTESIAN_POINT ( 'NONE',  ( 0.0000000000000000000, 0.0000000000000000000, 2.937755999999999368 ) ) ;
#185 = DIRECTION ( 'NONE',  ( -1.000000000000000000, 0.0000000000000000000, 0.0000000000000000000 ) ) ;
#186 = EDGE_CURVE ( 'NONE', #283, #195, #191, .T. ) ;
#187 =( CONVERSION_BASED_UNIT ( 'INCH', #100 ) LENGTH_UNIT ( ) NAMED_UNIT ( #135 ) );
#188 = PRESENTATION_LAYER_ASSIGNMENT (  '', '', ( #229 ) ) ;
#189 = ADVANCED_FACE ( 'NONE', ( #271 ), #125, .T. ) ;
#190 = ORIENTED_EDGE ( 'NONE', *, *, #73, .F. ) ;
#191 = CIRCLE ( 'NONE', #51, 0.05905500000000001720 ) ;
#192 = DIRECTION ( 'NONE',  ( 1.000000000000000000, 0.0000000000000000000, 0.0000000000000000000 ) ) ;
#193 = ORIENTED_EDGE ( 'NONE', *, *, #63, .T. ) ;
#194 = FILL_AREA_STYLE ('',( #35 ) ) ;
#195 = VERTEX_POINT ( 'NONE', #25 ) ;
#196 = VERTEX_POINT ( 'NONE', #254 ) ;
#197 = AXIS2_PLACEMENT_3D ( 'NONE', #49, #77, #185 ) ;
#198 = DIRECTION ( 'NONE',  ( -1.000000000000000000, 0.0000000000000000000, 1.224646799147352961E-16 ) ) ;
#199 = CARTESIAN_POINT ( 'NONE',  ( -0.04405499999999960142, 0.0000000000000000000, 2.952755999999999936 ) ) ;
#200 = FACE_OUTER_BOUND ( 'NONE', #5, .T. ) ;
#201 = AXIS2_PLACEMENT_3D ( 'NONE', #179, #155, #252 ) ;
#202 =( GEOMETRIC_REPRESENTATION_CONTEXT ( 3 ) GLOBAL_UNCERTAINTY_ASSIGNED_CONTEXT ( ( #178 ) ) GLOBAL_UNIT_ASSIGNED_CONTEXT ( ( #187, #209, #45 ) ) REPRESENTATION_CONTEXT ( 'NONE', 'WORKASPACE' ) );
#203 = CYLINDRICAL_SURFACE ( 'NONE', #249, 0.05905500000000001720 ) ;
#204 = CARTESIAN_POINT ( 'NONE',  ( -0.03933062999999999837, 0.0000000000000000000, 9.633226027589770864E-18 ) ) ;
#205 = AXIS2_PLACEMENT_3D ( 'NONE', #235, #212, #157 ) ;
#206 = DIRECTION ( 'NONE',  ( 1.000000000000000000, 0.0000000000000000000, 0.0000000000000000000 ) ) ;
#207 = DIRECTION ( 'NONE',  ( 0.0000000000000000000, 0.0000000000000000000, 1.000000000000000000 ) ) ;
#208 = DIRECTION ( 'NONE',  ( -1.224646799147353207E-16, -0.0000000000000000000, -1.000000000000000000 ) ) ;
#209 =( NAMED_UNIT ( * ) PLANE_ANGLE_UNIT ( ) SI_UNIT ( $, .RADIAN. ) );
#210 = VECTOR ( 'NONE', #159, 39.37007874015748143 ) ;
#211 = PRESENTATION_LAYER_ASSIGNMENT (  '', '', ( #91 ) ) ;
#212 = DIRECTION ( 'NONE',  ( -1.224646799147353207E-16, -0.0000000000000000000, -1.000000000000000000 ) ) ;
#213 = EDGE_CURVE ( 'NONE', #238, #57, #80, .T. ) ;
#214 = CYLINDRICAL_SURFACE ( 'NONE', #142, 0.03933062999999999837 ) ;
#215 = ORIENTED_EDGE ( 'NONE', *, *, #167, .F. ) ;
#216 = DIRECTION ( 'NONE',  ( 0.0000000000000000000, 0.0000000000000000000, 1.000000000000000000 ) ) ;
#217 = EDGE_LOOP ( 'NONE', ( #105, #36, #223, #151 ) ) ;
#218 = VECTOR ( 'NONE', #79, 39.37007874015748143 ) ;
#219 = ORIENTED_EDGE ( 'NONE', *, *, #281, .T. ) ;
#220 = EDGE_CURVE ( 'NONE', #57, #85, #46, .T. ) ;
#221 = ORIENTED_EDGE ( 'NONE', *, *, #132, .F. ) ;
#222 = ADVANCED_FACE ( 'NONE', ( #165 ), #74, .T. ) ;
#223 = ORIENTED_EDGE ( 'NONE', *, *, #55, .F. ) ;
#224 = PRODUCT_DEFINITION_CONTEXT ( 'detailed design', #47, 'design' ) ;
#225 = SURFACE_SIDE_STYLE ('',( #130 ) ) ;
#226 = VECTOR ( 'NONE', #286, 39.37007874015748143 ) ;
#227 = DIRECTION ( 'NONE',  ( 1.000000000000000000, 0.0000000000000000000, 0.0000000000000000000 ) ) ;
#228 = CIRCLE ( 'NONE', #153, 0.03933062999999999837 ) ;
#229 = STYLED_ITEM ( 'NONE', ( #236 ), #290 ) ;
#230 = CARTESIAN_POINT ( 'NONE',  ( 0.04405499999999960142, 5.395181473643616524E-18, 2.952755999999999936 ) ) ;
#231 = FILL_AREA_STYLE ('',( #53 ) ) ;
#232 = DIRECTION ( 'NONE',  ( -1.224646799147353207E-16, -0.0000000000000000000, -1.000000000000000000 ) ) ;
#233 = EDGE_CURVE ( 'NONE', #238, #103, #120, .T. ) ;
#234 =( GEOMETRIC_REPRESENTATION_CONTEXT ( 3 ) GLOBAL_UNCERTAINTY_ASSIGNED_CONTEXT ( ( #275 ) ) GLOBAL_UNIT_ASSIGNED_CONTEXT ( ( #133, #110, #64 ) ) REPRESENTATION_CONTEXT ( 'NONE', 'WORKASPACE' ) );
#235 = CARTESIAN_POINT ( 'NONE',  ( 5.898649710075393742E-34, 0.0000000000000000000, 4.816613013794885432E-18 ) ) ;
#236 = PRESENTATION_STYLE_ASSIGNMENT (( #72 ) ) ;
#237 = PRODUCT_DEFINITION_SHAPE ( 'NONE', 'NONE',  #176 ) ;
#238 = VERTEX_POINT ( 'NONE', #70 ) ;
#239 = ORIENTED_EDGE ( 'NONE', *, *, #156, .F. ) ;
#240 = SHAPE_DEFINITION_REPRESENTATION ( #237, #1 ) ;
#241 = ORIENTED_EDGE ( 'NONE', *, *, #73, .T. ) ;
#242 = AXIS2_PLACEMENT_3D ( 'NONE', #50, #277, #183 ) ;
#243 = CIRCLE ( 'NONE', #205, 0.03933062999999999837 ) ;
#244 = PRODUCT_DEFINITION_FORMATION_WITH_SPECIFIED_SOURCE ( 'ANY', '', #250, .NOT_KNOWN. ) ;
#245 = CARTESIAN_POINT ( 'NONE',  ( 0.0000000000000000000, 0.0000000000000000000, 0.0000000000000000000 ) ) ;
#246 = ADVANCED_FACE ( 'NONE', ( #27 ), #296, .T. ) ;
#247 = LENGTH_MEASURE_WITH_UNIT ( LENGTH_MEASURE( 0.02539999999999999897 ), #268 );
#248 = ORIENTED_EDGE ( 'NONE', *, *, #107, .F. ) ;
#249 = AXIS2_PLACEMENT_3D ( 'NONE', #71, #160, #293 ) ;
#250 = PRODUCT ( 'Micro_SFLM-020-40', 'Micro_SFLM-020-40', '', ( #285 ) ) ;
#251 = UNCERTAINTY_MEASURE_WITH_UNIT (LENGTH_MEASURE( 1.000000000000000082E-05 ), #88, 'distance_accuracy_value', 'NONE');
#252 = DIRECTION ( 'NONE',  ( -1.000000000000000000, 0.0000000000000000000, 0.0000000000000000000 ) ) ;
#253 = DIRECTION ( 'NONE',  ( -1.000000000000000000, 0.0000000000000000000, 1.224646799147352961E-16 ) ) ;
#254 = CARTESIAN_POINT ( 'NONE',  ( -0.05905499999999992700, 0.0000000000000000000, 0.6630434609844124694 ) ) ;
#255 = CARTESIAN_POINT ( 'NONE',  ( 8.119940521901437606E-17, 0.0000000000000000000, 0.6630434609844124694 ) ) ;
#256 = DIRECTION ( 'NONE',  ( -0.0000000000000000000, -0.0000000000000000000, -1.000000000000000000 ) ) ;
#257 = DIRECTION ( 'NONE',  ( 1.000000000000000000, 0.0000000000000000000, 0.0000000000000000000 ) ) ;
#258 = SURFACE_STYLE_FILL_AREA ( #231 ) ;
#259 = DIRECTION ( 'NONE',  ( -0.0000000000000000000, -0.0000000000000000000, -1.000000000000000000 ) ) ;
#260 = CARTESIAN_POINT ( 'NONE',  ( 0.04405499999999960142, 6.313666573004155588E-18, 2.952755999999999936 ) ) ;
#261 = CARTESIAN_POINT ( 'NONE',  ( 0.0000000000000000000, 0.0000000000000000000, 2.952755999999999936 ) ) ;
#262 = ORIENTED_EDGE ( 'NONE', *, *, #279, .T. ) ;
#263 = MECHANICAL_DESIGN_GEOMETRIC_PRESENTATION_REPRESENTATION (  '', ( #91 ), #234 ) ;
#264 = APPLICATION_PROTOCOL_DEFINITION ( 'draft international standard', 'automotive_design', 1998, #47 ) ;
#265 = EDGE_LOOP ( 'NONE', ( #128, #288 ) ) ;
#266 = CARTESIAN_POINT ( 'NONE',  ( -0.04405499999999960142, 0.0000000000000000000, 2.952755999999999936 ) ) ;
#267 = AXIS2_PLACEMENT_3D ( 'NONE', #255, #181, #257 ) ;
#268 =( LENGTH_UNIT ( ) NAMED_UNIT ( * ) SI_UNIT ( $, .METRE. ) );
#269 = EDGE_LOOP ( 'NONE', ( #215, #239, #30, #262 ) ) ;
#270 = CARTESIAN_POINT ( 'NONE',  ( 6.750020474008372993E-17, 0.0000000000000000000, 0.5511810000000000320 ) ) ;
#271 = FACE_OUTER_BOUND ( 'NONE', #31, .T. ) ;
#272 = CARTESIAN_POINT ( 'NONE',  ( -0.05905500000000001720, 0.0000000000000000000, 2.937755999999999368 ) ) ;
#273 = AXIS2_PLACEMENT_3D ( 'NONE', #295, #207, #116 ) ;
#274 = DIRECTION ( 'NONE',  ( -1.000000000000000000, 0.0000000000000000000, 1.224646799147352961E-16 ) ) ;
#275 = UNCERTAINTY_MEASURE_WITH_UNIT (LENGTH_MEASURE( 1.000000000000000082E-05 ), #133, 'distance_accuracy_value', 'NONE');
#276 = DIRECTION ( 'NONE',  ( 1.000000000000000000, 0.0000000000000000000, -0.0000000000000000000 ) ) ;
#277 = DIRECTION ( 'NONE',  ( 0.0000000000000000000, 0.0000000000000000000, -1.000000000000000000 ) ) ;
#278 = LINE ( 'NONE', #230, #218 ) ;
#279 = EDGE_CURVE ( 'NONE', #129, #196, #173, .T. ) ;
#280 = VERTEX_POINT ( 'NONE', #260 ) ;
#281 = EDGE_CURVE ( 'NONE', #10, #280, #8, .T. ) ;
#282 = APPLICATION_CONTEXT ( 'automotive_design' ) ;
#283 = VERTEX_POINT ( 'NONE', #272 ) ;
#284 = CONICAL_SURFACE ( 'NONE', #101, 0.03933062999999999837, 0.1745329251994338637 ) ;
#285 = PRODUCT_CONTEXT ( 'NONE', #282, 'mechanical' ) ;
#286 = DIRECTION ( 'NONE',  ( -0.7071067811865384689, 0.0000000000000000000, -0.7071067811865565655 ) ) ;
#287 = ORIENTED_EDGE ( 'NONE', *, *, #60, .T. ) ;
#288 = ORIENTED_EDGE ( 'NONE', *, *, #69, .T. ) ;
#289 = DIRECTION ( 'NONE',  ( -1.224646799147353207E-16, -0.0000000000000000000, -1.000000000000000000 ) ) ;
#290 = MANIFOLD_SOLID_BREP ( 'Cut-Revolve1', #37 ) ;
#291 = CYLINDRICAL_SURFACE ( 'NONE', #201, 0.05905500000000001720 ) ;
#292 = ADVANCED_FACE ( 'NONE', ( #94 ), #182, .F. ) ;
#293 = DIRECTION ( 'NONE',  ( -1.000000000000000000, 0.0000000000000000000, 0.0000000000000000000 ) ) ;
#294 = DIRECTION ( 'NONE',  ( -1.224646799147353207E-16, -0.0000000000000000000, -1.000000000000000000 ) ) ;
#295 = CARTESIAN_POINT ( 'NONE',  ( 0.0000000000000000000, 0.0000000000000000000, 2.952755999999999936 ) ) ;
#296 = CONICAL_SURFACE ( 'NONE', #87, 0.04405499999999960142, 0.7853981633974355114 ) ;
#297 = FACE_OUTER_BOUND ( 'NONE', #217, .T. ) ;
#298 = DIRECTION ( 'NONE',  ( 1.000000000000000000, 0.0000000000000000000, -0.0000000000000000000 ) ) ;
#299 = FACE_OUTER_BOUND ( 'NONE', #81, .T. ) ;
ENDSEC;
END-ISO-10303-21;
