ISO-10303-21;
HEADER;
FILE_DESCRIPTION (( 'STEP AP214' ),
    '1' );
FILE_NAME ('Micro_RMEM-017-2.STEP',
    '2021-09-02T00:12:34',
    ( '' ),
    ( '' ),
    'SwSTEP 2.0',
    'SolidWorks 2020',
    '' );
FILE_SCHEMA (( 'AUTOMOTIVE_DESIGN' ));
ENDSEC;

DATA;
#1 = FACE_OUTER_BOUND ( 'NONE', #161, .T. ) ;
#2 = DIRECTION ( 'NONE',  ( 0.0000000000000000000, 0.0000000000000000000, 1.000000000000000000 ) ) ;
#3 = ORIENTED_EDGE ( 'NONE', *, *, #123, .T. ) ;
#4 = PRODUCT_RELATED_PRODUCT_CATEGORY ( 'part', '', ( #57 ) ) ;
#5 = ORIENTED_EDGE ( 'NONE', *, *, #38, .F. ) ;
#6 = AXIS2_PLACEMENT_3D ( 'NONE', #166, #223, #90 ) ;
#7 = VERTEX_POINT ( 'NONE', #35 ) ;
#8 = DIRECTION ( 'NONE',  ( 0.7071067811865482389, 8.659560562354941486E-17, -0.7071067811865469066 ) ) ;
#9 = EDGE_CURVE ( 'NONE', #262, #134, #32, .T. ) ;
#10 = CYLINDRICAL_SURFACE ( 'NONE', #55, 0.03343103549999999757 ) ;
#11 = ORIENTED_EDGE ( 'NONE', *, *, #218, .F. ) ;
#12 = FILL_AREA_STYLE_COLOUR ( '', #135 ) ;
#13 = DIRECTION ( 'NONE',  ( -0.0000000000000000000, -0.0000000000000000000, -1.000000000000000000 ) ) ;
#14 = ADVANCED_FACE ( 'NONE', ( #111 ), #202, .F. ) ;
#15 = LENGTH_MEASURE_WITH_UNIT ( LENGTH_MEASURE( 0.02539999999999999897 ), #33 );
#16 = LINE ( 'NONE', #20, #203 ) ;
#17 = ORIENTED_EDGE ( 'NONE', *, *, #122, .F. ) ;
#18 = ORIENTED_EDGE ( 'NONE', *, *, #190, .F. ) ;
#19 = CIRCLE ( 'NONE', #195, 0.03343103549999999757 ) ;
#20 = CARTESIAN_POINT ( 'NONE',  ( 0.03343103549999999757, 4.094121061725653542E-18, -4.094121061725653542E-18 ) ) ;
#21 = EDGE_CURVE ( 'NONE', #46, #7, #115, .T. ) ;
#22 = FACE_OUTER_BOUND ( 'NONE', #72, .T. ) ;
#23 = ORIENTED_EDGE ( 'NONE', *, *, #192, .T. ) ;
#24 = DIRECTION ( 'NONE',  ( 0.0000000000000000000, 0.0000000000000000000, 1.000000000000000000 ) ) ;
#25 = CARTESIAN_POINT ( 'NONE',  ( -0.03343103549999996982, 4.094121061725653542E-18, 0.2007869999999999933 ) ) ;
#26 = PRODUCT_DEFINITION_SHAPE ( 'NONE', 'NONE',  #184 ) ;
#27 = DIRECTION ( 'NONE',  ( 1.000000000000000000, 0.0000000000000000000, 0.0000000000000000000 ) ) ;
#28 = CARTESIAN_POINT ( 'NONE',  ( 0.05905500000000004496, 7.232151672364700045E-18, 0.3461077240153788148 ) ) ;
#29 = DIRECTION ( 'NONE',  ( 1.000000000000000000, 0.0000000000000000000, 0.0000000000000000000 ) ) ;
#30 = AXIS2_PLACEMENT_3D ( 'NONE', #171, #103, #79 ) ;
#31 =( GEOMETRIC_REPRESENTATION_CONTEXT ( 3 ) GLOBAL_UNCERTAINTY_ASSIGNED_CONTEXT ( ( #226 ) ) GLOBAL_UNIT_ASSIGNED_CONTEXT ( ( #207, #290, #95 ) ) REPRESENTATION_CONTEXT ( 'NONE', 'WORKASPACE' ) );
#32 = LINE ( 'NONE', #105, #88 ) ;
#33 =( LENGTH_UNIT ( ) NAMED_UNIT ( * ) SI_UNIT ( $, .METRE. ) );
#34 = ORIENTED_EDGE ( 'NONE', *, *, #122, .T. ) ;
#35 = CARTESIAN_POINT ( 'NONE',  ( -0.05905500000000000332, 0.0000000000000000000, 1.481062999999999574 ) ) ;
#36 = CIRCLE ( 'NONE', #283, 0.05905500000000000332 ) ;
#37 = MECHANICAL_DESIGN_GEOMETRIC_PRESENTATION_REPRESENTATION (  '', ( #114 ), #237 ) ;
#38 = EDGE_CURVE ( 'NONE', #134, #220, #183, .T. ) ;
#39 = EDGE_LOOP ( 'NONE', ( #11, #85, #17, #157 ) ) ;
#40 = ORIENTED_EDGE ( 'NONE', *, *, #218, .T. ) ;
#41 =( CONVERSION_BASED_UNIT ( 'INCH', #15 ) LENGTH_UNIT ( ) NAMED_UNIT ( #208 ) );
#42 = CARTESIAN_POINT ( 'NONE',  ( -0.04405499999999973326, 0.0000000000000000000, 1.496062999999999921 ) ) ;
#43 = CARTESIAN_POINT ( 'NONE',  ( 0.0000000000000000000, 0.0000000000000000000, 1.496062999999999921 ) ) ;
#44 = CIRCLE ( 'NONE', #142, 0.04405499999999973326 ) ;
#45 = DIRECTION ( 'NONE',  ( -1.224646799147353207E-16, -0.0000000000000000000, -1.000000000000000000 ) ) ;
#46 = VERTEX_POINT ( 'NONE', #205 ) ;
#47 = VECTOR ( 'NONE', #129, 39.37007874015747433 ) ;
#48 = CYLINDRICAL_SURFACE ( 'NONE', #163, 0.03343103549999999757 ) ;
#49 = FILL_AREA_STYLE_COLOUR ( '', #99 ) ;
#50 = DIRECTION ( 'NONE',  ( -1.000000000000000000, 0.0000000000000000000, 1.224646799147353207E-16 ) ) ;
#51 = DIRECTION ( 'NONE',  ( -1.000000000000000000, 0.0000000000000000000, 0.0000000000000000000 ) ) ;
#52 = DIRECTION ( 'NONE',  ( -1.224646799147353207E-16, -0.0000000000000000000, -1.000000000000000000 ) ) ;
#53 = CARTESIAN_POINT ( 'NONE',  ( 0.0000000000000000000, 0.0000000000000000000, 1.496062999999999921 ) ) ;
#54 = ADVANCED_FACE ( 'NONE', ( #265 ), #289, .T. ) ;
#55 = AXIS2_PLACEMENT_3D ( 'NONE', #206, #45, #186 ) ;
#56 = CIRCLE ( 'NONE', #273, 0.05905500000000000332 ) ;
#57 = PRODUCT ( 'Micro_RMEM-017-2', 'Micro_RMEM-017-2', '', ( #294 ) ) ;
#58 = EDGE_LOOP ( 'NONE', ( #259, #180, #68, #200 ) ) ;
#59 = EDGE_LOOP ( 'NONE', ( #23, #40 ) ) ;
#60 = ADVANCED_FACE ( 'NONE', ( #133 ), #263, .T. ) ;
#61 = ORIENTED_EDGE ( 'NONE', *, *, #38, .T. ) ;
#62 = VERTEX_POINT ( 'NONE', #197 ) ;
#63 = ADVANCED_FACE ( 'NONE', ( #217 ), #189, .T. ) ;
#64 = DIRECTION ( 'NONE',  ( -1.224646799147353207E-16, -0.0000000000000000000, -1.000000000000000000 ) ) ;
#65 = VERTEX_POINT ( 'NONE', #297 ) ;
#66 = APPLICATION_PROTOCOL_DEFINITION ( 'draft international standard', 'automotive_design', 1998, #144 ) ;
#67 = DIRECTION ( 'NONE',  ( 1.000000000000000000, 0.0000000000000000000, 0.0000000000000000000 ) ) ;
#68 = ORIENTED_EDGE ( 'NONE', *, *, #21, .T. ) ;
#69 = EDGE_CURVE ( 'NONE', #125, #65, #254, .T. ) ;
#70 = CARTESIAN_POINT ( 'NONE',  ( -0.03343103549999996982, 5.663136367045173712E-18, 0.2007869999999999933 ) ) ;
#71 = SURFACE_STYLE_FILL_AREA ( #253 ) ;
#72 = EDGE_LOOP ( 'NONE', ( #34, #61, #86, #176 ) ) ;
#73 = ADVANCED_FACE ( 'NONE', ( #214 ), #10, .T. ) ;
#74 = DIRECTION ( 'NONE',  ( -0.0000000000000000000, -0.0000000000000000000, -1.000000000000000000 ) ) ;
#75 = LINE ( 'NONE', #234, #229 ) ;
#76 = DIRECTION ( 'NONE',  ( 0.0000000000000000000, 0.0000000000000000000, -1.000000000000000000 ) ) ;
#77 = CIRCLE ( 'NONE', #272, 0.03343103549999999757 ) ;
#78 = AXIS2_PLACEMENT_3D ( 'NONE', #191, #100, #196 ) ;
#79 = DIRECTION ( 'NONE',  ( 1.000000000000000000, 0.0000000000000000000, 0.0000000000000000000 ) ) ;
#80 = CARTESIAN_POINT ( 'NONE',  ( 0.0000000000000000000, 0.0000000000000000000, 1.496062999999999921 ) ) ;
#81 = ORIENTED_EDGE ( 'NONE', *, *, #149, .T. ) ;
#82 = EDGE_CURVE ( 'NONE', #162, #62, #255, .T. ) ;
#83 = AXIS2_PLACEMENT_3D ( 'NONE', #43, #140, #225 ) ;
#84 = PRODUCT_DEFINITION_CONTEXT ( 'detailed design', #144, 'design' ) ;
#85 = ORIENTED_EDGE ( 'NONE', *, *, #9, .T. ) ;
#86 = ORIENTED_EDGE ( 'NONE', *, *, #291, .F. ) ;
#87 = ORIENTED_EDGE ( 'NONE', *, *, #201, .F. ) ;
#88 = VECTOR ( 'NONE', #8, 39.37007874015748143 ) ;
#89 = ORIENTED_EDGE ( 'NONE', *, *, #117, .F. ) ;
#90 = DIRECTION ( 'NONE',  ( 1.000000000000000000, 0.0000000000000000000, 0.0000000000000000000 ) ) ;
#91 = CARTESIAN_POINT ( 'NONE',  ( 0.0000000000000000000, 0.0000000000000000000, 1.496062999999999921 ) ) ;
#92 = APPLICATION_PROTOCOL_DEFINITION ( 'draft international standard', 'automotive_design', 1998, #138 ) ;
#93 = SURFACE_STYLE_FILL_AREA ( #247 ) ;
#94 = CARTESIAN_POINT ( 'NONE',  ( 2.458931568603996074E-17, 0.0000000000000000000, 0.2007869999999999933 ) ) ;
#95 =( NAMED_UNIT ( * ) SI_UNIT ( $, .STERADIAN. ) SOLID_ANGLE_UNIT ( ) );
#96 = CARTESIAN_POINT ( 'NONE',  ( 0.0000000000000000000, 0.0000000000000000000, 1.481062999999999574 ) ) ;
#97 = CIRCLE ( 'NONE', #102, 0.05905500000000000332 ) ;
#98 = DIRECTION ( 'NONE',  ( -1.224646799147353207E-16, -0.0000000000000000000, -1.000000000000000000 ) ) ;
#99 = COLOUR_RGB ( '',0.7921568627450980005, 0.8196078431372548767, 0.9333333333333333481 ) ;
#100 = DIRECTION ( 'NONE',  ( 1.224646799147353207E-16, 0.0000000000000000000, 1.000000000000000000 ) ) ;
#101 = DIRECTION ( 'NONE',  ( 1.000000000000000000, 0.0000000000000000000, 0.0000000000000000000 ) ) ;
#102 = AXIS2_PLACEMENT_3D ( 'NONE', #165, #64, #187 ) ;
#103 = DIRECTION ( 'NONE',  ( 1.224646799147353207E-16, 0.0000000000000000000, 1.000000000000000000 ) ) ;
#104 = DIRECTION ( 'NONE',  ( 1.000000000000000000, 0.0000000000000000000, -0.0000000000000000000 ) ) ;
#105 = CARTESIAN_POINT ( 'NONE',  ( 0.04405499999999973326, 5.395181473643630390E-18, 1.496062999999999921 ) ) ;
#106 = AXIS2_PLACEMENT_3D ( 'NONE', #94, #270, #275 ) ;
#107 = CIRCLE ( 'NONE', #106, 0.03343103549999999757 ) ;
#108 = UNCERTAINTY_MEASURE_WITH_UNIT (LENGTH_MEASURE( 1.000000000000000082E-05 ), #41, 'distance_accuracy_value', 'NONE');
#109 = PRESENTATION_LAYER_ASSIGNMENT (  '', '', ( #148 ) ) ;
#110 = EDGE_LOOP ( 'NONE', ( #261, #156, #293, #87 ) ) ;
#111 = FACE_OUTER_BOUND ( 'NONE', #136, .T. ) ;
#112 = EDGE_LOOP ( 'NONE', ( #89, #81, #285, #249 ) ) ;
#113 = SURFACE_SIDE_STYLE ('',( #93 ) ) ;
#114 = STYLED_ITEM ( 'NONE', ( #143 ), #280 ) ;
#115 = LINE ( 'NONE', #42, #296 ) ;
#116 = DIRECTION ( 'NONE',  ( -1.224646799147353207E-16, -0.0000000000000000000, -1.000000000000000000 ) ) ;
#117 = EDGE_CURVE ( 'NONE', #137, #62, #16, .T. ) ;
#118 = DIRECTION ( 'NONE',  ( -1.000000000000000000, 0.0000000000000000000, 1.224646799147353207E-16 ) ) ;
#119 = ORIENTED_EDGE ( 'NONE', *, *, #123, .F. ) ;
#120 = CONICAL_SURFACE ( 'NONE', #83, 0.04405499999999973326, 0.7853981633974491672 ) ;
#121 = PRESENTATION_LAYER_ASSIGNMENT (  '', '', ( #114 ) ) ;
#122 = EDGE_CURVE ( 'NONE', #7, #134, #36, .T. ) ;
#123 = EDGE_CURVE ( 'NONE', #220, #65, #97, .T. ) ;
#124 = LINE ( 'NONE', #175, #177 ) ;
#125 = VERTEX_POINT ( 'NONE', #70 ) ;
#126 =( CONVERSION_BASED_UNIT ( 'INCH', #233 ) LENGTH_UNIT ( ) NAMED_UNIT ( #145 ) );
#127 = DIMENSIONAL_EXPONENTS ( 1.000000000000000000, 0.0000000000000000000, 0.0000000000000000000, 0.0000000000000000000, 0.0000000000000000000, 0.0000000000000000000, 0.0000000000000000000 ) ;
#128 = DIRECTION ( 'NONE',  ( -0.0000000000000000000, -0.0000000000000000000, -1.000000000000000000 ) ) ;
#129 = DIRECTION ( 'NONE',  ( -0.1736481776669311916, 2.126576849575783316E-17, 0.9848077530122080203 ) ) ;
#130 = CARTESIAN_POINT ( 'NONE',  ( 5.013852253564084895E-34, 0.0000000000000000000, 4.094121061725653542E-18 ) ) ;
#131 = CARTESIAN_POINT ( 'NONE',  ( 0.04405499999999973326, 6.313666573004162521E-18, 1.496062999999999921 ) ) ;
#132 = AXIS2_PLACEMENT_3D ( 'NONE', #53, #210, #276 ) ;
#133 = FACE_OUTER_BOUND ( 'NONE', #58, .T. ) ;
#134 = VERTEX_POINT ( 'NONE', #167 ) ;
#135 = COLOUR_RGB ( '',0.7921568627450980005, 0.8196078431372548767, 0.9333333333333333481 ) ;
#136 = EDGE_LOOP ( 'NONE', ( #282, #178 ) ) ;
#137 = VERTEX_POINT ( 'NONE', #248 ) ;
#138 = APPLICATION_CONTEXT ( 'automotive_design' ) ;
#139 = DIRECTION ( 'NONE',  ( -0.7071067811865482389, 0.0000000000000000000, -0.7071067811865469066 ) ) ;
#140 = DIRECTION ( 'NONE',  ( 0.0000000000000000000, 0.0000000000000000000, -1.000000000000000000 ) ) ;
#141 = ADVANCED_FACE ( 'NONE', ( #244 ), #120, .T. ) ;
#142 = AXIS2_PLACEMENT_3D ( 'NONE', #80, #295, #151 ) ;
#143 = PRESENTATION_STYLE_ASSIGNMENT (( #231 ) ) ;
#144 = APPLICATION_CONTEXT ( 'automotive_design' ) ;
#145 = DIMENSIONAL_EXPONENTS ( 1.000000000000000000, 0.0000000000000000000, 0.0000000000000000000, 0.0000000000000000000, 0.0000000000000000000, 0.0000000000000000000, 0.0000000000000000000 ) ;
#146 = CONICAL_SURFACE ( 'NONE', #78, 0.03343103549999999757, 0.1745329251994338915 ) ;
#147 = CARTESIAN_POINT ( 'NONE',  ( 0.0000000000000000000, 0.0000000000000000000, 1.496062999999999921 ) ) ;
#148 = STYLED_ITEM ( 'NONE', ( #266 ), #286 ) ;
#149 = EDGE_CURVE ( 'NONE', #137, #125, #107, .T. ) ;
#150 = CARTESIAN_POINT ( 'NONE',  ( 2.458931568603996074E-17, 0.0000000000000000000, 0.2007869999999999933 ) ) ;
#151 = DIRECTION ( 'NONE',  ( 1.000000000000000000, 0.0000000000000000000, 0.0000000000000000000 ) ) ;
#152 = AXIS2_PLACEMENT_3D ( 'NONE', #147, #279, #101 ) ;
#153 = EDGE_CURVE ( 'NONE', #62, #162, #77, .T. ) ;
#154 = AXIS2_PLACEMENT_3D ( 'NONE', #215, #76, #27 ) ;
#155 = ORIENTED_EDGE ( 'NONE', *, *, #173, .T. ) ;
#156 = ORIENTED_EDGE ( 'NONE', *, *, #69, .T. ) ;
#157 = ORIENTED_EDGE ( 'NONE', *, *, #21, .F. ) ;
#158 = ORIENTED_EDGE ( 'NONE', *, *, #117, .T. ) ;
#159 = DIRECTION ( 'NONE',  ( -0.0000000000000000000, -0.0000000000000000000, -1.000000000000000000 ) ) ;
#160 =( LENGTH_UNIT ( ) NAMED_UNIT ( * ) SI_UNIT ( $, .METRE. ) );
#161 = EDGE_LOOP ( 'NONE', ( #155, #158, #287, #18 ) ) ;
#162 = VERTEX_POINT ( 'NONE', #174 ) ;
#163 = AXIS2_PLACEMENT_3D ( 'NONE', #298, #194, #50 ) ;
#164 = SHAPE_DEFINITION_REPRESENTATION ( #26, #286 ) ;
#165 = CARTESIAN_POINT ( 'NONE',  ( 4.238597163756091761E-17, 0.0000000000000000000, 0.3461077240153788148 ) ) ;
#166 = CARTESIAN_POINT ( 'NONE',  ( 0.0000000000000000000, 0.0000000000000000000, 0.0000000000000000000 ) ) ;
#167 = CARTESIAN_POINT ( 'NONE',  ( 0.05905500000000000332, 7.232151672364695422E-18, 1.481062999999999574 ) ) ;
#168 = SURFACE_SIDE_STYLE ('',( #71 ) ) ;
#169 = EDGE_LOOP ( 'NONE', ( #264, #278, #211, #3 ) ) ;
#170 = CARTESIAN_POINT ( 'NONE',  ( 0.0000000000000000000, 0.0000000000000000000, 1.496062999999999921 ) ) ;
#171 = CARTESIAN_POINT ( 'NONE',  ( 2.458931568603996074E-17, 0.0000000000000000000, 0.2007869999999999933 ) ) ;
#172 =( LENGTH_UNIT ( ) NAMED_UNIT ( * ) SI_UNIT ( $, .METRE. ) );
#173 = EDGE_CURVE ( 'NONE', #125, #137, #19, .T. ) ;
#174 = CARTESIAN_POINT ( 'NONE',  ( -0.03343103549999999757, 0.0000000000000000000, 8.188242123451307083E-18 ) ) ;
#175 = CARTESIAN_POINT ( 'NONE',  ( 0.03343103550000002533, 0.0000000000000000000, 0.2007869999999999933 ) ) ;
#176 = ORIENTED_EDGE ( 'NONE', *, *, #179, .F. ) ;
#177 = VECTOR ( 'NONE', #213, 39.37007874015748143 ) ;
#178 = ORIENTED_EDGE ( 'NONE', *, *, #153, .T. ) ;
#179 = EDGE_CURVE ( 'NONE', #7, #65, #75, .T. ) ;
#180 = ORIENTED_EDGE ( 'NONE', *, *, #192, .F. ) ;
#181 = SURFACE_STYLE_USAGE ( .BOTH. , #113 ) ;
#182 = ADVANCED_FACE ( 'NONE', ( #257 ), #277, .T. ) ;
#183 = LINE ( 'NONE', #222, #219 ) ;
#184 = PRODUCT_DEFINITION ( 'UNKNOWN', '', #284, #84 ) ;
#185 =( NAMED_UNIT ( * ) PLANE_ANGLE_UNIT ( ) SI_UNIT ( $, .RADIAN. ) );
#186 = DIRECTION ( 'NONE',  ( -1.000000000000000000, 0.0000000000000000000, 1.224646799147353207E-16 ) ) ;
#187 = DIRECTION ( 'NONE',  ( 1.000000000000000000, 0.0000000000000000000, 0.0000000000000000000 ) ) ;
#188 = DIRECTION ( 'NONE',  ( -1.224646799147353207E-16, -0.0000000000000000000, -1.000000000000000000 ) ) ;
#189 = CONICAL_SURFACE ( 'NONE', #30, 0.03343103549999999757, 0.1745329251994338915 ) ;
#190 = EDGE_CURVE ( 'NONE', #125, #162, #299, .T. ) ;
#191 = CARTESIAN_POINT ( 'NONE',  ( 2.458931568603996074E-17, 0.0000000000000000000, 0.2007869999999999933 ) ) ;
#192 = EDGE_CURVE ( 'NONE', #46, #262, #267, .T. ) ;
#193 =( NAMED_UNIT ( * ) PLANE_ANGLE_UNIT ( ) SI_UNIT ( $, .RADIAN. ) );
#194 = DIRECTION ( 'NONE',  ( -1.224646799147353207E-16, -0.0000000000000000000, -1.000000000000000000 ) ) ;
#195 = AXIS2_PLACEMENT_3D ( 'NONE', #150, #209, #51 ) ;
#196 = DIRECTION ( 'NONE',  ( 1.000000000000000000, 0.0000000000000000000, 0.0000000000000000000 ) ) ;
#197 = CARTESIAN_POINT ( 'NONE',  ( 0.03343103549999999757, 4.094121061725653542E-18, 0.0000000000000000000 ) ) ;
#198 = UNCERTAINTY_MEASURE_WITH_UNIT (LENGTH_MEASURE( 1.000000000000000082E-05 ), #126, 'distance_accuracy_value', 'NONE');
#199 = AXIS2_PLACEMENT_3D ( 'NONE', #221, #2, #104 ) ;
#200 = ORIENTED_EDGE ( 'NONE', *, *, #250, .F. ) ;
#201 = EDGE_CURVE ( 'NONE', #137, #220, #124, .T. ) ;
#202 = PLANE ( 'NONE',  #199 ) ;
#203 = VECTOR ( 'NONE', #116, 39.37007874015748143 ) ;
#204 = CIRCLE ( 'NONE', #154, 0.05905500000000000332 ) ;
#205 = CARTESIAN_POINT ( 'NONE',  ( -0.04405499999999973326, 0.0000000000000000000, 1.496062999999999921 ) ) ;
#206 = CARTESIAN_POINT ( 'NONE',  ( 0.0000000000000000000, 0.0000000000000000000, 0.0000000000000000000 ) ) ;
#207 =( CONVERSION_BASED_UNIT ( 'INCH', #288 ) LENGTH_UNIT ( ) NAMED_UNIT ( #127 ) );
#208 = DIMENSIONAL_EXPONENTS ( 1.000000000000000000, 0.0000000000000000000, 0.0000000000000000000, 0.0000000000000000000, 0.0000000000000000000, 0.0000000000000000000, 0.0000000000000000000 ) ;
#209 = DIRECTION ( 'NONE',  ( -1.224646799147353207E-16, -0.0000000000000000000, -1.000000000000000000 ) ) ;
#210 = DIRECTION ( 'NONE',  ( 0.0000000000000000000, 0.0000000000000000000, -1.000000000000000000 ) ) ;
#211 = ORIENTED_EDGE ( 'NONE', *, *, #201, .T. ) ;
#212 = MECHANICAL_DESIGN_GEOMETRIC_PRESENTATION_REPRESENTATION (  '', ( #148 ), #31 ) ;
#213 = DIRECTION ( 'NONE',  ( 0.1736481776669313859, 0.0000000000000000000, 0.9848077530122077983 ) ) ;
#214 = FACE_OUTER_BOUND ( 'NONE', #112, .T. ) ;
#215 = CARTESIAN_POINT ( 'NONE',  ( 0.0000000000000000000, 0.0000000000000000000, 1.481062999999999574 ) ) ;
#216 = DIRECTION ( 'NONE',  ( 1.000000000000000000, 0.0000000000000000000, -0.0000000000000000000 ) ) ;
#217 = FACE_OUTER_BOUND ( 'NONE', #110, .T. ) ;
#218 = EDGE_CURVE ( 'NONE', #262, #46, #44, .T. ) ;
#219 = VECTOR ( 'NONE', #13, 39.37007874015748143 ) ;
#220 = VERTEX_POINT ( 'NONE', #28 ) ;
#221 = CARTESIAN_POINT ( 'NONE',  ( 0.0000000000000000000, 0.0000000000000000000, 0.0000000000000000000 ) ) ;
#222 = CARTESIAN_POINT ( 'NONE',  ( 0.05905500000000000332, 7.232151672364695422E-18, 1.496062999999999921 ) ) ;
#223 = DIRECTION ( 'NONE',  ( 0.0000000000000000000, 0.0000000000000000000, 1.000000000000000000 ) ) ;
#224 = CARTESIAN_POINT ( 'NONE',  ( 5.013852253564084895E-34, 0.0000000000000000000, 4.094121061725653542E-18 ) ) ;
#225 = DIRECTION ( 'NONE',  ( -1.000000000000000000, 0.0000000000000000000, 0.0000000000000000000 ) ) ;
#226 = UNCERTAINTY_MEASURE_WITH_UNIT (LENGTH_MEASURE( 1.000000000000000082E-05 ), #207, 'distance_accuracy_value', 'NONE');
#227 =( NAMED_UNIT ( * ) SI_UNIT ( $, .STERADIAN. ) SOLID_ANGLE_UNIT ( ) );
#228 = DIRECTION ( 'NONE',  ( -1.224646799147353207E-16, -0.0000000000000000000, -1.000000000000000000 ) ) ;
#229 = VECTOR ( 'NONE', #74, 39.37007874015748143 ) ;
#230 = DIRECTION ( 'NONE',  ( -1.000000000000000000, 0.0000000000000000000, 1.224646799147353207E-16 ) ) ;
#231 = SURFACE_STYLE_USAGE ( .BOTH. , #168 ) ;
#232 = ADVANCED_FACE ( 'NONE', ( #256 ), #146, .T. ) ;
#233 = LENGTH_MEASURE_WITH_UNIT ( LENGTH_MEASURE( 0.02539999999999999897 ), #172 );
#234 = CARTESIAN_POINT ( 'NONE',  ( -0.05905500000000000332, 0.0000000000000000000, 1.496062999999999921 ) ) ;
#235 = DIRECTION ( 'NONE',  ( -1.000000000000000000, 0.0000000000000000000, 0.0000000000000000000 ) ) ;
#236 =( NAMED_UNIT ( * ) SI_UNIT ( $, .STERADIAN. ) SOLID_ANGLE_UNIT ( ) );
#237 =( GEOMETRIC_REPRESENTATION_CONTEXT ( 3 ) GLOBAL_UNCERTAINTY_ASSIGNED_CONTEXT ( ( #198 ) ) GLOBAL_UNIT_ASSIGNED_CONTEXT ( ( #126, #193, #236 ) ) REPRESENTATION_CONTEXT ( 'NONE', 'WORKASPACE' ) );
#238 = ORIENTED_EDGE ( 'NONE', *, *, #179, .T. ) ;
#239 = ADVANCED_FACE ( 'NONE', ( #22 ), #271, .T. ) ;
#240 = AXIS2_PLACEMENT_3D ( 'NONE', #224, #228, #118 ) ;
#241 = ORIENTED_EDGE ( 'NONE', *, *, #250, .T. ) ;
#242 = AXIS2_PLACEMENT_3D ( 'NONE', #252, #128, #235 ) ;
#243 = DIRECTION ( 'NONE',  ( -1.000000000000000000, 0.0000000000000000000, 0.0000000000000000000 ) ) ;
#244 = FACE_OUTER_BOUND ( 'NONE', #39, .T. ) ;
#245 = VECTOR ( 'NONE', #188, 39.37007874015748143 ) ;
#246 = EDGE_LOOP ( 'NONE', ( #5, #241, #238, #119 ) ) ;
#247 = FILL_AREA_STYLE ('',( #12 ) ) ;
#248 = CARTESIAN_POINT ( 'NONE',  ( 0.03343103550000002533, 0.0000000000000000000, 0.2007869999999999933 ) ) ;
#249 = ORIENTED_EDGE ( 'NONE', *, *, #153, .F. ) ;
#250 = EDGE_CURVE ( 'NONE', #134, #7, #204, .T. ) ;
#251 = AXIS2_PLACEMENT_3D ( 'NONE', #91, #159, #243 ) ;
#252 = CARTESIAN_POINT ( 'NONE',  ( 0.0000000000000000000, 0.0000000000000000000, 1.496062999999999921 ) ) ;
#253 = FILL_AREA_STYLE ('',( #49 ) ) ;
#254 = LINE ( 'NONE', #25, #47 ) ;
#255 = CIRCLE ( 'NONE', #240, 0.03343103549999999757 ) ;
#256 = FACE_OUTER_BOUND ( 'NONE', #169, .T. ) ;
#257 = FACE_OUTER_BOUND ( 'NONE', #59, .T. ) ;
#258 = AXIS2_PLACEMENT_3D ( 'NONE', #170, #24, #216 ) ;
#259 = ORIENTED_EDGE ( 'NONE', *, *, #9, .F. ) ;
#260 = ADVANCED_FACE ( 'NONE', ( #1 ), #48, .T. ) ;
#261 = ORIENTED_EDGE ( 'NONE', *, *, #173, .F. ) ;
#262 = VERTEX_POINT ( 'NONE', #131 ) ;
#263 = CONICAL_SURFACE ( 'NONE', #132, 0.04405499999999973326, 0.7853981633974491672 ) ;
#264 = ORIENTED_EDGE ( 'NONE', *, *, #69, .F. ) ;
#265 = FACE_OUTER_BOUND ( 'NONE', #246, .T. ) ;
#266 = PRESENTATION_STYLE_ASSIGNMENT (( #181 ) ) ;
#267 = CIRCLE ( 'NONE', #152, 0.04405499999999973326 ) ;
#268 = DIRECTION ( 'NONE',  ( 0.0000000000000000000, 0.0000000000000000000, -1.000000000000000000 ) ) ;
#269 =( GEOMETRIC_REPRESENTATION_CONTEXT ( 3 ) GLOBAL_UNCERTAINTY_ASSIGNED_CONTEXT ( ( #108 ) ) GLOBAL_UNIT_ASSIGNED_CONTEXT ( ( #41, #185, #227 ) ) REPRESENTATION_CONTEXT ( 'NONE', 'WORKASPACE' ) );
#270 = DIRECTION ( 'NONE',  ( -1.224646799147353207E-16, -0.0000000000000000000, -1.000000000000000000 ) ) ;
#271 = CYLINDRICAL_SURFACE ( 'NONE', #242, 0.05905500000000000332 ) ;
#272 = AXIS2_PLACEMENT_3D ( 'NONE', #130, #98, #230 ) ;
#273 = AXIS2_PLACEMENT_3D ( 'NONE', #281, #52, #29 ) ;
#274 = CARTESIAN_POINT ( 'NONE',  ( -0.03343103549999999757, 0.0000000000000000000, 4.094121061725653542E-18 ) ) ;
#275 = DIRECTION ( 'NONE',  ( -1.000000000000000000, 0.0000000000000000000, 0.0000000000000000000 ) ) ;
#276 = DIRECTION ( 'NONE',  ( -1.000000000000000000, 0.0000000000000000000, 0.0000000000000000000 ) ) ;
#277 = PLANE ( 'NONE',  #258 ) ;
#278 = ORIENTED_EDGE ( 'NONE', *, *, #149, .F. ) ;
#279 = DIRECTION ( 'NONE',  ( 0.0000000000000000000, 0.0000000000000000000, 1.000000000000000000 ) ) ;
#280 = MANIFOLD_SOLID_BREP ( 'Cut-Revolve1', #292 ) ;
#281 = CARTESIAN_POINT ( 'NONE',  ( 4.238597163756091761E-17, 0.0000000000000000000, 0.3461077240153788148 ) ) ;
#282 = ORIENTED_EDGE ( 'NONE', *, *, #82, .T. ) ;
#283 = AXIS2_PLACEMENT_3D ( 'NONE', #96, #268, #67 ) ;
#284 = PRODUCT_DEFINITION_FORMATION_WITH_SPECIFIED_SOURCE ( 'ANY', '', #57, .NOT_KNOWN. ) ;
#285 = ORIENTED_EDGE ( 'NONE', *, *, #190, .T. ) ;
#286 = ADVANCED_BREP_SHAPE_REPRESENTATION ( 'Micro_RMEM-017-2', ( #280, #6 ), #269 ) ;
#287 = ORIENTED_EDGE ( 'NONE', *, *, #82, .F. ) ;
#288 = LENGTH_MEASURE_WITH_UNIT ( LENGTH_MEASURE( 0.02539999999999999897 ), #160 );
#289 = CYLINDRICAL_SURFACE ( 'NONE', #251, 0.05905500000000000332 ) ;
#290 =( NAMED_UNIT ( * ) PLANE_ANGLE_UNIT ( ) SI_UNIT ( $, .RADIAN. ) );
#291 = EDGE_CURVE ( 'NONE', #65, #220, #56, .T. ) ;
#292 = CLOSED_SHELL ( 'NONE', ( #260, #63, #141, #239, #54, #182, #60, #232, #73, #14 ) ) ;
#293 = ORIENTED_EDGE ( 'NONE', *, *, #291, .T. ) ;
#294 = PRODUCT_CONTEXT ( 'NONE', #138, 'mechanical' ) ;
#295 = DIRECTION ( 'NONE',  ( 0.0000000000000000000, 0.0000000000000000000, 1.000000000000000000 ) ) ;
#296 = VECTOR ( 'NONE', #139, 39.37007874015748143 ) ;
#297 = CARTESIAN_POINT ( 'NONE',  ( -0.05905499999999996169, 0.0000000000000000000, 0.3461077240153788148 ) ) ;
#298 = CARTESIAN_POINT ( 'NONE',  ( 0.0000000000000000000, 0.0000000000000000000, 0.0000000000000000000 ) ) ;
#299 = LINE ( 'NONE', #274, #245 ) ;
ENDSEC;
END-ISO-10303-21;
