ISO-10303-21;
HEADER;
FILE_DESCRIPTION (( 'STEP AP214' ),
    '1' );
FILE_NAME ('59452.STEP',
    '2023-06-30T22:20:16',
    ( '' ),
    ( '' ),
    'SwSTEP 2.0',
    'SolidWorks 2023',
    '' );
FILE_SCHEMA (( 'AUTOMOTIVE_DESIGN' ));
ENDSEC;

DATA;
#1 =( LENGTH_UNIT ( ) NAMED_UNIT ( * ) SI_UNIT ( $, .METRE. ) );
#2 =( NAMED_UNIT ( * ) PLANE_ANGLE_UNIT ( ) SI_UNIT ( $, .RADIAN. ) );
#3 = AXIS2_PLACEMENT_3D ( 'NONE', #197, #256, #231 ) ;
#4 = STYLED_ITEM ( 'NONE', ( #167 ), #72 ) ;
#5 = CIRCLE ( 'NONE', #208, 0.3124999999999999445 ) ;
#6 = CARTESIAN_POINT ( 'NONE',  ( 3.827021247335477694E-17, 0.3125000000000000555, 0.3124999999999999445 ) ) ;
#7 = DIRECTION ( 'NONE',  ( -1.224646799147353207E-16, 1.000000000000000000, -0.000000000000000000 ) ) ;
#8 = ADVANCED_FACE ( 'NONE', ( #278 ), #15, .T. ) ;
#9 = ORIENTED_EDGE ( 'NONE', *, *, #92, .T. ) ;
#10 = MECHANICAL_DESIGN_GEOMETRIC_PRESENTATION_REPRESENTATION (  '', ( #366 ), #322 ) ;
#11 = DIRECTION ( 'NONE',  ( 0.000000000000000000, 0.000000000000000000, -1.000000000000000000 ) ) ;
#12 = ORIENTED_EDGE ( 'NONE', *, *, #63, .F. ) ;
#13 =( GEOMETRIC_REPRESENTATION_CONTEXT ( 3 ) GLOBAL_UNCERTAINTY_ASSIGNED_CONTEXT ( ( #128 ) ) GLOBAL_UNIT_ASSIGNED_CONTEXT ( ( #14, #282, #109 ) ) REPRESENTATION_CONTEXT ( 'NONE', 'WORKASPACE' ) );
#14 =( CONVERSION_BASED_UNIT ( 'INCH', #114 ) LENGTH_UNIT ( ) NAMED_UNIT ( #29 ) );
#15 = CYLINDRICAL_SURFACE ( 'NONE', #338, 0.3124999999999998335 ) ;
#16 =( NAMED_UNIT ( * ) SI_UNIT ( $, .STERADIAN. ) SOLID_ANGLE_UNIT ( ) );
#17 = COLOUR_RGB ( '',0.7921568627450980005, 0.8196078431372548767, 0.9333333333333333481 ) ;
#18 = ORIENTED_EDGE ( 'NONE', *, *, #355, .F. ) ;
#19 = FACE_OUTER_BOUND ( 'NONE', #326, .T. ) ;
#20 = SURFACE_STYLE_FILL_AREA ( #308 ) ;
#21 = DIRECTION ( 'NONE',  ( 0.000000000000000000, 0.000000000000000000, -1.000000000000000000 ) ) ;
#22 = APPLICATION_CONTEXT ( 'automotive_design' ) ;
#23 = UNCERTAINTY_MEASURE_WITH_UNIT (LENGTH_MEASURE( 1.000000000000000082E-05 ), #25, 'distance_accuracy_value', 'NONE');
#24 = DIRECTION ( 'NONE',  ( -1.000000000000000000, -1.224646799147353207E-16, 0.000000000000000000 ) ) ;
#25 =( CONVERSION_BASED_UNIT ( 'INCH', #265 ) LENGTH_UNIT ( ) NAMED_UNIT ( #95 ) );
#26 = AXIS2_PLACEMENT_3D ( 'NONE', #89, #226, #21 ) ;
#27 = PRODUCT_DEFINITION ( 'UNKNOWN', '', #164, #295 ) ;
#28 = DIRECTION ( 'NONE',  ( -1.000000000000000000, 0.000000000000000000, 0.000000000000000000 ) ) ;
#29 = DIMENSIONAL_EXPONENTS ( 1.000000000000000000, 0.000000000000000000, 0.000000000000000000, 0.000000000000000000, 0.000000000000000000, 0.000000000000000000, 0.000000000000000000 ) ;
#30 = UNCERTAINTY_MEASURE_WITH_UNIT (LENGTH_MEASURE( 1.000000000000000082E-05 ), #370, 'distance_accuracy_value', 'NONE');
#31 =( LENGTH_UNIT ( ) NAMED_UNIT ( * ) SI_UNIT ( $, .METRE. ) );
#32 = AXIS2_PLACEMENT_3D ( 'NONE', #218, #327, #79 ) ;
#33 = SURFACE_STYLE_FILL_AREA ( #143 ) ;
#34 = EDGE_CURVE ( 'NONE', #250, #45, #163, .T. ) ;
#35 = MECHANICAL_DESIGN_GEOMETRIC_PRESENTATION_REPRESENTATION (  '', ( #106 ), #293 ) ;
#36 = CARTESIAN_POINT ( 'NONE',  ( 0.3124999999999997224, 3.500000000000000000, 3.827021247335476461E-17 ) ) ;
#37 = EDGE_CURVE ( 'NONE', #309, #250, #311, .T. ) ;
#38 = DIRECTION ( 'NONE',  ( -1.000000000000000000, 0.000000000000000000, 0.000000000000000000 ) ) ;
#39 = CARTESIAN_POINT ( 'NONE',  ( -0.3124999999999994449, 1.250000000000000000, 0.000000000000000000 ) ) ;
#40 = MECHANICAL_DESIGN_GEOMETRIC_PRESENTATION_REPRESENTATION (  '', ( #207 ), #161 ) ;
#41 = COLOUR_RGB ( '',0.7921568627450980005, 0.8196078431372548767, 0.9333333333333333481 ) ;
#42 =( NAMED_UNIT ( * ) SI_UNIT ( $, .STERADIAN. ) SOLID_ANGLE_UNIT ( ) );
#43 = DIRECTION ( 'NONE',  ( 1.000000000000000000, 1.224646799147353207E-16, 0.000000000000000000 ) ) ;
#44 = MANIFOLD_SOLID_BREP ( 'Revolve - Tool Body (Straight Shanked)', #346 ) ;
#45 = VERTEX_POINT ( 'NONE', #170 ) ;
#46 = EDGE_CURVE ( 'NONE', #45, #47, #261, .T. ) ;
#47 = VERTEX_POINT ( 'NONE', #134 ) ;
#48 = SURFACE_STYLE_USAGE ( .BOTH. , #329 ) ;
#49 = ORIENTED_EDGE ( 'NONE', *, *, #212, .T. ) ;
#50 = SURFACE_SIDE_STYLE ('',( #363 ) ) ;
#51 = ORIENTED_EDGE ( 'NONE', *, *, #348, .T. ) ;
#52 = MANIFOLD_SOLID_BREP ( 'Revolve - Cutting Edge', #350 ) ;
#53 = ORIENTED_EDGE ( 'NONE', *, *, #355, .T. ) ;
#54 = LENGTH_MEASURE_WITH_UNIT ( LENGTH_MEASURE( 0.02539999999999999897 ), #339 );
#55 = SURFACE_STYLE_USAGE ( .BOTH. , #50 ) ;
#56 = AXIS2_PLACEMENT_3D ( 'NONE', #117, #264, #372 ) ;
#57 = PRESENTATION_LAYER_ASSIGNMENT (  '', '', ( #366 ) ) ;
#58 = FACE_OUTER_BOUND ( 'NONE', #105, .T. ) ;
#59 = SHAPE_DEFINITION_REPRESENTATION ( #193, #243 ) ;
#60 = FACE_OUTER_BOUND ( 'NONE', #275, .T. ) ;
#61 = CIRCLE ( 'NONE', #186, 0.3124999999999996669 ) ;
#62 = SURFACE_STYLE_USAGE ( .BOTH. , #91 ) ;
#63 = EDGE_CURVE ( 'NONE', #248, #325, #249, .T. ) ;
#64 = DIRECTION ( 'NONE',  ( -1.224646799147353207E-16, 1.000000000000000000, -0.000000000000000000 ) ) ;
#65 = PRESENTATION_STYLE_ASSIGNMENT (( #269 ) ) ;
#66 = DIMENSIONAL_EXPONENTS ( 1.000000000000000000, 0.000000000000000000, 0.000000000000000000, 0.000000000000000000, 0.000000000000000000, 0.000000000000000000, 0.000000000000000000 ) ;
#67 = CARTESIAN_POINT ( 'NONE',  ( 3.827021247335477078E-17, 1.250000000000000000, 0.3124999999999998890 ) ) ;
#68 = DIRECTION ( 'NONE',  ( -0.000000000000000000, -1.000000000000000000, -0.000000000000000000 ) ) ;
#69 = PLANE ( 'NONE',  #233 ) ;
#70 = FILL_AREA_STYLE ('',( #126 ) ) ;
#71 = UNCERTAINTY_MEASURE_WITH_UNIT (LENGTH_MEASURE( 1.000000000000000082E-05 ), #75, 'distance_accuracy_value', 'NONE');
#72 = ADVANCED_FACE ( 'NONE', ( #302 ), #273, .T. ) ;
#73 = PRESENTATION_STYLE_ASSIGNMENT (( #152 ) ) ;
#74 = CIRCLE ( 'NONE', #100, 0.3124999999999996669 ) ;
#75 =( CONVERSION_BASED_UNIT ( 'INCH', #184 ) LENGTH_UNIT ( ) NAMED_UNIT ( #229 ) );
#76 = ORIENTED_EDGE ( 'NONE', *, *, #158, .F. ) ;
#77 =( NAMED_UNIT ( * ) PLANE_ANGLE_UNIT ( ) SI_UNIT ( $, .RADIAN. ) );
#78 = EDGE_LOOP ( 'NONE', ( #133, #107, #328, #115 ) ) ;
#79 = DIRECTION ( 'NONE',  ( 0.000000000000000000, 0.000000000000000000, -1.000000000000000000 ) ) ;
#80 = AXIS2_PLACEMENT_3D ( 'NONE', #135, #169, #24 ) ;
#81 = ORIENTED_EDGE ( 'NONE', *, *, #315, .F. ) ;
#82 =( NAMED_UNIT ( * ) PLANE_ANGLE_UNIT ( ) SI_UNIT ( $, .RADIAN. ) );
#83 = ORIENTED_EDGE ( 'NONE', *, *, #46, .T. ) ;
#84 =( LENGTH_UNIT ( ) NAMED_UNIT ( * ) SI_UNIT ( $, .METRE. ) );
#85 = DIRECTION ( 'NONE',  ( -1.000000000000000000, 0.000000000000000000, 0.000000000000000000 ) ) ;
#86 = EDGE_LOOP ( 'NONE', ( #198, #364, #159, #83 ) ) ;
#87 = ADVANCED_FACE ( 'NONE', ( #305 ), #238, .T. ) ;
#88 =( GEOMETRIC_REPRESENTATION_CONTEXT ( 3 ) GLOBAL_UNCERTAINTY_ASSIGNED_CONTEXT ( ( #342 ) ) GLOBAL_UNIT_ASSIGNED_CONTEXT ( ( #150, #2, #90 ) ) REPRESENTATION_CONTEXT ( 'NONE', 'WORKASPACE' ) );
#89 = CARTESIAN_POINT ( 'NONE',  ( 0.000000000000000000, 0.3125000000000000555, 0.000000000000000000 ) ) ;
#90 =( NAMED_UNIT ( * ) SI_UNIT ( $, .STERADIAN. ) SOLID_ANGLE_UNIT ( ) );
#91 = SURFACE_SIDE_STYLE ('',( #316 ) ) ;
#92 = EDGE_CURVE ( 'NONE', #171, #248, #61, .T. ) ;
#93 = SURFACE_STYLE_USAGE ( .BOTH. , #145 ) ;
#94 = DIRECTION ( 'NONE',  ( -0.000000000000000000, -1.000000000000000000, -0.000000000000000000 ) ) ;
#95 = DIMENSIONAL_EXPONENTS ( 1.000000000000000000, 0.000000000000000000, 0.000000000000000000, 0.000000000000000000, 0.000000000000000000, 0.000000000000000000, 0.000000000000000000 ) ;
#96 = CARTESIAN_POINT ( 'NONE',  ( 2.143131898507868297E-16, 1.250000000000000000, 0.000000000000000000 ) ) ;
#97 = SPHERICAL_SURFACE ( 'NONE', #142, 0.3125000000000000000 ) ;
#98 = DIRECTION ( 'NONE',  ( -1.000000000000000000, 0.000000000000000000, 0.000000000000000000 ) ) ;
#99 = PRESENTATION_LAYER_ASSIGNMENT (  '', '', ( #373 ) ) ;
#100 = AXIS2_PLACEMENT_3D ( 'NONE', #116, #64, #253 ) ;
#101 = FACE_OUTER_BOUND ( 'NONE', #216, .T. ) ;
#102 = AXIS2_PLACEMENT_3D ( 'NONE', #310, #331, #365 ) ;
#103 = EDGE_CURVE ( 'NONE', #168, #112, #270, .T. ) ;
#104 = CARTESIAN_POINT ( 'NONE',  ( 0.3124999999999998890, 3.500000000000000000, 3.827021247335477078E-17 ) ) ;
#105 = EDGE_LOOP ( 'NONE', ( #330, #333 ) ) ;
#106 = STYLED_ITEM ( 'NONE', ( #313 ), #44 ) ;
#107 = ORIENTED_EDGE ( 'NONE', *, *, #132, .T. ) ;
#108 = ADVANCED_FACE ( 'NONE', ( #319 ), #97, .T. ) ;
#109 =( NAMED_UNIT ( * ) SI_UNIT ( $, .STERADIAN. ) SOLID_ANGLE_UNIT ( ) );
#110 = AXIS2_PLACEMENT_3D ( 'NONE', #148, #94, #206 ) ;
#111 = APPLICATION_PROTOCOL_DEFINITION ( 'draft international standard', 'automotive_design', 1998, #283 ) ;
#112 = VERTEX_POINT ( 'NONE', #67 ) ;
#113 = CARTESIAN_POINT ( 'NONE',  ( -0.3125000000000000000, 0.3125000000000000555, 3.827021247335477694E-17 ) ) ;
#114 = LENGTH_MEASURE_WITH_UNIT ( LENGTH_MEASURE( 0.02539999999999999897 ), #174 );
#115 = ORIENTED_EDGE ( 'NONE', *, *, #262, .T. ) ;
#116 = CARTESIAN_POINT ( 'NONE',  ( 2.143131898507868297E-16, 1.250000000000000000, 0.000000000000000000 ) ) ;
#117 = CARTESIAN_POINT ( 'NONE',  ( 0.000000000000000000, 0.3125000000000000555, 0.000000000000000000 ) ) ;
#118 = LINE ( 'NONE', #362, #211 ) ;
#119 = FILL_AREA_STYLE_COLOUR ( '', #182 ) ;
#120 = LINE ( 'NONE', #181, #201 ) ;
#121 = DIMENSIONAL_EXPONENTS ( 1.000000000000000000, 0.000000000000000000, 0.000000000000000000, 0.000000000000000000, 0.000000000000000000, 0.000000000000000000, 0.000000000000000000 ) ;
#122 = SURFACE_STYLE_FILL_AREA ( #70 ) ;
#123 = UNCERTAINTY_MEASURE_WITH_UNIT (LENGTH_MEASURE( 1.000000000000000082E-05 ), #192, 'distance_accuracy_value', 'NONE');
#124 = ADVANCED_FACE ( 'NONE', ( #58 ), #176, .T. ) ;
#125 =( GEOMETRIC_REPRESENTATION_CONTEXT ( 3 ) GLOBAL_UNCERTAINTY_ASSIGNED_CONTEXT ( ( #23 ) ) GLOBAL_UNIT_ASSIGNED_CONTEXT ( ( #25, #290, #340 ) ) REPRESENTATION_CONTEXT ( 'NONE', 'WORKASPACE' ) );
#126 = FILL_AREA_STYLE_COLOUR ( '', #160 ) ;
#127 = AXIS2_PLACEMENT_3D ( 'NONE', #156, #7, #38 ) ;
#128 = UNCERTAINTY_MEASURE_WITH_UNIT (LENGTH_MEASURE( 1.000000000000000082E-05 ), #14, 'distance_accuracy_value', 'NONE');
#129 = SURFACE_SIDE_STYLE ('',( #122 ) ) ;
#130 = CARTESIAN_POINT ( 'NONE',  ( 0.000000000000000000, 0.3125000000000000555, 0.000000000000000000 ) ) ;
#131 = PRESENTATION_LAYER_ASSIGNMENT (  '', '', ( #207 ) ) ;
#132 = EDGE_CURVE ( 'NONE', #309, #47, #246, .T. ) ;
#133 = ORIENTED_EDGE ( 'NONE', *, *, #166, .T. ) ;
#134 = CARTESIAN_POINT ( 'NONE',  ( -1.913510623667739463E-17, 0.000000000000000000, 0.000000000000000000 ) ) ;
#135 = CARTESIAN_POINT ( 'NONE',  ( 2.143131898507868297E-16, 1.250000000000000000, 0.000000000000000000 ) ) ;
#136 = FILL_AREA_STYLE_COLOUR ( '', #41 ) ;
#137 = CARTESIAN_POINT ( 'NONE',  ( -6.123233995736759873E-17, 3.500000000000000000, 0.000000000000000000 ) ) ;
#138 = COLOUR_RGB ( '',1.000000000000000000, 0.000000000000000000, 0.000000000000000000 ) ;
#139 = ORIENTED_EDGE ( 'NONE', *, *, #239, .F. ) ;
#140 = LENGTH_MEASURE_WITH_UNIT ( LENGTH_MEASURE( 0.02539999999999999897 ), #84 );
#141 = DIRECTION ( 'NONE',  ( 0.000000000000000000, 0.000000000000000000, -1.000000000000000000 ) ) ;
#142 = AXIS2_PLACEMENT_3D ( 'NONE', #292, #336, #204 ) ;
#143 = FILL_AREA_STYLE ('',( #119 ) ) ;
#144 = CIRCLE ( 'NONE', #369, 0.3124999999999999445 ) ;
#145 = SURFACE_SIDE_STYLE ('',( #335 ) ) ;
#146 = AXIS2_PLACEMENT_3D ( 'NONE', #272, #240, #185 ) ;
#147 = PRODUCT_RELATED_PRODUCT_CATEGORY ( 'part', '', ( #222 ) ) ;
#148 = CARTESIAN_POINT ( 'NONE',  ( 0.000000000000000000, 1.250000000000000000, 0.000000000000000000 ) ) ;
#149 = VECTOR ( 'NONE', #189, 39.37007874015748143 ) ;
#150 =( CONVERSION_BASED_UNIT ( 'INCH', #288 ) LENGTH_UNIT ( ) NAMED_UNIT ( #200 ) );
#151 = SURFACE_SIDE_STYLE ('',( #33 ) ) ;
#152 = SURFACE_STYLE_USAGE ( .BOTH. , #129 ) ;
#153 = CARTESIAN_POINT ( 'NONE',  ( -6.123233995736758640E-17, 3.500000000000000000, 0.000000000000000000 ) ) ;
#154 = MECHANICAL_DESIGN_GEOMETRIC_PRESENTATION_REPRESENTATION (  '', ( #373 ), #88 ) ;
#155 = CARTESIAN_POINT ( 'NONE',  ( 0.000000000000000000, 0.3125000000000000555, -0.3124999999999999445 ) ) ;
#156 = CARTESIAN_POINT ( 'NONE',  ( -6.123233995736758640E-17, 3.500000000000000000, 0.000000000000000000 ) ) ;
#157 = DIRECTION ( 'NONE',  ( 1.000000000000000000, 0.000000000000000000, -1.224646799147353207E-16 ) ) ;
#158 = EDGE_CURVE ( 'NONE', #165, #325, #287, .T. ) ;
#159 = ORIENTED_EDGE ( 'NONE', *, *, #34, .T. ) ;
#160 = COLOUR_RGB ( '',1.000000000000000000, 0.000000000000000000, 0.000000000000000000 ) ;
#161 =( GEOMETRIC_REPRESENTATION_CONTEXT ( 3 ) GLOBAL_UNCERTAINTY_ASSIGNED_CONTEXT ( ( #71 ) ) GLOBAL_UNIT_ASSIGNED_CONTEXT ( ( #75, #188, #42 ) ) REPRESENTATION_CONTEXT ( 'NONE', 'WORKASPACE' ) );
#162 = ORIENTED_EDGE ( 'NONE', *, *, #34, .F. ) ;
#163 = CIRCLE ( 'NONE', #26, 0.3124999999999999445 ) ;
#164 = PRODUCT_DEFINITION_FORMATION_WITH_SPECIFIED_SOURCE ( 'ANY', '', #222, .NOT_KNOWN. ) ;
#165 = VERTEX_POINT ( 'NONE', #104 ) ;
#166 = EDGE_CURVE ( 'NONE', #254, #309, #5, .T. ) ;
#167 = PRESENTATION_STYLE_ASSIGNMENT (( #55 ) ) ;
#168 = VERTEX_POINT ( 'NONE', #351 ) ;
#169 = DIRECTION ( 'NONE',  ( -1.224646799147353207E-16, 1.000000000000000000, 0.000000000000000000 ) ) ;
#170 = CARTESIAN_POINT ( 'NONE',  ( 0.3124999999999999445, 0.3125000000000000555, 0.000000000000000000 ) ) ;
#171 = VERTEX_POINT ( 'NONE', #214 ) ;
#172 =( CONVERSION_BASED_UNIT ( 'INCH', #54 ) LENGTH_UNIT ( ) NAMED_UNIT ( #266 ) );
#173 = DIMENSIONAL_EXPONENTS ( 1.000000000000000000, 0.000000000000000000, 0.000000000000000000, 0.000000000000000000, 0.000000000000000000, 0.000000000000000000, 0.000000000000000000 ) ;
#174 =( LENGTH_UNIT ( ) NAMED_UNIT ( * ) SI_UNIT ( $, .METRE. ) );
#175 = ADVANCED_FACE ( 'NONE', ( #101 ), #69, .F. ) ;
#176 = PLANE ( 'NONE',  #146 ) ;
#177 =( LENGTH_UNIT ( ) NAMED_UNIT ( * ) SI_UNIT ( $, .METRE. ) );
#178 = UNCERTAINTY_MEASURE_WITH_UNIT (LENGTH_MEASURE( 1.000000000000000082E-05 ), #195, 'distance_accuracy_value', 'NONE');
#179 = CYLINDRICAL_SURFACE ( 'NONE', #102, 0.3124999999999998890 ) ;
#180 = PRESENTATION_LAYER_ASSIGNMENT (  '', '', ( #245 ) ) ;
#181 = CARTESIAN_POINT ( 'NONE',  ( 0.000000000000000000, 0.000000000000000000, -0.3124999999999998890 ) ) ;
#182 = COLOUR_RGB ( '',1.000000000000000000, 0.000000000000000000, 0.000000000000000000 ) ;
#183 = DIRECTION ( 'NONE',  ( 0.000000000000000000, 0.000000000000000000, -1.000000000000000000 ) ) ;
#184 = LENGTH_MEASURE_WITH_UNIT ( LENGTH_MEASURE( 0.02539999999999999897 ), #324 );
#185 = DIRECTION ( 'NONE',  ( 0.000000000000000000, -0.000000000000000000, 1.000000000000000000 ) ) ;
#186 = AXIS2_PLACEMENT_3D ( 'NONE', #96, #230, #28 ) ;
#187 =( NAMED_UNIT ( * ) PLANE_ANGLE_UNIT ( ) SI_UNIT ( $, .RADIAN. ) );
#188 =( NAMED_UNIT ( * ) PLANE_ANGLE_UNIT ( ) SI_UNIT ( $, .RADIAN. ) );
#189 = DIRECTION ( 'NONE',  ( -1.224646799147353207E-16, 1.000000000000000000, -0.000000000000000000 ) ) ;
#190 = AXIS2_PLACEMENT_3D ( 'NONE', #318, #286, #341 ) ;
#191 = ORIENTED_EDGE ( 'NONE', *, *, #228, .T. ) ;
#192 =( CONVERSION_BASED_UNIT ( 'INCH', #221 ) LENGTH_UNIT ( ) NAMED_UNIT ( #173 ) );
#193 = PRODUCT_DEFINITION_SHAPE ( 'NONE', 'NONE',  #27 ) ;
#194 = ORIENTED_EDGE ( 'NONE', *, *, #262, .F. ) ;
#195 =( CONVERSION_BASED_UNIT ( 'INCH', #140 ) LENGTH_UNIT ( ) NAMED_UNIT ( #121 ) );
#196 = CARTESIAN_POINT ( 'NONE',  ( -0.3124999999999998890, 3.500000000000000000, 0.000000000000000000 ) ) ;
#197 = CARTESIAN_POINT ( 'NONE',  ( 0.000000000000000000, 0.000000000000000000, 0.000000000000000000 ) ) ;
#198 = ORIENTED_EDGE ( 'NONE', *, *, #132, .F. ) ;
#199 =( LENGTH_UNIT ( ) NAMED_UNIT ( * ) SI_UNIT ( $, .METRE. ) );
#200 = DIMENSIONAL_EXPONENTS ( 1.000000000000000000, 0.000000000000000000, 0.000000000000000000, 0.000000000000000000, 0.000000000000000000, 0.000000000000000000, 0.000000000000000000 ) ;
#201 = VECTOR ( 'NONE', #224, 39.37007874015748143 ) ;
#202 = PRESENTATION_LAYER_ASSIGNMENT (  '', '', ( #106 ) ) ;
#203 = ADVANCED_FACE ( 'NONE', ( #323 ), #352, .T. ) ;
#204 = DIRECTION ( 'NONE',  ( 1.000000000000000000, 0.000000000000000000, 0.000000000000000000 ) ) ;
#205 = DIRECTION ( 'NONE',  ( -1.224646799147353207E-16, 1.000000000000000000, -0.000000000000000000 ) ) ;
#206 = DIRECTION ( 'NONE',  ( 0.000000000000000000, 0.000000000000000000, -1.000000000000000000 ) ) ;
#207 = STYLED_ITEM ( 'NONE', ( #73 ), #124 ) ;
#208 = AXIS2_PLACEMENT_3D ( 'NONE', #130, #354, #345 ) ;
#209 = DIRECTION ( 'NONE',  ( -1.000000000000000000, 0.000000000000000000, 0.000000000000000000 ) ) ;
#210 = AXIS2_PLACEMENT_3D ( 'NONE', #347, #299, #157 ) ;
#211 = VECTOR ( 'NONE', #227, 39.37007874015748143 ) ;
#212 = EDGE_CURVE ( 'NONE', #325, #165, #144, .T. ) ;
#213 = AXIS2_PLACEMENT_3D ( 'NONE', #367, #11, #85 ) ;
#214 = CARTESIAN_POINT ( 'NONE',  ( 0.3124999999999998890, 1.250000000000000000, 3.827021247335477078E-17 ) ) ;
#215 = CARTESIAN_POINT ( 'NONE',  ( -6.123233995736759873E-17, 3.500000000000000000, 0.000000000000000000 ) ) ;
#216 = EDGE_LOOP ( 'NONE', ( #49, #257 ) ) ;
#217 = EDGE_LOOP ( 'NONE', ( #139, #9, #223, #76 ) ) ;
#218 = CARTESIAN_POINT ( 'NONE',  ( 0.000000000000000000, 0.000000000000000000, 0.000000000000000000 ) ) ;
#219 =( NAMED_UNIT ( * ) SI_UNIT ( $, .STERADIAN. ) SOLID_ANGLE_UNIT ( ) );
#220 = EDGE_LOOP ( 'NONE', ( #306, #356, #274, #12 ) ) ;
#221 = LENGTH_MEASURE_WITH_UNIT ( LENGTH_MEASURE( 0.02539999999999999897 ), #199 );
#222 = PRODUCT ( '59452', '59452', '', ( #337 ) ) ;
#223 = ORIENTED_EDGE ( 'NONE', *, *, #63, .T. ) ;
#224 = DIRECTION ( 'NONE',  ( -0.000000000000000000, -1.000000000000000000, -0.000000000000000000 ) ) ;
#225 = ORIENTED_EDGE ( 'NONE', *, *, #37, .F. ) ;
#226 = DIRECTION ( 'NONE',  ( -0.000000000000000000, -1.000000000000000000, -0.000000000000000000 ) ) ;
#227 = DIRECTION ( 'NONE',  ( -0.000000000000000000, -1.000000000000000000, -0.000000000000000000 ) ) ;
#228 = EDGE_CURVE ( 'NONE', #112, #168, #242, .T. ) ;
#229 = DIMENSIONAL_EXPONENTS ( 1.000000000000000000, 0.000000000000000000, 0.000000000000000000, 0.000000000000000000, 0.000000000000000000, 0.000000000000000000, 0.000000000000000000 ) ;
#230 = DIRECTION ( 'NONE',  ( -1.224646799147353207E-16, 1.000000000000000000, -0.000000000000000000 ) ) ;
#231 = DIRECTION ( 'NONE',  ( 1.000000000000000000, 0.000000000000000000, 0.000000000000000000 ) ) ;
#232 = FILL_AREA_STYLE ('',( #235 ) ) ;
#233 = AXIS2_PLACEMENT_3D ( 'NONE', #244, #276, #43 ) ;
#234 = FILL_AREA_STYLE_COLOUR ( '', #321 ) ;
#235 = FILL_AREA_STYLE_COLOUR ( '', #17 ) ;
#236 = CARTESIAN_POINT ( 'NONE',  ( 0.000000000000000000, 0.3125000000000000555, 0.000000000000000000 ) ) ;
#237 = VECTOR ( 'NONE', #271, 39.37007874015748143 ) ;
#238 = SPHERICAL_SURFACE ( 'NONE', #190, 0.3125000000000000000 ) ;
#239 = EDGE_CURVE ( 'NONE', #171, #165, #294, .T. ) ;
#240 = DIRECTION ( 'NONE',  ( 0.000000000000000000, 1.000000000000000000, 0.000000000000000000 ) ) ;
#241 = AXIS2_PLACEMENT_3D ( 'NONE', #236, #368, #141 ) ;
#242 = CIRCLE ( 'NONE', #268, 0.3124999999999998890 ) ;
#243 = ADVANCED_BREP_SHAPE_REPRESENTATION ( '59452', ( #52, #44, #3 ), #289 ) ;
#244 = CARTESIAN_POINT ( 'NONE',  ( 0.3124999999999998890, 3.500000000000000000, 0.000000000000000000 ) ) ;
#245 = STYLED_ITEM ( 'NONE', ( #267 ), #87 ) ;
#246 = CIRCLE ( 'NONE', #210, 0.3125000000000000000 ) ;
#247 = STYLED_ITEM ( 'NONE', ( #359 ), #52 ) ;
#248 = VERTEX_POINT ( 'NONE', #39 ) ;
#249 = LINE ( 'NONE', #196, #149 ) ;
#250 = VERTEX_POINT ( 'NONE', #155 ) ;
#251 =( NAMED_UNIT ( * ) SI_UNIT ( $, .STERADIAN. ) SOLID_ANGLE_UNIT ( ) );
#252 = ORIENTED_EDGE ( 'NONE', *, *, #103, .T. ) ;
#253 = DIRECTION ( 'NONE',  ( -1.000000000000000000, 0.000000000000000000, 0.000000000000000000 ) ) ;
#254 = VERTEX_POINT ( 'NONE', #6 ) ;
#255 = PRESENTATION_LAYER_ASSIGNMENT (  '', '', ( #247 ) ) ;
#256 = DIRECTION ( 'NONE',  ( 0.000000000000000000, 0.000000000000000000, 1.000000000000000000 ) ) ;
#257 = ORIENTED_EDGE ( 'NONE', *, *, #158, .T. ) ;
#258 = DIRECTION ( 'NONE',  ( -1.000000000000000000, 0.000000000000000000, 0.000000000000000000 ) ) ;
#259 = SURFACE_SIDE_STYLE ('',( #371 ) ) ;
#260 = LENGTH_MEASURE_WITH_UNIT ( LENGTH_MEASURE( 0.02539999999999999897 ), #177 );
#261 = CIRCLE ( 'NONE', #213, 0.3125000000000000000 ) ;
#262 = EDGE_CURVE ( 'NONE', #45, #254, #349, .T. ) ;
#263 = FILL_AREA_STYLE ('',( #317 ) ) ;
#264 = DIRECTION ( 'NONE',  ( -0.000000000000000000, -1.000000000000000000, -0.000000000000000000 ) ) ;
#265 = LENGTH_MEASURE_WITH_UNIT ( LENGTH_MEASURE( 0.02539999999999999897 ), #1 );
#266 = DIMENSIONAL_EXPONENTS ( 1.000000000000000000, 0.000000000000000000, 0.000000000000000000, 0.000000000000000000, 0.000000000000000000, 0.000000000000000000, 0.000000000000000000 ) ;
#267 = PRESENTATION_STYLE_ASSIGNMENT (( #344 ) ) ;
#268 = AXIS2_PLACEMENT_3D ( 'NONE', #320, #68, #183 ) ;
#269 = SURFACE_STYLE_USAGE ( .BOTH. , #259 ) ;
#270 = CIRCLE ( 'NONE', #110, 0.3124999999999998890 ) ;
#271 = DIRECTION ( 'NONE',  ( -1.224646799147353207E-16, 1.000000000000000000, -0.000000000000000000 ) ) ;
#272 = CARTESIAN_POINT ( 'NONE',  ( 0.000000000000000000, 1.250000000000000000, 0.000000000000000000 ) ) ;
#273 = CYLINDRICAL_SURFACE ( 'NONE', #32, 0.3124999999999998890 ) ;
#274 = ORIENTED_EDGE ( 'NONE', *, *, #212, .F. ) ;
#275 = EDGE_LOOP ( 'NONE', ( #252, #53, #194, #162, #301 ) ) ;
#276 = DIRECTION ( 'NONE',  ( 1.224646799147353207E-16, -1.000000000000000000, 0.000000000000000000 ) ) ;
#277 = COLOUR_RGB ( '',1.000000000000000000, 0.000000000000000000, 0.000000000000000000 ) ;
#278 = FACE_OUTER_BOUND ( 'NONE', #217, .T. ) ;
#279 = FILL_AREA_STYLE ('',( #234 ) ) ;
#280 = ADVANCED_FACE ( 'NONE', ( #19 ), #285, .F. ) ;
#281 = AXIS2_PLACEMENT_3D ( 'NONE', #215, #296, #98 ) ;
#282 =( NAMED_UNIT ( * ) PLANE_ANGLE_UNIT ( ) SI_UNIT ( $, .RADIAN. ) );
#283 = APPLICATION_CONTEXT ( 'automotive_design' ) ;
#284 = MECHANICAL_DESIGN_GEOMETRIC_PRESENTATION_REPRESENTATION (  '', ( #245 ), #125 ) ;
#285 = PLANE ( 'NONE',  #80 ) ;
#286 = DIRECTION ( 'NONE',  ( 0.000000000000000000, 0.000000000000000000, 1.000000000000000000 ) ) ;
#287 = CIRCLE ( 'NONE', #127, 0.3124999999999999445 ) ;
#288 = LENGTH_MEASURE_WITH_UNIT ( LENGTH_MEASURE( 0.02539999999999999897 ), #31 );
#289 =( GEOMETRIC_REPRESENTATION_CONTEXT ( 3 ) GLOBAL_UNCERTAINTY_ASSIGNED_CONTEXT ( ( #298 ) ) GLOBAL_UNIT_ASSIGNED_CONTEXT ( ( #172, #187, #219 ) ) REPRESENTATION_CONTEXT ( 'NONE', 'WORKASPACE' ) );
#290 =( NAMED_UNIT ( * ) PLANE_ANGLE_UNIT ( ) SI_UNIT ( $, .RADIAN. ) );
#291 = MECHANICAL_DESIGN_GEOMETRIC_PRESENTATION_REPRESENTATION (  '', ( #4 ), #13 ) ;
#292 = CARTESIAN_POINT ( 'NONE',  ( -3.827021247335478926E-17, 0.3125000000000000000, 0.000000000000000000 ) ) ;
#293 =( GEOMETRIC_REPRESENTATION_CONTEXT ( 3 ) GLOBAL_UNCERTAINTY_ASSIGNED_CONTEXT ( ( #30 ) ) GLOBAL_UNIT_ASSIGNED_CONTEXT ( ( #370, #77, #251 ) ) REPRESENTATION_CONTEXT ( 'NONE', 'WORKASPACE' ) );
#294 = LINE ( 'NONE', #36, #237 ) ;
#295 = PRODUCT_DEFINITION_CONTEXT ( 'detailed design', #283, 'design' ) ;
#296 = DIRECTION ( 'NONE',  ( -1.224646799147353207E-16, 1.000000000000000000, -0.000000000000000000 ) ) ;
#297 = DIRECTION ( 'NONE',  ( -1.224646799147353207E-16, 1.000000000000000000, -0.000000000000000000 ) ) ;
#298 = UNCERTAINTY_MEASURE_WITH_UNIT (LENGTH_MEASURE( 1.000000000000000082E-05 ), #172, 'distance_accuracy_value', 'NONE');
#299 = DIRECTION ( 'NONE',  ( 1.224646799147353207E-16, -0.000000000000000000, 1.000000000000000000 ) ) ;
#300 = ORIENTED_EDGE ( 'NONE', *, *, #92, .F. ) ;
#301 = ORIENTED_EDGE ( 'NONE', *, *, #348, .F. ) ;
#302 = FACE_OUTER_BOUND ( 'NONE', #361, .T. ) ;
#303 =( GEOMETRIC_REPRESENTATION_CONTEXT ( 3 ) GLOBAL_UNCERTAINTY_ASSIGNED_CONTEXT ( ( #123 ) ) GLOBAL_UNIT_ASSIGNED_CONTEXT ( ( #192, #82, #332 ) ) REPRESENTATION_CONTEXT ( 'NONE', 'WORKASPACE' ) );
#304 = ORIENTED_EDGE ( 'NONE', *, *, #166, .F. ) ;
#305 = FACE_OUTER_BOUND ( 'NONE', #78, .T. ) ;
#306 = ORIENTED_EDGE ( 'NONE', *, *, #315, .T. ) ;
#307 = PRESENTATION_STYLE_ASSIGNMENT (( #93 ) ) ;
#308 = FILL_AREA_STYLE ('',( #136 ) ) ;
#309 = VERTEX_POINT ( 'NONE', #113 ) ;
#310 = CARTESIAN_POINT ( 'NONE',  ( 0.000000000000000000, 0.000000000000000000, 0.000000000000000000 ) ) ;
#311 = CIRCLE ( 'NONE', #56, 0.3124999999999999445 ) ;
#312 = CARTESIAN_POINT ( 'NONE',  ( -0.3125000000000000000, 3.500000000000000000, 0.000000000000000000 ) ) ;
#313 = PRESENTATION_STYLE_ASSIGNMENT (( #62 ) ) ;
#314 =( NAMED_UNIT ( * ) PLANE_ANGLE_UNIT ( ) SI_UNIT ( $, .RADIAN. ) );
#315 = EDGE_CURVE ( 'NONE', #248, #171, #74, .T. ) ;
#316 = SURFACE_STYLE_FILL_AREA ( #232 ) ;
#317 = FILL_AREA_STYLE_COLOUR ( '', #277 ) ;
#318 = CARTESIAN_POINT ( 'NONE',  ( -3.827021247335478926E-17, 0.3125000000000000000, 0.000000000000000000 ) ) ;
#319 = FACE_OUTER_BOUND ( 'NONE', #86, .T. ) ;
#320 = CARTESIAN_POINT ( 'NONE',  ( 0.000000000000000000, 1.250000000000000000, 0.000000000000000000 ) ) ;
#321 = COLOUR_RGB ( '',1.000000000000000000, 0.000000000000000000, 0.000000000000000000 ) ;
#322 =( GEOMETRIC_REPRESENTATION_CONTEXT ( 3 ) GLOBAL_UNCERTAINTY_ASSIGNED_CONTEXT ( ( #178 ) ) GLOBAL_UNIT_ASSIGNED_CONTEXT ( ( #195, #314, #16 ) ) REPRESENTATION_CONTEXT ( 'NONE', 'WORKASPACE' ) );
#323 = FACE_OUTER_BOUND ( 'NONE', #220, .T. ) ;
#324 =( LENGTH_UNIT ( ) NAMED_UNIT ( * ) SI_UNIT ( $, .METRE. ) );
#325 = VERTEX_POINT ( 'NONE', #312 ) ;
#326 = EDGE_LOOP ( 'NONE', ( #81, #300 ) ) ;
#327 = DIRECTION ( 'NONE',  ( -0.000000000000000000, -1.000000000000000000, -0.000000000000000000 ) ) ;
#328 = ORIENTED_EDGE ( 'NONE', *, *, #46, .F. ) ;
#329 = SURFACE_SIDE_STYLE ('',( #20 ) ) ;
#330 = ORIENTED_EDGE ( 'NONE', *, *, #103, .F. ) ;
#331 = DIRECTION ( 'NONE',  ( -0.000000000000000000, -1.000000000000000000, -0.000000000000000000 ) ) ;
#332 =( NAMED_UNIT ( * ) SI_UNIT ( $, .STERADIAN. ) SOLID_ANGLE_UNIT ( ) );
#333 = ORIENTED_EDGE ( 'NONE', *, *, #228, .F. ) ;
#334 = FILL_AREA_STYLE ('',( #358 ) ) ;
#335 = SURFACE_STYLE_FILL_AREA ( #279 ) ;
#336 = DIRECTION ( 'NONE',  ( 0.000000000000000000, 0.000000000000000000, 1.000000000000000000 ) ) ;
#337 = PRODUCT_CONTEXT ( 'NONE', #22, 'mechanical' ) ;
#338 = AXIS2_PLACEMENT_3D ( 'NONE', #137, #205, #258 ) ;
#339 =( LENGTH_UNIT ( ) NAMED_UNIT ( * ) SI_UNIT ( $, .METRE. ) );
#340 =( NAMED_UNIT ( * ) SI_UNIT ( $, .STERADIAN. ) SOLID_ANGLE_UNIT ( ) );
#341 = DIRECTION ( 'NONE',  ( 1.000000000000000000, 0.000000000000000000, 0.000000000000000000 ) ) ;
#342 = UNCERTAINTY_MEASURE_WITH_UNIT (LENGTH_MEASURE( 1.000000000000000082E-05 ), #150, 'distance_accuracy_value', 'NONE');
#343 = MECHANICAL_DESIGN_GEOMETRIC_PRESENTATION_REPRESENTATION (  '', ( #247 ), #303 ) ;
#344 = SURFACE_STYLE_USAGE ( .BOTH. , #151 ) ;
#345 = DIRECTION ( 'NONE',  ( 0.000000000000000000, 0.000000000000000000, -1.000000000000000000 ) ) ;
#346 = CLOSED_SHELL ( 'NONE', ( #203, #280, #8, #175 ) ) ;
#347 = CARTESIAN_POINT ( 'NONE',  ( -3.827021247335478926E-17, 0.3125000000000000000, 0.000000000000000000 ) ) ;
#348 = EDGE_CURVE ( 'NONE', #168, #250, #120, .T. ) ;
#349 = CIRCLE ( 'NONE', #241, 0.3124999999999999445 ) ;
#350 = CLOSED_SHELL ( 'NONE', ( #87, #357, #124, #72, #108 ) ) ;
#351 = CARTESIAN_POINT ( 'NONE',  ( 0.000000000000000000, 1.250000000000000000, -0.3124999999999998890 ) ) ;
#352 = CYLINDRICAL_SURFACE ( 'NONE', #281, 0.3124999999999998335 ) ;
#353 = PRESENTATION_LAYER_ASSIGNMENT (  '', '', ( #4 ) ) ;
#354 = DIRECTION ( 'NONE',  ( -0.000000000000000000, -1.000000000000000000, -0.000000000000000000 ) ) ;
#355 = EDGE_CURVE ( 'NONE', #112, #254, #118, .T. ) ;
#356 = ORIENTED_EDGE ( 'NONE', *, *, #239, .T. ) ;
#357 = ADVANCED_FACE ( 'NONE', ( #60 ), #179, .T. ) ;
#358 = FILL_AREA_STYLE_COLOUR ( '', #138 ) ;
#359 = PRESENTATION_STYLE_ASSIGNMENT (( #48 ) ) ;
#360 = APPLICATION_PROTOCOL_DEFINITION ( 'draft international standard', 'automotive_design', 1998, #22 ) ;
#361 = EDGE_LOOP ( 'NONE', ( #18, #191, #51, #225, #304 ) ) ;
#362 = CARTESIAN_POINT ( 'NONE',  ( 3.827021247335477078E-17, 0.000000000000000000, 0.3124999999999998890 ) ) ;
#363 = SURFACE_STYLE_FILL_AREA ( #334 ) ;
#364 = ORIENTED_EDGE ( 'NONE', *, *, #37, .T. ) ;
#365 = DIRECTION ( 'NONE',  ( 0.000000000000000000, 0.000000000000000000, -1.000000000000000000 ) ) ;
#366 = STYLED_ITEM ( 'NONE', ( #307 ), #357 ) ;
#367 = CARTESIAN_POINT ( 'NONE',  ( -3.827021247335478926E-17, 0.3125000000000000000, 0.000000000000000000 ) ) ;
#368 = DIRECTION ( 'NONE',  ( -0.000000000000000000, -1.000000000000000000, -0.000000000000000000 ) ) ;
#369 = AXIS2_PLACEMENT_3D ( 'NONE', #153, #297, #209 ) ;
#370 =( CONVERSION_BASED_UNIT ( 'INCH', #260 ) LENGTH_UNIT ( ) NAMED_UNIT ( #66 ) );
#371 = SURFACE_STYLE_FILL_AREA ( #263 ) ;
#372 = DIRECTION ( 'NONE',  ( 0.000000000000000000, 0.000000000000000000, -1.000000000000000000 ) ) ;
#373 = STYLED_ITEM ( 'NONE', ( #65 ), #108 ) ;
ENDSEC;
END-ISO-10303-21;
