ISO-10303-21;
HEADER;
FILE_DESCRIPTION (( 'STEP AP214' ),
    '1' );
FILE_NAME ('Micro_BEM-218-04X.STEP',
    '2021-09-03T13:07:13',
    ( '' ),
    ( '' ),
    'SwSTEP 2.0',
    'SolidWorks 2020',
    '' );
FILE_SCHEMA (( 'AUTOMOTIVE_DESIGN' ));
ENDSEC;

DATA;
#1 = DIRECTION ( 'NONE',  ( 1.000000000000000000, 0.0000000000000000000, 0.0000000000000000000 ) ) ;
#2 = UNCERTAINTY_MEASURE_WITH_UNIT (LENGTH_MEASURE( 1.000000000000000082E-05 ), #272, 'distance_accuracy_value', 'NONE');
#3 = VERTEX_POINT ( 'NONE', #278 ) ;
#4 = EDGE_CURVE ( 'NONE', #217, #171, #94, .T. ) ;
#5 = DIRECTION ( 'NONE',  ( 1.000000000000000000, 0.0000000000000000000, 0.0000000000000000000 ) ) ;
#6 = ORIENTED_EDGE ( 'NONE', *, *, #159, .F. ) ;
#7 = DIRECTION ( 'NONE',  ( -0.0000000000000000000, -0.0000000000000000000, -1.000000000000000000 ) ) ;
#8 = CIRCLE ( 'NONE', #131, 0.1250000000000000000 ) ;
#9 = ORIENTED_EDGE ( 'NONE', *, *, #70, .F. ) ;
#10 = ADVANCED_FACE ( 'NONE', ( #31 ), #52, .T. ) ;
#11 = CARTESIAN_POINT ( 'NONE',  ( 0.1250000000000000000, 1.530808498934191509E-17, 2.500000000000000000 ) ) ;
#12 = DIRECTION ( 'NONE',  ( 0.0000000000000000000, 0.0000000000000000000, -1.000000000000000000 ) ) ;
#13 = FACE_OUTER_BOUND ( 'NONE', #84, .T. ) ;
#14 = CIRCLE ( 'NONE', #263, 0.1250000000000000000 ) ;
#15 = ORIENTED_EDGE ( 'NONE', *, *, #67, .T. ) ;
#16 = ORIENTED_EDGE ( 'NONE', *, *, #174, .T. ) ;
#17 = SURFACE_STYLE_FILL_AREA ( #250 ) ;
#18 = ADVANCED_FACE ( 'NONE', ( #130 ), #154, .T. ) ;
#19 = EDGE_LOOP ( 'NONE', ( #141, #178, #266 ) ) ;
#20 = CARTESIAN_POINT ( 'NONE',  ( 7.654042494670957853E-17, 0.0000000000000000000, 0.6250000000000000000 ) ) ;
#21 = MECHANICAL_DESIGN_GEOMETRIC_PRESENTATION_REPRESENTATION (  '', ( #112 ), #42 ) ;
#22 = CARTESIAN_POINT ( 'NONE',  ( 2.006718185389144496E-17, 0.0000000000000000000, 0.0000000000000000000 ) ) ;
#23 = DIMENSIONAL_EXPONENTS ( 1.000000000000000000, 0.0000000000000000000, 0.0000000000000000000, 0.0000000000000000000, 0.0000000000000000000, 0.0000000000000000000, 0.0000000000000000000 ) ;
#24 = ORIENTED_EDGE ( 'NONE', *, *, #60, .T. ) ;
#25 = AXIS2_PLACEMENT_3D ( 'NONE', #236, #124, #75 ) ;
#26 = APPLICATION_PROTOCOL_DEFINITION ( 'draft international standard', 'automotive_design', 1998, #150 ) ;
#27 = DIRECTION ( 'NONE',  ( 0.0000000000000000000, 0.0000000000000000000, 1.000000000000000000 ) ) ;
#28 = VERTEX_POINT ( 'NONE', #48 ) ;
#29 = DIRECTION ( 'NONE',  ( -0.1736481776669311639, 2.126576849575783008E-17, 0.9848077530122080203 ) ) ;
#30 = CARTESIAN_POINT ( 'NONE',  ( 0.0000000000000000000, 0.0000000000000000000, 2.500000000000000000 ) ) ;
#31 = FACE_OUTER_BOUND ( 'NONE', #240, .T. ) ;
#32 =( GEOMETRIC_REPRESENTATION_CONTEXT ( 3 ) GLOBAL_UNCERTAINTY_ASSIGNED_CONTEXT ( ( #2 ) ) GLOBAL_UNIT_ASSIGNED_CONTEXT ( ( #272, #301, #149 ) ) REPRESENTATION_CONTEXT ( 'NONE', 'WORKASPACE' ) );
#33 = DIRECTION ( 'NONE',  ( 0.0000000000000000000, 0.0000000000000000000, 1.000000000000000000 ) ) ;
#34 = CARTESIAN_POINT ( 'NONE',  ( -0.1250000000000000000, 0.0000000000000000000, 2.485000000000000320 ) ) ;
#35 = CIRCLE ( 'NONE', #119, 0.1092406499999999947 ) ;
#36 = CARTESIAN_POINT ( 'NONE',  ( 0.1250000000000000000, 1.530808498934191509E-17, 2.485000000000000320 ) ) ;
#37 = DIRECTION ( 'NONE',  ( 0.0000000000000000000, 0.0000000000000000000, -1.000000000000000000 ) ) ;
#38 = EDGE_CURVE ( 'NONE', #93, #3, #8, .T. ) ;
#39 = ORIENTED_EDGE ( 'NONE', *, *, #38, .T. ) ;
#40 = LENGTH_MEASURE_WITH_UNIT ( LENGTH_MEASURE( 0.02539999999999999897 ), #170 );
#41 = CLOSED_SHELL ( 'NONE', ( #228, #10, #205, #239, #126, #260, #18, #276, #288, #179, #46 ) ) ;
#42 =( GEOMETRIC_REPRESENTATION_CONTEXT ( 3 ) GLOBAL_UNCERTAINTY_ASSIGNED_CONTEXT ( ( #317 ) ) GLOBAL_UNIT_ASSIGNED_CONTEXT ( ( #271, #145, #267 ) ) REPRESENTATION_CONTEXT ( 'NONE', 'WORKASPACE' ) );
#43 = SPHERICAL_SURFACE ( 'NONE', #78, 0.1092406499999999947 ) ;
#44 = AXIS2_PLACEMENT_3D ( 'NONE', #202, #153, #282 ) ;
#45 = EDGE_CURVE ( 'NONE', #171, #217, #14, .T. ) ;
#46 = ADVANCED_FACE ( 'NONE', ( #306 ), #253, .T. ) ;
#47 = DIRECTION ( 'NONE',  ( 1.000000000000000000, 0.0000000000000000000, 0.0000000000000000000 ) ) ;
#48 = CARTESIAN_POINT ( 'NONE',  ( -0.1092406499999999253, 1.434310311263477304E-17, 0.6250000000000000000 ) ) ;
#49 = AXIS2_PLACEMENT_3D ( 'NONE', #291, #325, #204 ) ;
#50 = VECTOR ( 'NONE', #61, 39.37007874015748143 ) ;
#51 = DIRECTION ( 'NONE',  ( 1.224646799147353207E-16, 0.0000000000000000000, 1.000000000000000000 ) ) ;
#52 = CYLINDRICAL_SURFACE ( 'NONE', #44, 0.1092406499999999947 ) ;
#53 = DIRECTION ( 'NONE',  ( -1.000000000000000000, 0.0000000000000000000, 0.0000000000000000000 ) ) ;
#54 = AXIS2_PLACEMENT_3D ( 'NONE', #284, #33, #164 ) ;
#55 = LINE ( 'NONE', #134, #219 ) ;
#56 = DIRECTION ( 'NONE',  ( 1.000000000000000000, 0.0000000000000000000, 0.0000000000000000000 ) ) ;
#57 = EDGE_LOOP ( 'NONE', ( #115, #277, #16, #215 ) ) ;
#58 = VERTEX_POINT ( 'NONE', #73 ) ;
#59 = CIRCLE ( 'NONE', #49, 0.1092406499999999947 ) ;
#60 = EDGE_CURVE ( 'NONE', #58, #217, #175, .T. ) ;
#61 = DIRECTION ( 'NONE',  ( -0.0000000000000000000, -0.0000000000000000000, -1.000000000000000000 ) ) ;
#62 = VERTEX_POINT ( 'NONE', #158 ) ;
#63 = AXIS2_PLACEMENT_3D ( 'NONE', #268, #76, #107 ) ;
#64 = FACE_OUTER_BOUND ( 'NONE', #102, .T. ) ;
#65 = DIRECTION ( 'NONE',  ( 1.000000000000000000, 0.0000000000000000000, 0.0000000000000000000 ) ) ;
#66 = CARTESIAN_POINT ( 'NONE',  ( -0.1250000000000000000, 0.0000000000000000000, 2.500000000000000000 ) ) ;
#67 = EDGE_CURVE ( 'NONE', #58, #249, #68, .T. ) ;
#68 = CIRCLE ( 'NONE', #292, 0.1100000000000001948 ) ;
#69 = SURFACE_STYLE_USAGE ( .BOTH. , #324 ) ;
#70 = EDGE_CURVE ( 'NONE', #28, #3, #279, .T. ) ;
#71 = DIRECTION ( 'NONE',  ( 1.000000000000000000, 0.0000000000000000000, 0.0000000000000000000 ) ) ;
#72 = PRESENTATION_STYLE_ASSIGNMENT (( #69 ) ) ;
#73 = CARTESIAN_POINT ( 'NONE',  ( 0.1100000000000001948, 1.438959988998141146E-17, 2.500000000000000000 ) ) ;
#74 = DIRECTION ( 'NONE',  ( -1.224646799147353207E-16, -0.0000000000000000000, -1.000000000000000000 ) ) ;
#75 = DIRECTION ( 'NONE',  ( 1.000000000000000000, 0.0000000000000000000, 0.0000000000000000000 ) ) ;
#76 = DIRECTION ( 'NONE',  ( -1.224646799147353207E-16, -0.0000000000000000000, -1.000000000000000000 ) ) ;
#77 = ORIENTED_EDGE ( 'NONE', *, *, #159, .T. ) ;
#78 = AXIS2_PLACEMENT_3D ( 'NONE', #148, #315, #88 ) ;
#79 = STYLED_ITEM ( 'NONE', ( #72 ), #223 ) ;
#80 = CARTESIAN_POINT ( 'NONE',  ( -0.1100000000000001948, 0.0000000000000000000, 2.500000000000000000 ) ) ;
#81 = DIRECTION ( 'NONE',  ( -0.0000000000000000000, -0.0000000000000000000, -1.000000000000000000 ) ) ;
#82 = DIMENSIONAL_EXPONENTS ( 1.000000000000000000, 0.0000000000000000000, 0.0000000000000000000, 0.0000000000000000000, 0.0000000000000000000, 0.0000000000000000000, 0.0000000000000000000 ) ;
#83 = ORIENTED_EDGE ( 'NONE', *, *, #286, .T. ) ;
#84 = EDGE_LOOP ( 'NONE', ( #247, #227, #308, #143 ) ) ;
#85 = DIRECTION ( 'NONE',  ( -1.000000000000000000, 0.0000000000000000000, 0.0000000000000000000 ) ) ;
#86 = AXIS2_PLACEMENT_3D ( 'NONE', #20, #117, #323 ) ;
#87 = ORIENTED_EDGE ( 'NONE', *, *, #302, .F. ) ;
#88 = DIRECTION ( 'NONE',  ( 1.000000000000000000, 0.0000000000000000000, 0.0000000000000000000 ) ) ;
#89 = LINE ( 'NONE', #237, #138 ) ;
#90 = EDGE_LOOP ( 'NONE', ( #270, #24, #184, #212 ) ) ;
#91 = PRODUCT_DEFINITION ( 'UNKNOWN', '', #316, #198 ) ;
#92 = LENGTH_MEASURE_WITH_UNIT ( LENGTH_MEASURE( 0.02539999999999999897 ), #163 );
#93 = VERTEX_POINT ( 'NONE', #99 ) ;
#94 = CIRCLE ( 'NONE', #25, 0.1250000000000000000 ) ;
#95 = CIRCLE ( 'NONE', #162, 0.1092406499999999947 ) ;
#96 = DIRECTION ( 'NONE',  ( 0.0000000000000000000, 1.000000000000000000, 0.0000000000000000000 ) ) ;
#97 = CARTESIAN_POINT ( 'NONE',  ( 8.748579329396911086E-17, 0.0000000000000000000, 0.7143757151439918962 ) ) ;
#98 =( NAMED_UNIT ( * ) PLANE_ANGLE_UNIT ( ) SI_UNIT ( $, .RADIAN. ) );
#99 = CARTESIAN_POINT ( 'NONE',  ( 0.1250000000000000833, 1.530808498934192433E-17, 0.7143757151439918962 ) ) ;
#100 = DIRECTION ( 'NONE',  ( -1.000000000000000000, 0.0000000000000000000, 0.0000000000000000000 ) ) ;
#101 = CIRCLE ( 'NONE', #54, 0.1100000000000001948 ) ;
#102 = EDGE_LOOP ( 'NONE', ( #189, #243, #218, #6 ) ) ;
#103 = ORIENTED_EDGE ( 'NONE', *, *, #116, .F. ) ;
#104 = LINE ( 'NONE', #11, #50 ) ;
#105 = DIRECTION ( 'NONE',  ( -1.000000000000000000, 1.224646799147353207E-16, 0.0000000000000000000 ) ) ;
#106 = AXIS2_PLACEMENT_3D ( 'NONE', #256, #96, #71 ) ;
#107 = DIRECTION ( 'NONE',  ( -1.000000000000000000, 0.0000000000000000000, 1.224646799147353207E-16 ) ) ;
#108 = CARTESIAN_POINT ( 'NONE',  ( 8.748579329396911086E-17, 0.0000000000000000000, 0.7143757151439918962 ) ) ;
#109 = ORIENTED_EDGE ( 'NONE', *, *, #151, .F. ) ;
#110 = FACE_OUTER_BOUND ( 'NONE', #57, .T. ) ;
#111 = DIRECTION ( 'NONE',  ( 0.0000000000000000000, 0.0000000000000000000, -1.000000000000000000 ) ) ;
#112 = STYLED_ITEM ( 'NONE', ( #118 ), #208 ) ;
#113 = CARTESIAN_POINT ( 'NONE',  ( 1.337812123592763100E-17, 0.0000000000000000000, 0.1092406499999999947 ) ) ;
#114 = DIRECTION ( 'NONE',  ( 1.224646799147353207E-16, 1.000000000000000000, -0.0000000000000000000 ) ) ;
#115 = ORIENTED_EDGE ( 'NONE', *, *, #60, .F. ) ;
#116 = EDGE_CURVE ( 'NONE', #28, #183, #207, .T. ) ;
#117 = DIRECTION ( 'NONE',  ( 1.224646799147353207E-16, 0.0000000000000000000, 1.000000000000000000 ) ) ;
#118 = PRESENTATION_STYLE_ASSIGNMENT (( #225 ) ) ;
#119 = AXIS2_PLACEMENT_3D ( 'NONE', #195, #114, #105 ) ;
#120 = SHAPE_DEFINITION_REPRESENTATION ( #320, #223 ) ;
#121 = CYLINDRICAL_SURFACE ( 'NONE', #224, 0.1250000000000000000 ) ;
#122 = CARTESIAN_POINT ( 'NONE',  ( -0.1092406499999999253, 1.337812123592763100E-17, 0.6250000000000000000 ) ) ;
#123 = AXIS2_PLACEMENT_3D ( 'NONE', #113, #221, #295 ) ;
#124 = DIRECTION ( 'NONE',  ( 0.0000000000000000000, 0.0000000000000000000, -1.000000000000000000 ) ) ;
#125 =( NAMED_UNIT ( * ) SI_UNIT ( $, .STERADIAN. ) SOLID_ANGLE_UNIT ( ) );
#126 = ADVANCED_FACE ( 'NONE', ( #177 ), #257, .T. ) ;
#127 = ORIENTED_EDGE ( 'NONE', *, *, #4, .T. ) ;
#128 = LINE ( 'NONE', #66, #156 ) ;
#129 = CARTESIAN_POINT ( 'NONE',  ( 0.0000000000000000000, 0.0000000000000000000, 2.500000000000000000 ) ) ;
#130 = FACE_OUTER_BOUND ( 'NONE', #241, .T. ) ;
#131 = AXIS2_PLACEMENT_3D ( 'NONE', #97, #311, #5 ) ;
#132 = EDGE_CURVE ( 'NONE', #258, #290, #95, .T. ) ;
#133 = MECHANICAL_DESIGN_GEOMETRIC_PRESENTATION_REPRESENTATION (  '', ( #79 ), #32 ) ;
#134 = CARTESIAN_POINT ( 'NONE',  ( 0.1092406500000000502, 0.0000000000000000000, 0.6250000000000000000 ) ) ;
#135 = CYLINDRICAL_SURFACE ( 'NONE', #63, 0.1092406499999999947 ) ;
#136 = EDGE_LOOP ( 'NONE', ( #9, #109, #77, #39 ) ) ;
#137 = CONICAL_SURFACE ( 'NONE', #269, 0.1100000000000001948, 0.7853981633974517207 ) ;
#138 = VECTOR ( 'NONE', #296, 39.37007874015748143 ) ;
#139 = ORIENTED_EDGE ( 'NONE', *, *, #38, .F. ) ;
#140 = FACE_OUTER_BOUND ( 'NONE', #166, .T. ) ;
#141 = ORIENTED_EDGE ( 'NONE', *, *, #265, .F. ) ;
#142 = DIRECTION ( 'NONE',  ( -1.000000000000000000, 0.0000000000000000000, 0.0000000000000000000 ) ) ;
#143 = ORIENTED_EDGE ( 'NONE', *, *, #244, .T. ) ;
#144 = PRESENTATION_LAYER_ASSIGNMENT (  '', '', ( #112 ) ) ;
#145 =( NAMED_UNIT ( * ) PLANE_ANGLE_UNIT ( ) SI_UNIT ( $, .RADIAN. ) );
#146 = EDGE_CURVE ( 'NONE', #3, #93, #200, .T. ) ;
#147 = EDGE_LOOP ( 'NONE', ( #261, #180, #299, #283 ) ) ;
#148 = CARTESIAN_POINT ( 'NONE',  ( 1.337812123592763100E-17, 0.0000000000000000000, 0.1092406499999999947 ) ) ;
#149 =( NAMED_UNIT ( * ) SI_UNIT ( $, .STERADIAN. ) SOLID_ANGLE_UNIT ( ) );
#150 = APPLICATION_CONTEXT ( 'automotive_design' ) ;
#151 = EDGE_CURVE ( 'NONE', #62, #28, #285, .T. ) ;
#152 = CONICAL_SURFACE ( 'NONE', #86, 0.1092406499999999947, 0.1745329251994338637 ) ;
#153 = DIRECTION ( 'NONE',  ( -1.224646799147353207E-16, -0.0000000000000000000, -1.000000000000000000 ) ) ;
#154 = PLANE ( 'NONE',  #246 ) ;
#155 = LENGTH_MEASURE_WITH_UNIT ( LENGTH_MEASURE( 0.02539999999999999897 ), #252 );
#156 = VECTOR ( 'NONE', #81, 39.37007874015748143 ) ;
#157 = DIRECTION ( 'NONE',  ( 0.0000000000000000000, 0.0000000000000000000, 1.000000000000000000 ) ) ;
#158 = CARTESIAN_POINT ( 'NONE',  ( 0.1092406500000000502, 0.0000000000000000000, 0.6250000000000000000 ) ) ;
#159 = EDGE_CURVE ( 'NONE', #62, #93, #55, .T. ) ;
#160 = ORIENTED_EDGE ( 'NONE', *, *, #190, .T. ) ;
#161 = CARTESIAN_POINT ( 'NONE',  ( 7.654042494670957853E-17, 0.0000000000000000000, 0.6250000000000000000 ) ) ;
#162 = AXIS2_PLACEMENT_3D ( 'NONE', #211, #310, #111 ) ;
#163 =( LENGTH_UNIT ( ) NAMED_UNIT ( * ) SI_UNIT ( $, .METRE. ) );
#164 = DIRECTION ( 'NONE',  ( 1.000000000000000000, 0.0000000000000000000, 0.0000000000000000000 ) ) ;
#165 = DIRECTION ( 'NONE',  ( -1.224646799147353207E-16, -0.0000000000000000000, -1.000000000000000000 ) ) ;
#166 = EDGE_LOOP ( 'NONE', ( #297, #294, #264 ) ) ;
#167 = AXIS2_PLACEMENT_3D ( 'NONE', #108, #165, #313 ) ;
#168 = DIRECTION ( 'NONE',  ( -0.7071067811865499042, 0.0000000000000000000, -0.7071067811865451302 ) ) ;
#169 = PRODUCT_RELATED_PRODUCT_CATEGORY ( 'part', '', ( #300 ) ) ;
#170 =( LENGTH_UNIT ( ) NAMED_UNIT ( * ) SI_UNIT ( $, .METRE. ) );
#171 = VERTEX_POINT ( 'NONE', #34 ) ;
#172 = DIRECTION ( 'NONE',  ( -0.0000000000000000000, -0.0000000000000000000, -1.000000000000000000 ) ) ;
#173 = DIRECTION ( 'NONE',  ( 0.7071067811865499042, 8.659560562354961208E-17, -0.7071067811865451302 ) ) ;
#174 = EDGE_CURVE ( 'NONE', #249, #171, #213, .T. ) ;
#175 = LINE ( 'NONE', #234, #321 ) ;
#176 = CIRCLE ( 'NONE', #123, 0.1092406499999999947 ) ;
#177 = FACE_OUTER_BOUND ( 'NONE', #147, .T. ) ;
#178 = ORIENTED_EDGE ( 'NONE', *, *, #132, .T. ) ;
#179 = ADVANCED_FACE ( 'NONE', ( #13 ), #135, .T. ) ;
#180 = ORIENTED_EDGE ( 'NONE', *, *, #302, .T. ) ;
#181 = CIRCLE ( 'NONE', #312, 0.1092406499999999947 ) ;
#182 = DIRECTION ( 'NONE',  ( 0.1736481776669313581, 0.0000000000000000000, 0.9848077530122077983 ) ) ;
#183 = VERTEX_POINT ( 'NONE', #185 ) ;
#184 = ORIENTED_EDGE ( 'NONE', *, *, #45, .F. ) ;
#185 = CARTESIAN_POINT ( 'NONE',  ( -0.1092406499999999669, 0.0000000000000000000, 0.1092406500000000086 ) ) ;
#186 = VECTOR ( 'NONE', #74, 39.37007874015748143 ) ;
#187 = FACE_OUTER_BOUND ( 'NONE', #90, .T. ) ;
#188 = EDGE_CURVE ( 'NONE', #28, #62, #59, .T. ) ;
#189 = ORIENTED_EDGE ( 'NONE', *, *, #188, .F. ) ;
#190 = EDGE_CURVE ( 'NONE', #290, #183, #181, .T. ) ;
#191 = EDGE_CURVE ( 'NONE', #171, #3, #128, .T. ) ;
#192 = FACE_OUTER_BOUND ( 'NONE', #136, .T. ) ;
#193 = ORIENTED_EDGE ( 'NONE', *, *, #298, .T. ) ;
#194 = FACE_OUTER_BOUND ( 'NONE', #245, .T. ) ;
#195 = CARTESIAN_POINT ( 'NONE',  ( 1.337812123592763100E-17, 0.0000000000000000000, 0.1092406499999999947 ) ) ;
#196 = FILL_AREA_STYLE_COLOUR ( '', #229 ) ;
#197 = CARTESIAN_POINT ( 'NONE',  ( 0.0000000000000000000, 0.0000000000000000000, 0.0000000000000000000 ) ) ;
#198 = PRODUCT_DEFINITION_CONTEXT ( 'detailed design', #150, 'design' ) ;
#199 = CARTESIAN_POINT ( 'NONE',  ( 0.0000000000000000000, 0.0000000000000000000, 2.500000000000000000 ) ) ;
#200 = CIRCLE ( 'NONE', #167, 0.1250000000000000000 ) ;
#201 = AXIS2_PLACEMENT_3D ( 'NONE', #319, #12, #53 ) ;
#202 = CARTESIAN_POINT ( 'NONE',  ( 0.0000000000000000000, 0.0000000000000000000, 0.0000000000000000000 ) ) ;
#203 = APPLICATION_PROTOCOL_DEFINITION ( 'draft international standard', 'automotive_design', 1998, #289 ) ;
#204 = DIRECTION ( 'NONE',  ( -1.000000000000000000, 0.0000000000000000000, 0.0000000000000000000 ) ) ;
#205 = ADVANCED_FACE ( 'NONE', ( #64 ), #152, .T. ) ;
#206 = DIRECTION ( 'NONE',  ( 1.000000000000000000, 0.0000000000000000000, -0.0000000000000000000 ) ) ;
#207 = LINE ( 'NONE', #309, #186 ) ;
#208 = MANIFOLD_SOLID_BREP ( 'Fillet1', #41 ) ;
#209 = CARTESIAN_POINT ( 'NONE',  ( 1.337812123592763100E-17, 0.0000000000000000000, 0.1092406499999999947 ) ) ;
#210 = AXIS2_PLACEMENT_3D ( 'NONE', #161, #314, #56 ) ;
#211 = CARTESIAN_POINT ( 'NONE',  ( 1.337812123592763100E-17, 0.0000000000000000000, 0.1092406499999999947 ) ) ;
#212 = ORIENTED_EDGE ( 'NONE', *, *, #174, .F. ) ;
#213 = LINE ( 'NONE', #80, #235 ) ;
#214 = VECTOR ( 'NONE', #29, 39.37007874015747433 ) ;
#215 = ORIENTED_EDGE ( 'NONE', *, *, #4, .F. ) ;
#216 = DIRECTION ( 'NONE',  ( -1.000000000000000000, 0.0000000000000000000, 0.0000000000000000000 ) ) ;
#217 = VERTEX_POINT ( 'NONE', #36 ) ;
#218 = ORIENTED_EDGE ( 'NONE', *, *, #146, .T. ) ;
#219 = VECTOR ( 'NONE', #182, 39.37007874015748143 ) ;
#220 = ORIENTED_EDGE ( 'NONE', *, *, #188, .T. ) ;
#221 = DIRECTION ( 'NONE',  ( 1.224646799147353207E-16, 0.0000000000000000000, 1.000000000000000000 ) ) ;
#222 = UNCERTAINTY_MEASURE_WITH_UNIT (LENGTH_MEASURE( 1.000000000000000082E-05 ), #303, 'distance_accuracy_value', 'NONE');
#223 = ADVANCED_BREP_SHAPE_REPRESENTATION ( 'Micro_BEM-218-04X', ( #208, #230 ), #305 ) ;
#224 = AXIS2_PLACEMENT_3D ( 'NONE', #199, #172, #216 ) ;
#225 = SURFACE_STYLE_USAGE ( .BOTH. , #318 ) ;
#226 = FILL_AREA_STYLE ('',( #232 ) ) ;
#227 = ORIENTED_EDGE ( 'NONE', *, *, #151, .T. ) ;
#228 = ADVANCED_FACE ( 'NONE', ( #140 ), #43, .T. ) ;
#229 = COLOUR_RGB ( '',0.7921568627450980005, 0.8196078431372548767, 0.9333333333333333481 ) ;
#230 = AXIS2_PLACEMENT_3D ( 'NONE', #197, #254, #65 ) ;
#231 = CARTESIAN_POINT ( 'NONE',  ( 0.0000000000000000000, 0.0000000000000000000, 2.500000000000000000 ) ) ;
#232 = FILL_AREA_STYLE_COLOUR ( '', #255 ) ;
#233 = ORIENTED_EDGE ( 'NONE', *, *, #191, .T. ) ;
#234 = CARTESIAN_POINT ( 'NONE',  ( 0.1100000000000001948, 1.347111479062090784E-17, 2.500000000000000000 ) ) ;
#235 = VECTOR ( 'NONE', #168, 39.37007874015748143 ) ;
#236 = CARTESIAN_POINT ( 'NONE',  ( 0.0000000000000000000, 0.0000000000000000000, 2.485000000000000320 ) ) ;
#237 = CARTESIAN_POINT ( 'NONE',  ( 0.1092406499999999947, 1.337812123592763100E-17, -1.337812123592763100E-17 ) ) ;
#238 = DIMENSIONAL_EXPONENTS ( 1.000000000000000000, 0.0000000000000000000, 0.0000000000000000000, 0.0000000000000000000, 0.0000000000000000000, 0.0000000000000000000, 0.0000000000000000000 ) ;
#239 = ADVANCED_FACE ( 'NONE', ( #187 ), #137, .T. ) ;
#240 = EDGE_LOOP ( 'NONE', ( #220, #193, #160, #103 ) ) ;
#241 = EDGE_LOOP ( 'NONE', ( #83, #15 ) ) ;
#242 = DIRECTION ( 'NONE',  ( -1.224646799147353207E-16, -0.0000000000000000000, -1.000000000000000000 ) ) ;
#243 = ORIENTED_EDGE ( 'NONE', *, *, #70, .T. ) ;
#244 = EDGE_CURVE ( 'NONE', #183, #290, #176, .T. ) ;
#245 = EDGE_LOOP ( 'NONE', ( #87, #127, #233, #139 ) ) ;
#246 = AXIS2_PLACEMENT_3D ( 'NONE', #30, #157, #206 ) ;
#247 = ORIENTED_EDGE ( 'NONE', *, *, #298, .F. ) ;
#248 = CARTESIAN_POINT ( 'NONE',  ( -0.1100000000000001948, 0.0000000000000000000, 2.500000000000000000 ) ) ;
#249 = VERTEX_POINT ( 'NONE', #248 ) ;
#250 = FILL_AREA_STYLE ('',( #196 ) ) ;
#251 = DIRECTION ( 'NONE',  ( 0.0000000000000000000, 0.0000000000000000000, -1.000000000000000000 ) ) ;
#252 =( LENGTH_UNIT ( ) NAMED_UNIT ( * ) SI_UNIT ( $, .METRE. ) );
#253 = SPHERICAL_SURFACE ( 'NONE', #106, 0.1092406499999999947 ) ;
#254 = DIRECTION ( 'NONE',  ( 0.0000000000000000000, 0.0000000000000000000, 1.000000000000000000 ) ) ;
#255 = COLOUR_RGB ( '',0.7921568627450980005, 0.8196078431372548767, 0.9333333333333333481 ) ;
#256 = CARTESIAN_POINT ( 'NONE',  ( 1.337812123592763100E-17, 0.0000000000000000000, 0.1092406499999999947 ) ) ;
#257 = CYLINDRICAL_SURFACE ( 'NONE', #274, 0.1250000000000000000 ) ;
#258 = VERTEX_POINT ( 'NONE', #22 ) ;
#259 = CARTESIAN_POINT ( 'NONE',  ( 0.1092406500000000086, 1.337812123592763100E-17, 0.1092406499999999669 ) ) ;
#260 = ADVANCED_FACE ( 'NONE', ( #194 ), #121, .T. ) ;
#261 = ORIENTED_EDGE ( 'NONE', *, *, #45, .T. ) ;
#262 = CARTESIAN_POINT ( 'NONE',  ( 7.654042494670957853E-17, 0.0000000000000000000, 0.6250000000000000000 ) ) ;
#263 = AXIS2_PLACEMENT_3D ( 'NONE', #281, #251, #1 ) ;
#264 = ORIENTED_EDGE ( 'NONE', *, *, #190, .F. ) ;
#265 = EDGE_CURVE ( 'NONE', #258, #183, #35, .T. ) ;
#266 = ORIENTED_EDGE ( 'NONE', *, *, #244, .F. ) ;
#267 =( NAMED_UNIT ( * ) SI_UNIT ( $, .STERADIAN. ) SOLID_ANGLE_UNIT ( ) );
#268 = CARTESIAN_POINT ( 'NONE',  ( 0.0000000000000000000, 0.0000000000000000000, 0.0000000000000000000 ) ) ;
#269 = AXIS2_PLACEMENT_3D ( 'NONE', #293, #37, #142 ) ;
#270 = ORIENTED_EDGE ( 'NONE', *, *, #67, .F. ) ;
#271 =( CONVERSION_BASED_UNIT ( 'INCH', #40 ) LENGTH_UNIT ( ) NAMED_UNIT ( #23 ) );
#272 =( CONVERSION_BASED_UNIT ( 'INCH', #155 ) LENGTH_UNIT ( ) NAMED_UNIT ( #238 ) );
#273 = SURFACE_STYLE_FILL_AREA ( #226 ) ;
#274 = AXIS2_PLACEMENT_3D ( 'NONE', #129, #7, #100 ) ;
#275 = CONICAL_SURFACE ( 'NONE', #210, 0.1092406499999999947, 0.1745329251994338637 ) ;
#276 = ADVANCED_FACE ( 'NONE', ( #110 ), #287, .T. ) ;
#277 = ORIENTED_EDGE ( 'NONE', *, *, #286, .F. ) ;
#278 = CARTESIAN_POINT ( 'NONE',  ( -0.1249999999999999167, 0.0000000000000000000, 0.7143757151439918962 ) ) ;
#279 = LINE ( 'NONE', #122, #214 ) ;
#280 = DIRECTION ( 'NONE',  ( -1.000000000000000000, 0.0000000000000000000, 1.562975866621229869E-16 ) ) ;
#281 = CARTESIAN_POINT ( 'NONE',  ( 0.0000000000000000000, 0.0000000000000000000, 2.485000000000000320 ) ) ;
#282 = DIRECTION ( 'NONE',  ( -1.000000000000000000, 0.0000000000000000000, 1.224646799147353207E-16 ) ) ;
#283 = ORIENTED_EDGE ( 'NONE', *, *, #191, .F. ) ;
#284 = CARTESIAN_POINT ( 'NONE',  ( 0.0000000000000000000, 0.0000000000000000000, 2.500000000000000000 ) ) ;
#285 = CIRCLE ( 'NONE', #304, 0.1092406499999999947 ) ;
#286 = EDGE_CURVE ( 'NONE', #249, #58, #101, .T. ) ;
#287 = CONICAL_SURFACE ( 'NONE', #201, 0.1100000000000001948, 0.7853981633974517207 ) ;
#288 = ADVANCED_FACE ( 'NONE', ( #192 ), #275, .T. ) ;
#289 = APPLICATION_CONTEXT ( 'automotive_design' ) ;
#290 = VERTEX_POINT ( 'NONE', #259 ) ;
#291 = CARTESIAN_POINT ( 'NONE',  ( 7.654042494670957853E-17, 0.0000000000000000000, 0.6250000000000000000 ) ) ;
#292 = AXIS2_PLACEMENT_3D ( 'NONE', #231, #27, #47 ) ;
#293 = CARTESIAN_POINT ( 'NONE',  ( 0.0000000000000000000, 0.0000000000000000000, 2.500000000000000000 ) ) ;
#294 = ORIENTED_EDGE ( 'NONE', *, *, #265, .T. ) ;
#295 = DIRECTION ( 'NONE',  ( -1.000000000000000000, 0.0000000000000000000, 1.562975866621229869E-16 ) ) ;
#296 = DIRECTION ( 'NONE',  ( -1.224646799147353207E-16, -0.0000000000000000000, -1.000000000000000000 ) ) ;
#297 = ORIENTED_EDGE ( 'NONE', *, *, #132, .F. ) ;
#298 = EDGE_CURVE ( 'NONE', #62, #290, #89, .T. ) ;
#299 = ORIENTED_EDGE ( 'NONE', *, *, #146, .F. ) ;
#300 = PRODUCT ( 'Micro_BEM-218-04X', 'Micro_BEM-218-04X', '', ( #307 ) ) ;
#301 =( NAMED_UNIT ( * ) PLANE_ANGLE_UNIT ( ) SI_UNIT ( $, .RADIAN. ) );
#302 = EDGE_CURVE ( 'NONE', #217, #93, #104, .T. ) ;
#303 =( CONVERSION_BASED_UNIT ( 'INCH', #92 ) LENGTH_UNIT ( ) NAMED_UNIT ( #82 ) );
#304 = AXIS2_PLACEMENT_3D ( 'NONE', #262, #242, #85 ) ;
#305 =( GEOMETRIC_REPRESENTATION_CONTEXT ( 3 ) GLOBAL_UNCERTAINTY_ASSIGNED_CONTEXT ( ( #222 ) ) GLOBAL_UNIT_ASSIGNED_CONTEXT ( ( #303, #98, #125 ) ) REPRESENTATION_CONTEXT ( 'NONE', 'WORKASPACE' ) );
#306 = FACE_OUTER_BOUND ( 'NONE', #19, .T. ) ;
#307 = PRODUCT_CONTEXT ( 'NONE', #289, 'mechanical' ) ;
#308 = ORIENTED_EDGE ( 'NONE', *, *, #116, .T. ) ;
#309 = CARTESIAN_POINT ( 'NONE',  ( -0.1092406499999999947, 0.0000000000000000000, 1.337812123592763100E-17 ) ) ;
#310 = DIRECTION ( 'NONE',  ( 0.0000000000000000000, -1.000000000000000000, 0.0000000000000000000 ) ) ;
#311 = DIRECTION ( 'NONE',  ( -1.224646799147353207E-16, -0.0000000000000000000, -1.000000000000000000 ) ) ;
#312 = AXIS2_PLACEMENT_3D ( 'NONE', #209, #51, #280 ) ;
#313 = DIRECTION ( 'NONE',  ( 1.000000000000000000, 0.0000000000000000000, 0.0000000000000000000 ) ) ;
#314 = DIRECTION ( 'NONE',  ( 1.224646799147353207E-16, 0.0000000000000000000, 1.000000000000000000 ) ) ;
#315 = DIRECTION ( 'NONE',  ( 0.0000000000000000000, 1.000000000000000000, 0.0000000000000000000 ) ) ;
#316 = PRODUCT_DEFINITION_FORMATION_WITH_SPECIFIED_SOURCE ( 'ANY', '', #300, .NOT_KNOWN. ) ;
#317 = UNCERTAINTY_MEASURE_WITH_UNIT (LENGTH_MEASURE( 1.000000000000000082E-05 ), #271, 'distance_accuracy_value', 'NONE');
#318 = SURFACE_SIDE_STYLE ('',( #17 ) ) ;
#319 = CARTESIAN_POINT ( 'NONE',  ( 0.0000000000000000000, 0.0000000000000000000, 2.500000000000000000 ) ) ;
#320 = PRODUCT_DEFINITION_SHAPE ( 'NONE', 'NONE',  #91 ) ;
#321 = VECTOR ( 'NONE', #173, 39.37007874015748143 ) ;
#322 = PRESENTATION_LAYER_ASSIGNMENT (  '', '', ( #79 ) ) ;
#323 = DIRECTION ( 'NONE',  ( 1.000000000000000000, 0.0000000000000000000, 0.0000000000000000000 ) ) ;
#324 = SURFACE_SIDE_STYLE ('',( #273 ) ) ;
#325 = DIRECTION ( 'NONE',  ( -1.224646799147353207E-16, -0.0000000000000000000, -1.000000000000000000 ) ) ;
ENDSEC;
END-ISO-10303-21;
