ISO-10303-21;
HEADER;
FILE_DESCRIPTION (( 'STEP AP214' ),
    '1' );
FILE_NAME ('Micro_MMBM-005-5X.STEP',
    '2021-09-03T16:23:17',
    ( '' ),
    ( '' ),
    'SwSTEP 2.0',
    'SolidWorks 2020',
    '' );
FILE_SCHEMA (( 'AUTOMOTIVE_DESIGN' ));
ENDSEC;

DATA;
#1 = LINE ( 'NONE', #89, #250 ) ;
#2 = DIRECTION ( 'NONE',  ( 0.0000000000000000000, 0.0000000000000000000, 1.000000000000000000 ) ) ;
#3 = DIRECTION ( 'NONE',  ( -0.0000000000000000000, -0.0000000000000000000, -1.000000000000000000 ) ) ;
#4 = DIRECTION ( 'NONE',  ( 1.000000000000000000, 0.0000000000000000000, 0.0000000000000000000 ) ) ;
#5 = EDGE_CURVE ( 'NONE', #259, #312, #91, .T. ) ;
#6 = DIRECTION ( 'NONE',  ( -1.000000000000000000, 0.0000000000000000000, 0.0000000000000000000 ) ) ;
#7 = EDGE_CURVE ( 'NONE', #198, #180, #309, .T. ) ;
#8 = MECHANICAL_DESIGN_GEOMETRIC_PRESENTATION_REPRESENTATION (  '', ( #94 ), #230 ) ;
#9 = EDGE_CURVE ( 'NONE', #170, #49, #93, .T. ) ;
#10 =( NAMED_UNIT ( * ) PLANE_ANGLE_UNIT ( ) SI_UNIT ( $, .RADIAN. ) );
#11 = CONICAL_SURFACE ( 'NONE', #300, 0.06374000000000018540, 0.7853981633974528309 ) ;
#12 = EDGE_LOOP ( 'NONE', ( #55, #364, #338, #284 ) ) ;
#13 = EDGE_CURVE ( 'NONE', #212, #344, #82, .T. ) ;
#14 = ORIENTED_EDGE ( 'NONE', *, *, #9, .F. ) ;
#15 = ORIENTED_EDGE ( 'NONE', *, *, #313, .F. ) ;
#16 = ORIENTED_EDGE ( 'NONE', *, *, #118, .T. ) ;
#17 = AXIS2_PLACEMENT_3D ( 'NONE', #121, #62, #4 ) ;
#18 = SURFACE_SIDE_STYLE ('',( #243 ) ) ;
#19 = DIRECTION ( 'NONE',  ( -1.000000000000000000, 0.0000000000000000000, 0.0000000000000000000 ) ) ;
#20 = FACE_OUTER_BOUND ( 'NONE', #143, .T. ) ;
#21 = FACE_OUTER_BOUND ( 'NONE', #311, .T. ) ;
#22 = FACE_OUTER_BOUND ( 'NONE', #319, .T. ) ;
#23 = AXIS2_PLACEMENT_3D ( 'NONE', #291, #327, #25 ) ;
#24 = MECHANICAL_DESIGN_GEOMETRIC_PRESENTATION_REPRESENTATION (  '', ( #266 ), #152 ) ;
#25 = DIRECTION ( 'NONE',  ( -1.000000000000000000, 0.0000000000000000000, 0.0000000000000000000 ) ) ;
#26 = LINE ( 'NONE', #156, #316 ) ;
#27 = DIRECTION ( 'NONE',  ( 0.1736481776669307475, 2.126576849575776537E-17, -0.9848077530122077983 ) ) ;
#28 = EDGE_CURVE ( 'NONE', #344, #212, #136, .T. ) ;
#29 = ORIENTED_EDGE ( 'NONE', *, *, #28, .F. ) ;
#30 = FACE_OUTER_BOUND ( 'NONE', #286, .T. ) ;
#31 = UNCERTAINTY_MEASURE_WITH_UNIT (LENGTH_MEASURE( 1.000000000000000082E-05 ), #260, 'distance_accuracy_value', 'NONE');
#32 = DIRECTION ( 'NONE',  ( -1.000000000000000000, 0.0000000000000000000, 0.0000000000000000000 ) ) ;
#33 = DIRECTION ( 'NONE',  ( -0.0000000000000000000, -0.0000000000000000000, -1.000000000000000000 ) ) ;
#34 = CIRCLE ( 'NONE', #310, 0.07874000000000001831 ) ;
#35 = ADVANCED_FACE ( 'NONE', ( #146 ), #129, .T. ) ;
#36 = DIRECTION ( 'NONE',  ( 0.0000000000000000000, 0.0000000000000000000, 1.000000000000000000 ) ) ;
#37 = ADVANCED_FACE ( 'NONE', ( #21 ), #376, .T. ) ;
#38 = DIRECTION ( 'NONE',  ( -0.0000000000000000000, -0.0000000000000000000, -1.000000000000000000 ) ) ;
#39 = CARTESIAN_POINT ( 'NONE',  ( -0.07874000000000001831, 0.0000000000000000000, 1.953504000000000129 ) ) ;
#40 = CIRCLE ( 'NONE', #137, 0.07874000000000001831 ) ;
#41 =( NAMED_UNIT ( * ) SI_UNIT ( $, .STERADIAN. ) SOLID_ANGLE_UNIT ( ) );
#42 = EDGE_CURVE ( 'NONE', #252, #369, #341, .T. ) ;
#43 = ADVANCED_FACE ( 'NONE', ( #354 ), #130, .T. ) ;
#44 = ORIENTED_EDGE ( 'NONE', *, *, #108, .F. ) ;
#45 = ADVANCED_FACE ( 'NONE', ( #119 ), #257, .T. ) ;
#46 = AXIS2_PLACEMENT_3D ( 'NONE', #96, #151, #370 ) ;
#47 = ORIENTED_EDGE ( 'NONE', *, *, #217, .T. ) ;
#48 = ORIENTED_EDGE ( 'NONE', *, *, #173, .T. ) ;
#49 = VERTEX_POINT ( 'NONE', #95 ) ;
#50 = MANIFOLD_SOLID_BREP ( 'Cut-Revolve1', #339 ) ;
#51 = ORIENTED_EDGE ( 'NONE', *, *, #67, .T. ) ;
#52 = DIRECTION ( 'NONE',  ( 1.000000000000000000, 0.0000000000000000000, 0.0000000000000000000 ) ) ;
#53 = DIRECTION ( 'NONE',  ( 0.0000000000000000000, 0.0000000000000000000, 1.000000000000000000 ) ) ;
#54 = ADVANCED_BREP_SHAPE_REPRESENTATION ( 'Micro_MMBM-005-5X', ( #50, #258 ), #169 ) ;
#55 = ORIENTED_EDGE ( 'NONE', *, *, #269, .F. ) ;
#56 = CARTESIAN_POINT ( 'NONE',  ( 0.07874000000000001831, 9.642868896486260050E-18, 1.968503999999999809 ) ) ;
#57 = ORIENTED_EDGE ( 'NONE', *, *, #13, .T. ) ;
#58 = DIRECTION ( 'NONE',  ( -1.000000000000000000, 0.0000000000000000000, 0.0000000000000000000 ) ) ;
#59 = CARTESIAN_POINT ( 'NONE',  ( 0.009841515750000005142, 1.205238076199577027E-18, 0.0000000000000000000 ) ) ;
#60 = DIRECTION ( 'NONE',  ( -1.000000000000000000, 0.0000000000000000000, 0.0000000000000000000 ) ) ;
#61 = DIRECTION ( 'NONE',  ( -1.000000000000000000, 0.0000000000000000000, 0.0000000000000000000 ) ) ;
#62 = DIRECTION ( 'NONE',  ( 0.0000000000000000000, 0.0000000000000000000, -1.000000000000000000 ) ) ;
#63 = CARTESIAN_POINT ( 'NONE',  ( 0.0000000000000000000, 0.0000000000000000000, 0.01968500000000000111 ) ) ;
#64 = CARTESIAN_POINT ( 'NONE',  ( -0.009841515750000005142, 0.0000000000000000000, 0.01968500000000000111 ) ) ;
#65 = DIRECTION ( 'NONE',  ( -1.000000000000000000, 0.0000000000000000000, 0.0000000000000000000 ) ) ;
#66 = AXIS2_PLACEMENT_3D ( 'NONE', #280, #301, #177 ) ;
#67 = EDGE_CURVE ( 'NONE', #180, #138, #1, .T. ) ;
#68 = PRODUCT_DEFINITION ( 'UNKNOWN', '', #117, #361 ) ;
#69 =( LENGTH_UNIT ( ) NAMED_UNIT ( * ) SI_UNIT ( $, .METRE. ) );
#70 = EDGE_CURVE ( 'NONE', #198, #112, #277, .T. ) ;
#71 = AXIS2_PLACEMENT_3D ( 'NONE', #155, #371, #298 ) ;
#72 = FACE_OUTER_BOUND ( 'NONE', #12, .T. ) ;
#73 = ORIENTED_EDGE ( 'NONE', *, *, #217, .F. ) ;
#74 = CARTESIAN_POINT ( 'NONE',  ( 0.009449000000000025087, 1.157168760514336944E-18, 0.1968500000000000250 ) ) ;
#75 = EDGE_LOOP ( 'NONE', ( #229, #366, #51, #365 ) ) ;
#76 = AXIS2_PLACEMENT_3D ( 'NONE', #154, #233, #19 ) ;
#77 = VECTOR ( 'NONE', #162, 39.37007874015748143 ) ;
#78 = ORIENTED_EDGE ( 'NONE', *, *, #360, .F. ) ;
#79 = ORIENTED_EDGE ( 'NONE', *, *, #239, .F. ) ;
#80 = ORIENTED_EDGE ( 'NONE', *, *, #118, .F. ) ;
#81 = EDGE_CURVE ( 'NONE', #49, #170, #306, .T. ) ;
#82 = CIRCLE ( 'NONE', #299, 0.009449000000000002536 ) ;
#83 = AXIS2_PLACEMENT_3D ( 'NONE', #355, #147, #294 ) ;
#84 = LINE ( 'NONE', #264, #207 ) ;
#85 = CARTESIAN_POINT ( 'NONE',  ( 0.0000000000000000000, 0.0000000000000000000, 0.0000000000000000000 ) ) ;
#86 = DIRECTION ( 'NONE',  ( 0.0000000000000000000, 0.0000000000000000000, -1.000000000000000000 ) ) ;
#87 = DIRECTION ( 'NONE',  ( 1.000000000000000000, 0.0000000000000000000, -0.0000000000000000000 ) ) ;
#88 = DIRECTION ( 'NONE',  ( -0.0000000000000000000, -0.0000000000000000000, -1.000000000000000000 ) ) ;
#89 = CARTESIAN_POINT ( 'NONE',  ( -0.009841515750000005142, 0.0000000000000000000, 0.0000000000000000000 ) ) ;
#90 = CARTESIAN_POINT ( 'NONE',  ( 0.0000000000000000000, 0.0000000000000000000, 1.953504000000000129 ) ) ;
#91 = CIRCLE ( 'NONE', #265, 0.06374000000000018540 ) ;
#92 = CARTESIAN_POINT ( 'NONE',  ( 0.0000000000000000000, 0.0000000000000000000, 0.0000000000000000000 ) ) ;
#93 = CIRCLE ( 'NONE', #23, 0.009449000000000025087 ) ;
#94 = STYLED_ITEM ( 'NONE', ( #357 ), #50 ) ;
#95 = CARTESIAN_POINT ( 'NONE',  ( -0.009449000000000025087, 0.0000000000000000000, 0.1968500000000000250 ) ) ;
#96 = CARTESIAN_POINT ( 'NONE',  ( 0.0000000000000000000, 0.0000000000000000000, 1.968503999999999809 ) ) ;
#97 = DIRECTION ( 'NONE',  ( -0.0000000000000000000, -0.0000000000000000000, -1.000000000000000000 ) ) ;
#98 = DIRECTION ( 'NONE',  ( -1.000000000000000000, 0.0000000000000000000, 0.0000000000000000000 ) ) ;
#99 = CIRCLE ( 'NONE', #324, 0.009841515750000005142 ) ;
#100 = CARTESIAN_POINT ( 'NONE',  ( 0.0000000000000000000, 0.0000000000000000000, 1.968503999999999809 ) ) ;
#101 = EDGE_CURVE ( 'NONE', #344, #180, #321, .T. ) ;
#102 = DIRECTION ( 'NONE',  ( -1.000000000000000000, 0.0000000000000000000, 0.0000000000000000000 ) ) ;
#103 = VECTOR ( 'NONE', #292, 39.37007874015748143 ) ;
#104 = CIRCLE ( 'NONE', #66, 0.06374000000000018540 ) ;
#105 = DIMENSIONAL_EXPONENTS ( 1.000000000000000000, 0.0000000000000000000, 0.0000000000000000000, 0.0000000000000000000, 0.0000000000000000000, 0.0000000000000000000, 0.0000000000000000000 ) ;
#106 = ORIENTED_EDGE ( 'NONE', *, *, #67, .F. ) ;
#107 = ORIENTED_EDGE ( 'NONE', *, *, #239, .T. ) ;
#108 = EDGE_CURVE ( 'NONE', #212, #198, #295, .T. ) ;
#109 = ORIENTED_EDGE ( 'NONE', *, *, #28, .T. ) ;
#110 = AXIS2_PLACEMENT_3D ( 'NONE', #63, #289, #352 ) ;
#111 = VECTOR ( 'NONE', #3, 39.37007874015748143 ) ;
#112 = VERTEX_POINT ( 'NONE', #220 ) ;
#113 = ORIENTED_EDGE ( 'NONE', *, *, #108, .T. ) ;
#114 = DIRECTION ( 'NONE',  ( 0.0000000000000000000, 0.0000000000000000000, 1.000000000000000000 ) ) ;
#115 = CARTESIAN_POINT ( 'NONE',  ( 0.0000000000000000000, 0.0000000000000000000, 1.968503999999999809 ) ) ;
#116 = CARTESIAN_POINT ( 'NONE',  ( 0.06374000000000018540, 8.724383797125754882E-18, 1.968503999999999809 ) ) ;
#117 = PRODUCT_DEFINITION_FORMATION_WITH_SPECIFIED_SOURCE ( 'ANY', '', #194, .NOT_KNOWN. ) ;
#118 = EDGE_CURVE ( 'NONE', #369, #252, #165, .T. ) ;
#119 = FACE_OUTER_BOUND ( 'NONE', #232, .T. ) ;
#120 = DIRECTION ( 'NONE',  ( -0.0000000000000000000, -0.0000000000000000000, -1.000000000000000000 ) ) ;
#121 = CARTESIAN_POINT ( 'NONE',  ( 0.0000000000000000000, 0.0000000000000000000, 1.953504000000000129 ) ) ;
#122 = DIRECTION ( 'NONE',  ( -0.0000000000000000000, -0.0000000000000000000, -1.000000000000000000 ) ) ;
#123 = CARTESIAN_POINT ( 'NONE',  ( 0.0000000000000000000, 0.0000000000000000000, 0.0000000000000000000 ) ) ;
#124 = FILL_AREA_STYLE ('',( #185 ) ) ;
#125 = DIRECTION ( 'NONE',  ( 1.000000000000000000, 0.0000000000000000000, -0.0000000000000000000 ) ) ;
#126 = CARTESIAN_POINT ( 'NONE',  ( -0.009841515750000005142, 0.0000000000000000000, 0.01968500000000000111 ) ) ;
#127 = CARTESIAN_POINT ( 'NONE',  ( -0.009841515750000005142, 0.0000000000000000000, 0.0000000000000000000 ) ) ;
#128 = DIRECTION ( 'NONE',  ( 0.0000000000000000000, 0.0000000000000000000, -1.000000000000000000 ) ) ;
#129 = CONICAL_SURFACE ( 'NONE', #190, 0.009841515750000005142, 0.1745329251994333919 ) ;
#130 = CONICAL_SURFACE ( 'NONE', #142, 0.009841515750000005142, 0.1745329251994333919 ) ;
#131 = PRODUCT_DEFINITION_SHAPE ( 'NONE', 'NONE',  #68 ) ;
#132 =( CONVERSION_BASED_UNIT ( 'INCH', #246 ) LENGTH_UNIT ( ) NAMED_UNIT ( #166 ) );
#133 = UNCERTAINTY_MEASURE_WITH_UNIT (LENGTH_MEASURE( 1.000000000000000082E-05 ), #282, 'distance_accuracy_value', 'NONE');
#134 = LENGTH_MEASURE_WITH_UNIT ( LENGTH_MEASURE( 0.02539999999999999897 ), #222 );
#135 = EDGE_LOOP ( 'NONE', ( #174, #288 ) ) ;
#136 = CIRCLE ( 'NONE', #76, 0.009449000000000002536 ) ;
#137 = AXIS2_PLACEMENT_3D ( 'NONE', #211, #88, #214 ) ;
#138 = VERTEX_POINT ( 'NONE', #127 ) ;
#139 = EDGE_LOOP ( 'NONE', ( #205, #14 ) ) ;
#140 = EDGE_LOOP ( 'NONE', ( #44, #57, #346, #227 ) ) ;
#141 = ADVANCED_FACE ( 'NONE', ( #148 ), #378, .T. ) ;
#142 = AXIS2_PLACEMENT_3D ( 'NONE', #325, #373, #60 ) ;
#143 = EDGE_LOOP ( 'NONE', ( #15, #317, #235, #231 ) ) ;
#144 = EDGE_CURVE ( 'NONE', #256, #340, #40, .T. ) ;
#145 = LENGTH_MEASURE_WITH_UNIT ( LENGTH_MEASURE( 0.02539999999999999897 ), #237 );
#146 = FACE_OUTER_BOUND ( 'NONE', #140, .T. ) ;
#147 = DIRECTION ( 'NONE',  ( -0.0000000000000000000, -0.0000000000000000000, -1.000000000000000000 ) ) ;
#148 = FACE_OUTER_BOUND ( 'NONE', #167, .T. ) ;
#149 = DIRECTION ( 'NONE',  ( 1.000000000000000000, 0.0000000000000000000, 0.0000000000000000000 ) ) ;
#150 = AXIS2_PLACEMENT_3D ( 'NONE', #85, #184, #32 ) ;
#151 = DIRECTION ( 'NONE',  ( -0.0000000000000000000, -0.0000000000000000000, -1.000000000000000000 ) ) ;
#152 =( GEOMETRIC_REPRESENTATION_CONTEXT ( 3 ) GLOBAL_UNCERTAINTY_ASSIGNED_CONTEXT ( ( #133 ) ) GLOBAL_UNIT_ASSIGNED_CONTEXT ( ( #282, #10, #248 ) ) REPRESENTATION_CONTEXT ( 'NONE', 'WORKASPACE' ) );
#153 = DIRECTION ( 'NONE',  ( -0.1736481776669307475, 0.0000000000000000000, -0.9848077530122077983 ) ) ;
#154 = CARTESIAN_POINT ( 'NONE',  ( 0.0000000000000000000, 0.0000000000000000000, 0.02191106743688862185 ) ) ;
#155 = CARTESIAN_POINT ( 'NONE',  ( 0.0000000000000000000, 0.0000000000000000000, 0.0000000000000000000 ) ) ;
#156 = CARTESIAN_POINT ( 'NONE',  ( -0.07874000000000001831, 0.0000000000000000000, 1.968503999999999809 ) ) ;
#157 = CARTESIAN_POINT ( 'NONE',  ( 0.0000000000000000000, 0.0000000000000000000, 0.0000000000000000000 ) ) ;
#158 = PLANE ( 'NONE',  #315 ) ;
#159 = AXIS2_PLACEMENT_3D ( 'NONE', #273, #209, #61 ) ;
#160 = DIRECTION ( 'NONE',  ( 1.000000000000000000, 0.0000000000000000000, 0.0000000000000000000 ) ) ;
#161 = CARTESIAN_POINT ( 'NONE',  ( 0.0000000000000000000, 0.0000000000000000000, 0.1968500000000001082 ) ) ;
#162 = DIRECTION ( 'NONE',  ( -0.7071067811865507924, 0.0000000000000000000, -0.7071067811865443531 ) ) ;
#163 = EDGE_CURVE ( 'NONE', #312, #259, #104, .T. ) ;
#164 = AXIS2_PLACEMENT_3D ( 'NONE', #157, #122, #240 ) ;
#165 = CIRCLE ( 'NONE', #17, 0.07874000000000001831 ) ;
#166 = DIMENSIONAL_EXPONENTS ( 1.000000000000000000, 0.0000000000000000000, 0.0000000000000000000, 0.0000000000000000000, 0.0000000000000000000, 0.0000000000000000000, 0.0000000000000000000 ) ;
#167 = EDGE_LOOP ( 'NONE', ( #307, #285, #29, #208 ) ) ;
#168 = APPLICATION_PROTOCOL_DEFINITION ( 'draft international standard', 'automotive_design', 1998, #199 ) ;
#169 =( GEOMETRIC_REPRESENTATION_CONTEXT ( 3 ) GLOBAL_UNCERTAINTY_ASSIGNED_CONTEXT ( ( #215 ) ) GLOBAL_UNIT_ASSIGNED_CONTEXT ( ( #132, #279, #41 ) ) REPRESENTATION_CONTEXT ( 'NONE', 'WORKASPACE' ) );
#170 = VERTEX_POINT ( 'NONE', #74 ) ;
#171 = APPLICATION_CONTEXT ( 'automotive_design' ) ;
#172 = ORIENTED_EDGE ( 'NONE', *, *, #163, .T. ) ;
#173 = EDGE_CURVE ( 'NONE', #112, #138, #330, .T. ) ;
#174 = ORIENTED_EDGE ( 'NONE', *, *, #144, .T. ) ;
#175 = AXIS2_PLACEMENT_3D ( 'NONE', #241, #181, #58 ) ;
#176 = ORIENTED_EDGE ( 'NONE', *, *, #379, .F. ) ;
#177 = DIRECTION ( 'NONE',  ( 1.000000000000000000, 0.0000000000000000000, 0.0000000000000000000 ) ) ;
#178 = CARTESIAN_POINT ( 'NONE',  ( 0.0000000000000000000, 0.0000000000000000000, 0.02191106743688862185 ) ) ;
#179 = LINE ( 'NONE', #56, #103 ) ;
#180 = VERTEX_POINT ( 'NONE', #64 ) ;
#181 = DIRECTION ( 'NONE',  ( -0.0000000000000000000, -0.0000000000000000000, -1.000000000000000000 ) ) ;
#182 = DIRECTION ( 'NONE',  ( -0.0000000000000000000, -0.0000000000000000000, -1.000000000000000000 ) ) ;
#183 = AXIS2_PLACEMENT_3D ( 'NONE', #188, #272, #322 ) ;
#184 = DIRECTION ( 'NONE',  ( -0.0000000000000000000, -0.0000000000000000000, -1.000000000000000000 ) ) ;
#185 = FILL_AREA_STYLE_COLOUR ( '', #368 ) ;
#186 = DIRECTION ( 'NONE',  ( 0.7071067811865507924, 8.659560562354973534E-17, -0.7071067811865443531 ) ) ;
#187 = ADVANCED_FACE ( 'NONE', ( #22 ), #328, .T. ) ;
#188 = CARTESIAN_POINT ( 'NONE',  ( 0.0000000000000000000, 0.0000000000000000000, 1.968503999999999809 ) ) ;
#189 = CARTESIAN_POINT ( 'NONE',  ( 0.009449000000000002536, 1.181203418356955733E-18, 0.02191106743688862185 ) ) ;
#190 = AXIS2_PLACEMENT_3D ( 'NONE', #216, #182, #270 ) ;
#191 = AXIS2_PLACEMENT_3D ( 'NONE', #92, #53, #87 ) ;
#192 = EDGE_CURVE ( 'NONE', #252, #340, #179, .T. ) ;
#193 = ADVANCED_FACE ( 'NONE', ( #353 ), #290, .T. ) ;
#194 = PRODUCT ( 'Micro_MMBM-005-5X', 'Micro_MMBM-005-5X', '', ( #204 ) ) ;
#195 = ADVANCED_FACE ( 'NONE', ( #377 ), #213, .T. ) ;
#196 = VECTOR ( 'NONE', #27, 39.37007874015748854 ) ;
#197 = SURFACE_STYLE_USAGE ( .BOTH. , #334 ) ;
#198 = VERTEX_POINT ( 'NONE', #268 ) ;
#199 = APPLICATION_CONTEXT ( 'automotive_design' ) ;
#200 = ORIENTED_EDGE ( 'NONE', *, *, #144, .F. ) ;
#201 = PRESENTATION_LAYER_ASSIGNMENT (  '', '', ( #266 ) ) ;
#202 = ADVANCED_FACE ( 'NONE', ( #20 ), #326, .T. ) ;
#203 = EDGE_LOOP ( 'NONE', ( #109, #113, #73, #296 ) ) ;
#204 = PRODUCT_CONTEXT ( 'NONE', #171, 'mechanical' ) ;
#205 = ORIENTED_EDGE ( 'NONE', *, *, #81, .F. ) ;
#206 = EDGE_LOOP ( 'NONE', ( #331, #48 ) ) ;
#207 = VECTOR ( 'NONE', #350, 39.37007874015748143 ) ;
#208 = ORIENTED_EDGE ( 'NONE', *, *, #335, .F. ) ;
#209 = DIRECTION ( 'NONE',  ( -0.0000000000000000000, 0.0000000000000000000, -1.000000000000000000 ) ) ;
#210 = CARTESIAN_POINT ( 'NONE',  ( -0.07874000000000001831, 0.0000000000000000000, 0.1968500000000001082 ) ) ;
#211 = CARTESIAN_POINT ( 'NONE',  ( 0.0000000000000000000, 0.0000000000000000000, 0.1968500000000001082 ) ) ;
#212 = VERTEX_POINT ( 'NONE', #189 ) ;
#213 = CYLINDRICAL_SURFACE ( 'NONE', #226, 0.009841515750000005142 ) ;
#214 = DIRECTION ( 'NONE',  ( -1.000000000000000000, 0.0000000000000000000, 0.0000000000000000000 ) ) ;
#215 = UNCERTAINTY_MEASURE_WITH_UNIT (LENGTH_MEASURE( 1.000000000000000082E-05 ), #132, 'distance_accuracy_value', 'NONE');
#216 = CARTESIAN_POINT ( 'NONE',  ( 0.0000000000000000000, 0.0000000000000000000, 0.01968500000000000111 ) ) ;
#217 = EDGE_CURVE ( 'NONE', #180, #198, #275, .T. ) ;
#218 = VECTOR ( 'NONE', #153, 39.37007874015748854 ) ;
#219 = CARTESIAN_POINT ( 'NONE',  ( 0.06374000000000018540, 7.805898697765251255E-18, 1.968503999999999809 ) ) ;
#220 = CARTESIAN_POINT ( 'NONE',  ( 0.009841515750000005142, 1.205238076199577027E-18, 0.0000000000000000000 ) ) ;
#221 = FACE_BOUND ( 'NONE', #139, .T. ) ;
#222 =( LENGTH_UNIT ( ) NAMED_UNIT ( * ) SI_UNIT ( $, .METRE. ) );
#223 = EDGE_LOOP ( 'NONE', ( #16, #255, #200, #79 ) ) ;
#224 = COLOUR_RGB ( '',0.7921568627450980005, 0.8196078431372548767, 0.9333333333333333481 ) ;
#225 = SURFACE_STYLE_FILL_AREA ( #278 ) ;
#226 = AXIS2_PLACEMENT_3D ( 'NONE', #123, #323, #374 ) ;
#227 = ORIENTED_EDGE ( 'NONE', *, *, #7, .F. ) ;
#228 = ORIENTED_EDGE ( 'NONE', *, *, #343, .F. ) ;
#229 = ORIENTED_EDGE ( 'NONE', *, *, #70, .F. ) ;
#230 =( GEOMETRIC_REPRESENTATION_CONTEXT ( 3 ) GLOBAL_UNCERTAINTY_ASSIGNED_CONTEXT ( ( #31 ) ) GLOBAL_UNIT_ASSIGNED_CONTEXT ( ( #260, #349, #254 ) ) REPRESENTATION_CONTEXT ( 'NONE', 'WORKASPACE' ) );
#231 = ORIENTED_EDGE ( 'NONE', *, *, #13, .F. ) ;
#232 = EDGE_LOOP ( 'NONE', ( #337, #367, #80, #176 ) ) ;
#233 = DIRECTION ( 'NONE',  ( -0.0000000000000000000, -0.0000000000000000000, -1.000000000000000000 ) ) ;
#234 = LINE ( 'NONE', #348, #363 ) ;
#235 = ORIENTED_EDGE ( 'NONE', *, *, #335, .T. ) ;
#236 = PLANE ( 'NONE',  #159 ) ;
#237 =( LENGTH_UNIT ( ) NAMED_UNIT ( * ) SI_UNIT ( $, .METRE. ) );
#238 = PLANE ( 'NONE',  #191 ) ;
#239 = EDGE_CURVE ( 'NONE', #369, #256, #26, .T. ) ;
#240 = DIRECTION ( 'NONE',  ( -1.000000000000000000, 0.0000000000000000000, 0.0000000000000000000 ) ) ;
#241 = CARTESIAN_POINT ( 'NONE',  ( 0.0000000000000000000, 0.0000000000000000000, 1.968503999999999809 ) ) ;
#242 = DIRECTION ( 'NONE',  ( -1.000000000000000000, 0.0000000000000000000, 0.0000000000000000000 ) ) ;
#243 = SURFACE_STYLE_FILL_AREA ( #124 ) ;
#244 = CARTESIAN_POINT ( 'NONE',  ( -0.06374000000000018540, 0.0000000000000000000, 1.968503999999999809 ) ) ;
#245 = CARTESIAN_POINT ( 'NONE',  ( 0.0000000000000000000, 0.0000000000000000000, 0.0000000000000000000 ) ) ;
#246 = LENGTH_MEASURE_WITH_UNIT ( LENGTH_MEASURE( 0.02539999999999999897 ), #69 );
#247 = AXIS2_PLACEMENT_3D ( 'NONE', #372, #351, #242 ) ;
#248 =( NAMED_UNIT ( * ) SI_UNIT ( $, .STERADIAN. ) SOLID_ANGLE_UNIT ( ) );
#249 = ORIENTED_EDGE ( 'NONE', *, *, #70, .T. ) ;
#250 = VECTOR ( 'NONE', #33, 39.37007874015748143 ) ;
#251 = DIMENSIONAL_EXPONENTS ( 1.000000000000000000, 0.0000000000000000000, 0.0000000000000000000, 0.0000000000000000000, 0.0000000000000000000, 0.0000000000000000000, 0.0000000000000000000 ) ;
#252 = VERTEX_POINT ( 'NONE', #261 ) ;
#253 = ADVANCED_FACE ( 'NONE', ( #297 ), #238, .F. ) ;
#254 =( NAMED_UNIT ( * ) SI_UNIT ( $, .STERADIAN. ) SOLID_ANGLE_UNIT ( ) );
#255 = ORIENTED_EDGE ( 'NONE', *, *, #192, .T. ) ;
#256 = VERTEX_POINT ( 'NONE', #210 ) ;
#257 = CONICAL_SURFACE ( 'NONE', #183, 0.06374000000000018540, 0.7853981633974528309 ) ;
#258 = AXIS2_PLACEMENT_3D ( 'NONE', #245, #36, #160 ) ;
#259 = VERTEX_POINT ( 'NONE', #116 ) ;
#260 =( CONVERSION_BASED_UNIT ( 'INCH', #145 ) LENGTH_UNIT ( ) NAMED_UNIT ( #251 ) );
#261 = CARTESIAN_POINT ( 'NONE',  ( 0.07874000000000001831, 9.642868896486260050E-18, 1.953504000000000129 ) ) ;
#262 = SURFACE_STYLE_USAGE ( .BOTH. , #18 ) ;
#263 = ADVANCED_FACE ( 'NONE', ( #221, #271 ), #236, .T. ) ;
#264 = CARTESIAN_POINT ( 'NONE',  ( -0.009449000000000014679, 0.0000000000000000000, 0.0000000000000000000 ) ) ;
#265 = AXIS2_PLACEMENT_3D ( 'NONE', #293, #114, #52 ) ;
#266 = STYLED_ITEM ( 'NONE', ( #336 ), #54 ) ;
#267 = DIRECTION ( 'NONE',  ( -1.000000000000000000, 0.0000000000000000000, 0.0000000000000000000 ) ) ;
#268 = CARTESIAN_POINT ( 'NONE',  ( 0.009841515750000005142, 1.205238076199577027E-18, 0.01968500000000000111 ) ) ;
#269 = EDGE_CURVE ( 'NONE', #259, #252, #318, .T. ) ;
#270 = DIRECTION ( 'NONE',  ( -1.000000000000000000, 0.0000000000000000000, 0.0000000000000000000 ) ) ;
#271 = FACE_OUTER_BOUND ( 'NONE', #135, .T. ) ;
#272 = DIRECTION ( 'NONE',  ( 0.0000000000000000000, 0.0000000000000000000, -1.000000000000000000 ) ) ;
#273 = CARTESIAN_POINT ( 'NONE',  ( 0.009449000000000025087, 0.0000000000000000000, 0.1968500000000000250 ) ) ;
#274 = PRODUCT_RELATED_PRODUCT_CATEGORY ( 'part', '', ( #194 ) ) ;
#275 = CIRCLE ( 'NONE', #83, 0.009841515750000005142 ) ;
#276 = CARTESIAN_POINT ( 'NONE',  ( 0.0000000000000000000, 0.0000000000000000000, 0.0000000000000000000 ) ) ;
#277 = LINE ( 'NONE', #59, #111 ) ;
#278 = FILL_AREA_STYLE ('',( #362 ) ) ;
#279 =( NAMED_UNIT ( * ) PLANE_ANGLE_UNIT ( ) SI_UNIT ( $, .RADIAN. ) );
#280 = CARTESIAN_POINT ( 'NONE',  ( 0.0000000000000000000, 0.0000000000000000000, 1.968503999999999809 ) ) ;
#281 = ADVANCED_FACE ( 'NONE', ( #30 ), #158, .T. ) ;
#282 =( CONVERSION_BASED_UNIT ( 'INCH', #134 ) LENGTH_UNIT ( ) NAMED_UNIT ( #105 ) );
#283 = ORIENTED_EDGE ( 'NONE', *, *, #5, .T. ) ;
#284 = ORIENTED_EDGE ( 'NONE', *, *, #42, .F. ) ;
#285 = ORIENTED_EDGE ( 'NONE', *, *, #313, .T. ) ;
#286 = EDGE_LOOP ( 'NONE', ( #172, #283 ) ) ;
#287 = PRESENTATION_LAYER_ASSIGNMENT (  '', '', ( #94 ) ) ;
#288 = ORIENTED_EDGE ( 'NONE', *, *, #360, .T. ) ;
#289 = DIRECTION ( 'NONE',  ( -0.0000000000000000000, -0.0000000000000000000, -1.000000000000000000 ) ) ;
#290 = CYLINDRICAL_SURFACE ( 'NONE', #46, 0.07874000000000001831 ) ;
#291 = CARTESIAN_POINT ( 'NONE',  ( 0.0000000000000000000, 0.0000000000000000000, 0.1968500000000000250 ) ) ;
#292 = DIRECTION ( 'NONE',  ( -0.0000000000000000000, -0.0000000000000000000, -1.000000000000000000 ) ) ;
#293 = CARTESIAN_POINT ( 'NONE',  ( 0.0000000000000000000, 0.0000000000000000000, 1.968503999999999809 ) ) ;
#294 = DIRECTION ( 'NONE',  ( -1.000000000000000000, 0.0000000000000000000, 0.0000000000000000000 ) ) ;
#295 = LINE ( 'NONE', #329, #196 ) ;
#296 = ORIENTED_EDGE ( 'NONE', *, *, #101, .F. ) ;
#297 = FACE_OUTER_BOUND ( 'NONE', #206, .T. ) ;
#298 = DIRECTION ( 'NONE',  ( -1.000000000000000000, 0.0000000000000000000, 0.0000000000000000000 ) ) ;
#299 = AXIS2_PLACEMENT_3D ( 'NONE', #178, #347, #267 ) ;
#300 = AXIS2_PLACEMENT_3D ( 'NONE', #100, #128, #98 ) ;
#301 = DIRECTION ( 'NONE',  ( 0.0000000000000000000, 0.0000000000000000000, 1.000000000000000000 ) ) ;
#302 = CARTESIAN_POINT ( 'NONE',  ( -0.06374000000000018540, 0.0000000000000000000, 1.968503999999999809 ) ) ;
#303 = CARTESIAN_POINT ( 'NONE',  ( -0.009449000000000002536, 0.0000000000000000000, 0.02191106743688862185 ) ) ;
#304 = APPLICATION_PROTOCOL_DEFINITION ( 'draft international standard', 'automotive_design', 1998, #171 ) ;
#305 = AXIS2_PLACEMENT_3D ( 'NONE', #90, #86, #149 ) ;
#306 = CIRCLE ( 'NONE', #356, 0.009449000000000025087 ) ;
#307 = ORIENTED_EDGE ( 'NONE', *, *, #81, .T. ) ;
#308 = ORIENTED_EDGE ( 'NONE', *, *, #42, .T. ) ;
#309 = CIRCLE ( 'NONE', #110, 0.009841515750000005142 ) ;
#310 = AXIS2_PLACEMENT_3D ( 'NONE', #161, #333, #102 ) ;
#311 = EDGE_LOOP ( 'NONE', ( #47, #249, #228, #106 ) ) ;
#312 = VERTEX_POINT ( 'NONE', #244 ) ;
#313 = EDGE_CURVE ( 'NONE', #170, #212, #234, .T. ) ;
#314 = ORIENTED_EDGE ( 'NONE', *, *, #192, .F. ) ;
#315 = AXIS2_PLACEMENT_3D ( 'NONE', #115, #2, #125 ) ;
#316 = VECTOR ( 'NONE', #120, 39.37007874015748143 ) ;
#317 = ORIENTED_EDGE ( 'NONE', *, *, #9, .T. ) ;
#318 = LINE ( 'NONE', #219, #342 ) ;
#319 = EDGE_LOOP ( 'NONE', ( #314, #308, #107, #78 ) ) ;
#320 = CARTESIAN_POINT ( 'NONE',  ( 0.07874000000000001831, 9.642868896486260050E-18, 0.1968500000000001082 ) ) ;
#321 = LINE ( 'NONE', #126, #218 ) ;
#322 = DIRECTION ( 'NONE',  ( -1.000000000000000000, 0.0000000000000000000, 0.0000000000000000000 ) ) ;
#323 = DIRECTION ( 'NONE',  ( -0.0000000000000000000, -0.0000000000000000000, -1.000000000000000000 ) ) ;
#324 = AXIS2_PLACEMENT_3D ( 'NONE', #276, #38, #6 ) ;
#325 = CARTESIAN_POINT ( 'NONE',  ( 0.0000000000000000000, 0.0000000000000000000, 0.01968500000000000111 ) ) ;
#326 = CYLINDRICAL_SURFACE ( 'NONE', #150, 0.009449000000000014679 ) ;
#327 = DIRECTION ( 'NONE',  ( -0.0000000000000000000, -0.0000000000000000000, -1.000000000000000000 ) ) ;
#328 = CYLINDRICAL_SURFACE ( 'NONE', #175, 0.07874000000000001831 ) ;
#329 = CARTESIAN_POINT ( 'NONE',  ( 0.009841515750000005142, 1.205238076199577027E-18, 0.01968500000000000111 ) ) ;
#330 = CIRCLE ( 'NONE', #71, 0.009841515750000005142 ) ;
#331 = ORIENTED_EDGE ( 'NONE', *, *, #343, .T. ) ;
#332 = LINE ( 'NONE', #302, #77 ) ;
#333 = DIRECTION ( 'NONE',  ( -0.0000000000000000000, -0.0000000000000000000, -1.000000000000000000 ) ) ;
#334 = SURFACE_SIDE_STYLE ('',( #225 ) ) ;
#335 = EDGE_CURVE ( 'NONE', #49, #344, #84, .T. ) ;
#336 = PRESENTATION_STYLE_ASSIGNMENT (( #197 ) ) ;
#337 = ORIENTED_EDGE ( 'NONE', *, *, #5, .F. ) ;
#338 = ORIENTED_EDGE ( 'NONE', *, *, #379, .T. ) ;
#339 = CLOSED_SHELL ( 'NONE', ( #37, #141, #43, #45, #193, #187, #281, #358, #263, #35, #202, #195, #253 ) ) ;
#340 = VERTEX_POINT ( 'NONE', #320 ) ;
#341 = CIRCLE ( 'NONE', #305, 0.07874000000000001831 ) ;
#342 = VECTOR ( 'NONE', #186, 39.37007874015748143 ) ;
#343 = EDGE_CURVE ( 'NONE', #138, #112, #99, .T. ) ;
#344 = VERTEX_POINT ( 'NONE', #303 ) ;
#345 = SHAPE_DEFINITION_REPRESENTATION ( #131, #54 ) ;
#346 = ORIENTED_EDGE ( 'NONE', *, *, #101, .T. ) ;
#347 = DIRECTION ( 'NONE',  ( -0.0000000000000000000, -0.0000000000000000000, -1.000000000000000000 ) ) ;
#348 = CARTESIAN_POINT ( 'NONE',  ( 0.009449000000000014679, 1.157168760514335788E-18, 0.0000000000000000000 ) ) ;
#349 =( NAMED_UNIT ( * ) PLANE_ANGLE_UNIT ( ) SI_UNIT ( $, .RADIAN. ) );
#350 = DIRECTION ( 'NONE',  ( -0.0000000000000000000, -0.0000000000000000000, -1.000000000000000000 ) ) ;
#351 = DIRECTION ( 'NONE',  ( -0.0000000000000000000, -0.0000000000000000000, -1.000000000000000000 ) ) ;
#352 = DIRECTION ( 'NONE',  ( -1.000000000000000000, 0.0000000000000000000, 0.0000000000000000000 ) ) ;
#353 = FACE_OUTER_BOUND ( 'NONE', #223, .T. ) ;
#354 = FACE_OUTER_BOUND ( 'NONE', #203, .T. ) ;
#355 = CARTESIAN_POINT ( 'NONE',  ( 0.0000000000000000000, 0.0000000000000000000, 0.01968500000000000111 ) ) ;
#356 = AXIS2_PLACEMENT_3D ( 'NONE', #375, #97, #65 ) ;
#357 = PRESENTATION_STYLE_ASSIGNMENT (( #262 ) ) ;
#358 = ADVANCED_FACE ( 'NONE', ( #72 ), #11, .T. ) ;
#359 = DIRECTION ( 'NONE',  ( -0.0000000000000000000, -0.0000000000000000000, -1.000000000000000000 ) ) ;
#360 = EDGE_CURVE ( 'NONE', #340, #256, #34, .T. ) ;
#361 = PRODUCT_DEFINITION_CONTEXT ( 'detailed design', #199, 'design' ) ;
#362 = FILL_AREA_STYLE_COLOUR ( '', #224 ) ;
#363 = VECTOR ( 'NONE', #359, 39.37007874015748143 ) ;
#364 = ORIENTED_EDGE ( 'NONE', *, *, #163, .F. ) ;
#365 = ORIENTED_EDGE ( 'NONE', *, *, #173, .F. ) ;
#366 = ORIENTED_EDGE ( 'NONE', *, *, #7, .T. ) ;
#367 = ORIENTED_EDGE ( 'NONE', *, *, #269, .T. ) ;
#368 = COLOUR_RGB ( '',0.7921568627450980005, 0.8196078431372548767, 0.9333333333333333481 ) ;
#369 = VERTEX_POINT ( 'NONE', #39 ) ;
#370 = DIRECTION ( 'NONE',  ( -1.000000000000000000, 0.0000000000000000000, 0.0000000000000000000 ) ) ;
#371 = DIRECTION ( 'NONE',  ( -0.0000000000000000000, -0.0000000000000000000, -1.000000000000000000 ) ) ;
#372 = CARTESIAN_POINT ( 'NONE',  ( 0.0000000000000000000, 0.0000000000000000000, 0.0000000000000000000 ) ) ;
#373 = DIRECTION ( 'NONE',  ( -0.0000000000000000000, -0.0000000000000000000, -1.000000000000000000 ) ) ;
#374 = DIRECTION ( 'NONE',  ( -1.000000000000000000, 0.0000000000000000000, 0.0000000000000000000 ) ) ;
#375 = CARTESIAN_POINT ( 'NONE',  ( 0.0000000000000000000, 0.0000000000000000000, 0.1968500000000000250 ) ) ;
#376 = CYLINDRICAL_SURFACE ( 'NONE', #164, 0.009841515750000005142 ) ;
#377 = FACE_OUTER_BOUND ( 'NONE', #75, .T. ) ;
#378 = CYLINDRICAL_SURFACE ( 'NONE', #247, 0.009449000000000014679 ) ;
#379 = EDGE_CURVE ( 'NONE', #312, #369, #332, .T. ) ;
ENDSEC;
END-ISO-10303-21;
