ISO-10303-21;
HEADER;
FILE_DESCRIPTION (( 'STEP AP214' ),
    '1' );
FILE_NAME ('24022.STEP',
    '2023-06-22T16:52:48',
    ( '' ),
    ( '' ),
    'SwSTEP 2.0',
    'SolidWorks 2023',
    '' );
FILE_SCHEMA (( 'AUTOMOTIVE_DESIGN' ));
ENDSEC;

DATA;
#1 = EDGE_LOOP ( 'NONE', ( #49, #162 ) ) ;
#2 = CIRCLE ( 'NONE', #109, 0.1250000000000000000 ) ;
#3 = LENGTH_MEASURE_WITH_UNIT ( LENGTH_MEASURE( 0.02539999999999999897 ), #29 );
#4 = DIMENSIONAL_EXPONENTS ( 1.000000000000000000, 0.000000000000000000, 0.000000000000000000, 0.000000000000000000, 0.000000000000000000, 0.000000000000000000, 0.000000000000000000 ) ;
#5 =( LENGTH_UNIT ( ) NAMED_UNIT ( * ) SI_UNIT ( $, .METRE. ) );
#6 = DIRECTION ( 'NONE',  ( 0.000000000000000000, -1.000000000000000000, -0.000000000000000000 ) ) ;
#7 = PLANE ( 'NONE',  #64 ) ;
#8 = PRESENTATION_LAYER_ASSIGNMENT (  '', '', ( #24 ) ) ;
#9 =( NAMED_UNIT ( * ) SI_UNIT ( $, .STERADIAN. ) SOLID_ANGLE_UNIT ( ) );
#10 = DIRECTION ( 'NONE',  ( -3.061616997868379936E-17, 1.000000000000000000, -0.000000000000000000 ) ) ;
#11 = DIRECTION ( 'NONE',  ( -1.000000000000000000, -3.061616997868379936E-17, 0.000000000000000000 ) ) ;
#12 =( LENGTH_UNIT ( ) NAMED_UNIT ( * ) SI_UNIT ( $, .METRE. ) );
#13 = MECHANICAL_DESIGN_GEOMETRIC_PRESENTATION_REPRESENTATION (  '', ( #296 ), #165 ) ;
#14 = COLOUR_RGB ( '',0.7921568627450980005, 0.8196078431372548767, 0.9333333333333333481 ) ;
#15 = DIRECTION ( 'NONE',  ( -3.061616997868379936E-17, 1.000000000000000000, -0.000000000000000000 ) ) ;
#16 = PRESENTATION_LAYER_ASSIGNMENT (  '', '', ( #151 ) ) ;
#17 = CIRCLE ( 'NONE', #251, 0.1250000000000000555 ) ;
#18 = DIRECTION ( 'NONE',  ( -3.061616997868379936E-17, 1.000000000000000000, -0.000000000000000000 ) ) ;
#19 = EDGE_LOOP ( 'NONE', ( #283, #252, #76, #126 ) ) ;
#20 = DIRECTION ( 'NONE',  ( -3.061616997868379936E-17, 1.000000000000000000, -0.000000000000000000 ) ) ;
#21 = ORIENTED_EDGE ( 'NONE', *, *, #152, .T. ) ;
#22 = EDGE_CURVE ( 'NONE', #72, #136, #59, .T. ) ;
#23 =( GEOMETRIC_REPRESENTATION_CONTEXT ( 3 ) GLOBAL_UNCERTAINTY_ASSIGNED_CONTEXT ( ( #297 ) ) GLOBAL_UNIT_ASSIGNED_CONTEXT ( ( #263, #118, #9 ) ) REPRESENTATION_CONTEXT ( 'NONE', 'WORKASPACE' ) );
#24 = STYLED_ITEM ( 'NONE', ( #211 ), #300 ) ;
#25 = DIRECTION ( 'NONE',  ( 1.000000000000000000, 0.000000000000000000, 0.000000000000000000 ) ) ;
#26 = DIMENSIONAL_EXPONENTS ( 1.000000000000000000, 0.000000000000000000, 0.000000000000000000, 0.000000000000000000, 0.000000000000000000, 0.000000000000000000, 0.000000000000000000 ) ;
#27 = UNCERTAINTY_MEASURE_WITH_UNIT (LENGTH_MEASURE( 1.000000000000000082E-05 ), #103, 'distance_accuracy_value', 'NONE');
#28 = SHAPE_DEFINITION_REPRESENTATION ( #214, #223 ) ;
#29 =( LENGTH_UNIT ( ) NAMED_UNIT ( * ) SI_UNIT ( $, .METRE. ) );
#30 = FILL_AREA_STYLE_COLOUR ( '', #216 ) ;
#31 = MECHANICAL_DESIGN_GEOMETRIC_PRESENTATION_REPRESENTATION (  '', ( #262 ), #67 ) ;
#32 = SURFACE_SIDE_STYLE ('',( #242 ) ) ;
#33 = ADVANCED_FACE ( 'NONE', ( #124 ), #7, .T. ) ;
#34 = SURFACE_STYLE_FILL_AREA ( #275 ) ;
#35 = MANIFOLD_SOLID_BREP ( 'Revolve - Cutting Edge', #171 ) ;
#36 = CIRCLE ( 'NONE', #204, 0.1250000000000000555 ) ;
#37 = LENGTH_MEASURE_WITH_UNIT ( LENGTH_MEASURE( 0.02539999999999999897 ), #272 );
#38 = PRESENTATION_STYLE_ASSIGNMENT (( #177 ) ) ;
#39 = CARTESIAN_POINT ( 'NONE',  ( 5.858436651022869520E-35, 0.5000000000000000000, 0.000000000000000000 ) ) ;
#40 = ADVANCED_FACE ( 'NONE', ( #265 ), #60, .T. ) ;
#41 = PRESENTATION_LAYER_ASSIGNMENT (  '', '', ( #296 ) ) ;
#42 = STYLED_ITEM ( 'NONE', ( #258 ), #273 ) ;
#43 = CARTESIAN_POINT ( 'NONE',  ( 1.530808498934191817E-17, 0.000000000000000000, 0.1250000000000000278 ) ) ;
#44 = ORIENTED_EDGE ( 'NONE', *, *, #22, .T. ) ;
#45 = MANIFOLD_SOLID_BREP ( 'Revolve - Tool Body (Straight Shanked)', #51 ) ;
#46 = CARTESIAN_POINT ( 'NONE',  ( -6.123233995736759873E-17, 2.500000000000000000, 0.000000000000000000 ) ) ;
#47 = EDGE_LOOP ( 'NONE', ( #168, #207, #54, #285 ) ) ;
#48 = CARTESIAN_POINT ( 'NONE',  ( 0.000000000000000000, 0.5000000000000001110, 0.000000000000000000 ) ) ;
#49 = ORIENTED_EDGE ( 'NONE', *, *, #221, .T. ) ;
#50 = DIRECTION ( 'NONE',  ( -3.061616997868379936E-17, 1.000000000000000000, -0.000000000000000000 ) ) ;
#51 = CLOSED_SHELL ( 'NONE', ( #79, #121, #217, #212 ) ) ;
#52 =( GEOMETRIC_REPRESENTATION_CONTEXT ( 3 ) GLOBAL_UNCERTAINTY_ASSIGNED_CONTEXT ( ( #287 ) ) GLOBAL_UNIT_ASSIGNED_CONTEXT ( ( #84, #246, #63 ) ) REPRESENTATION_CONTEXT ( 'NONE', 'WORKASPACE' ) );
#53 =( CONVERSION_BASED_UNIT ( 'INCH', #253 ) LENGTH_UNIT ( ) NAMED_UNIT ( #237 ) );
#54 = ORIENTED_EDGE ( 'NONE', *, *, #163, .T. ) ;
#55 = SURFACE_STYLE_FILL_AREA ( #298 ) ;
#56 = CIRCLE ( 'NONE', #219, 0.1250000000000000000 ) ;
#57 = CARTESIAN_POINT ( 'NONE',  ( 0.000000000000000000, 0.000000000000000000, 0.000000000000000000 ) ) ;
#58 = FILL_AREA_STYLE_COLOUR ( '', #230 ) ;
#59 = LINE ( 'NONE', #293, #203 ) ;
#60 = PLANE ( 'NONE',  #166 ) ;
#61 = CIRCLE ( 'NONE', #145, 0.1250000000000000000 ) ;
#62 = FILL_AREA_STYLE_COLOUR ( '', #14 ) ;
#63 =( NAMED_UNIT ( * ) SI_UNIT ( $, .STERADIAN. ) SOLID_ANGLE_UNIT ( ) );
#64 = AXIS2_PLACEMENT_3D ( 'NONE', #264, #6, #146 ) ;
#65 = CARTESIAN_POINT ( 'NONE',  ( 1.530808498934191817E-17, 0.5000000000000000000, 0.1250000000000000000 ) ) ;
#66 = FACE_OUTER_BOUND ( 'NONE', #187, .T. ) ;
#67 =( GEOMETRIC_REPRESENTATION_CONTEXT ( 3 ) GLOBAL_UNCERTAINTY_ASSIGNED_CONTEXT ( ( #70 ) ) GLOBAL_UNIT_ASSIGNED_CONTEXT ( ( #303, #194, #127 ) ) REPRESENTATION_CONTEXT ( 'NONE', 'WORKASPACE' ) );
#68 = CARTESIAN_POINT ( 'NONE',  ( -6.123233995736759873E-17, 2.500000000000000000, 0.000000000000000000 ) ) ;
#69 = ORIENTED_EDGE ( 'NONE', *, *, #259, .F. ) ;
#70 = UNCERTAINTY_MEASURE_WITH_UNIT (LENGTH_MEASURE( 1.000000000000000082E-05 ), #303, 'distance_accuracy_value', 'NONE');
#71 = DIRECTION ( 'NONE',  ( 0.000000000000000000, 0.000000000000000000, -1.000000000000000000 ) ) ;
#72 = VERTEX_POINT ( 'NONE', #179 ) ;
#73 = CARTESIAN_POINT ( 'NONE',  ( 0.000000000000000000, 0.000000000000000000, -0.1250000000000000278 ) ) ;
#74 = CIRCLE ( 'NONE', #180, 0.1250000000000000000 ) ;
#75 = ORIENTED_EDGE ( 'NONE', *, *, #101, .T. ) ;
#76 = ORIENTED_EDGE ( 'NONE', *, *, #221, .F. ) ;
#77 = APPLICATION_PROTOCOL_DEFINITION ( 'draft international standard', 'automotive_design', 1998, #279 ) ;
#78 = SURFACE_SIDE_STYLE ('',( #236 ) ) ;
#79 = ADVANCED_FACE ( 'NONE', ( #157 ), #195, .T. ) ;
#80 = DIRECTION ( 'NONE',  ( -0.000000000000000000, -1.000000000000000000, -0.000000000000000000 ) ) ;
#81 =( NAMED_UNIT ( * ) PLANE_ANGLE_UNIT ( ) SI_UNIT ( $, .RADIAN. ) );
#82 = CARTESIAN_POINT ( 'NONE',  ( 0.000000000000000000, 0.5000000000000000000, 0.000000000000000000 ) ) ;
#83 = MECHANICAL_DESIGN_GEOMETRIC_PRESENTATION_REPRESENTATION (  '', ( #42 ), #115 ) ;
#84 =( CONVERSION_BASED_UNIT ( 'INCH', #37 ) LENGTH_UNIT ( ) NAMED_UNIT ( #116 ) );
#85 = SURFACE_SIDE_STYLE ('',( #34 ) ) ;
#86 = AXIS2_PLACEMENT_3D ( 'NONE', #57, #238, #25 ) ;
#87 =( LENGTH_UNIT ( ) NAMED_UNIT ( * ) SI_UNIT ( $, .METRE. ) );
#88 = EDGE_CURVE ( 'NONE', #289, #136, #17, .T. ) ;
#89 = VECTOR ( 'NONE', #113, 39.37007874015748143 ) ;
#90 = DIRECTION ( 'NONE',  ( -1.000000000000000000, 0.000000000000000000, 0.000000000000000000 ) ) ;
#91 = VERTEX_POINT ( 'NONE', #107 ) ;
#92 = FACE_OUTER_BOUND ( 'NONE', #1, .T. ) ;
#93 = VERTEX_POINT ( 'NONE', #65 ) ;
#94 = DIRECTION ( 'NONE',  ( 1.000000000000000000, 3.061616997868379936E-17, 0.000000000000000000 ) ) ;
#95 = ORIENTED_EDGE ( 'NONE', *, *, #88, .F. ) ;
#96 = PRODUCT_DEFINITION ( 'UNKNOWN', '', #125, #266 ) ;
#97 =( CONVERSION_BASED_UNIT ( 'INCH', #215 ) LENGTH_UNIT ( ) NAMED_UNIT ( #134 ) );
#98 = PRESENTATION_STYLE_ASSIGNMENT (( #192 ) ) ;
#99 = APPLICATION_CONTEXT ( 'automotive_design' ) ;
#100 = LENGTH_MEASURE_WITH_UNIT ( LENGTH_MEASURE( 0.02539999999999999897 ), #5 );
#101 = EDGE_CURVE ( 'NONE', #119, #135, #243, .T. ) ;
#102 = UNCERTAINTY_MEASURE_WITH_UNIT (LENGTH_MEASURE( 1.000000000000000082E-05 ), #97, 'distance_accuracy_value', 'NONE');
#103 =( CONVERSION_BASED_UNIT ( 'INCH', #261 ) LENGTH_UNIT ( ) NAMED_UNIT ( #26 ) );
#104 = VECTOR ( 'NONE', #110, 39.37007874015748143 ) ;
#105 = DIRECTION ( 'NONE',  ( -3.061616997868379936E-17, 1.000000000000000000, 0.000000000000000000 ) ) ;
#106 = AXIS2_PLACEMENT_3D ( 'NONE', #39, #105, #11 ) ;
#107 = CARTESIAN_POINT ( 'NONE',  ( 0.1250000000000000278, 0.5000000000000001110, 1.530808498934192125E-17 ) ) ;
#108 =( GEOMETRIC_REPRESENTATION_CONTEXT ( 3 ) GLOBAL_UNCERTAINTY_ASSIGNED_CONTEXT ( ( #27 ) ) GLOBAL_UNIT_ASSIGNED_CONTEXT ( ( #103, #81, #244 ) ) REPRESENTATION_CONTEXT ( 'NONE', 'WORKASPACE' ) );
#109 = AXIS2_PLACEMENT_3D ( 'NONE', #48, #50, #288 ) ;
#110 = DIRECTION ( 'NONE',  ( -3.061616997868379936E-17, 1.000000000000000000, -0.000000000000000000 ) ) ;
#111 =( NAMED_UNIT ( * ) PLANE_ANGLE_UNIT ( ) SI_UNIT ( $, .RADIAN. ) );
#112 = ORIENTED_EDGE ( 'NONE', *, *, #144, .F. ) ;
#113 = DIRECTION ( 'NONE',  ( -0.000000000000000000, -1.000000000000000000, -0.000000000000000000 ) ) ;
#114 = ORIENTED_EDGE ( 'NONE', *, *, #129, .T. ) ;
#115 =( GEOMETRIC_REPRESENTATION_CONTEXT ( 3 ) GLOBAL_UNCERTAINTY_ASSIGNED_CONTEXT ( ( #170 ) ) GLOBAL_UNIT_ASSIGNED_CONTEXT ( ( #53, #111, #228 ) ) REPRESENTATION_CONTEXT ( 'NONE', 'WORKASPACE' ) );
#116 = DIMENSIONAL_EXPONENTS ( 1.000000000000000000, 0.000000000000000000, 0.000000000000000000, 0.000000000000000000, 0.000000000000000000, 0.000000000000000000, 0.000000000000000000 ) ;
#117 = CARTESIAN_POINT ( 'NONE',  ( 0.000000000000000000, 0.000000000000000000, -0.1250000000000000278 ) ) ;
#118 =( NAMED_UNIT ( * ) PLANE_ANGLE_UNIT ( ) SI_UNIT ( $, .RADIAN. ) );
#119 = VERTEX_POINT ( 'NONE', #304 ) ;
#120 = SURFACE_STYLE_FILL_AREA ( #241 ) ;
#121 = ADVANCED_FACE ( 'NONE', ( #66 ), #249, .F. ) ;
#122 = FACE_OUTER_BOUND ( 'NONE', #232, .T. ) ;
#123 = SURFACE_SIDE_STYLE ('',( #120 ) ) ;
#124 = FACE_OUTER_BOUND ( 'NONE', #202, .T. ) ;
#125 = PRODUCT_DEFINITION_FORMATION_WITH_SPECIFIED_SOURCE ( 'ANY', '', #175, .NOT_KNOWN. ) ;
#126 = ORIENTED_EDGE ( 'NONE', *, *, #22, .F. ) ;
#127 =( NAMED_UNIT ( * ) SI_UNIT ( $, .STERADIAN. ) SOLID_ANGLE_UNIT ( ) );
#128 = AXIS2_PLACEMENT_3D ( 'NONE', #248, #131, #193 ) ;
#129 = EDGE_CURVE ( 'NONE', #182, #93, #74, .T. ) ;
#130 = CARTESIAN_POINT ( 'NONE',  ( -6.123233995736759873E-17, 2.500000000000000000, 0.000000000000000000 ) ) ;
#131 = DIRECTION ( 'NONE',  ( -0.000000000000000000, -1.000000000000000000, -0.000000000000000000 ) ) ;
#132 = EDGE_CURVE ( 'NONE', #135, #119, #282, .T. ) ;
#133 = DIRECTION ( 'NONE',  ( -0.000000000000000000, -1.000000000000000000, -0.000000000000000000 ) ) ;
#134 = DIMENSIONAL_EXPONENTS ( 1.000000000000000000, 0.000000000000000000, 0.000000000000000000, 0.000000000000000000, 0.000000000000000000, 0.000000000000000000, 0.000000000000000000 ) ;
#135 = VERTEX_POINT ( 'NONE', #117 ) ;
#136 = VERTEX_POINT ( 'NONE', #256 ) ;
#137 = FILL_AREA_STYLE ('',( #277 ) ) ;
#138 = MECHANICAL_DESIGN_GEOMETRIC_PRESENTATION_REPRESENTATION (  '', ( #274 ), #108 ) ;
#139 = AXIS2_PLACEMENT_3D ( 'NONE', #186, #284, #71 ) ;
#140 = DIRECTION ( 'NONE',  ( -1.000000000000000000, 0.000000000000000000, 0.000000000000000000 ) ) ;
#141 =( NAMED_UNIT ( * ) PLANE_ANGLE_UNIT ( ) SI_UNIT ( $, .RADIAN. ) );
#142 = PRESENTATION_STYLE_ASSIGNMENT (( #190 ) ) ;
#143 = DIMENSIONAL_EXPONENTS ( 1.000000000000000000, 0.000000000000000000, 0.000000000000000000, 0.000000000000000000, 0.000000000000000000, 0.000000000000000000, 0.000000000000000000 ) ;
#144 = EDGE_CURVE ( 'NONE', #93, #182, #56, .T. ) ;
#145 = AXIS2_PLACEMENT_3D ( 'NONE', #197, #181, #306 ) ;
#146 = DIRECTION ( 'NONE',  ( 0.000000000000000000, 0.000000000000000000, -1.000000000000000000 ) ) ;
#147 = UNCERTAINTY_MEASURE_WITH_UNIT (LENGTH_MEASURE( 1.000000000000000082E-05 ), #174, 'distance_accuracy_value', 'NONE');
#148 = PRODUCT_CONTEXT ( 'NONE', #279, 'mechanical' ) ;
#149 =( NAMED_UNIT ( * ) PLANE_ANGLE_UNIT ( ) SI_UNIT ( $, .RADIAN. ) );
#150 = FILL_AREA_STYLE ('',( #239 ) ) ;
#151 = STYLED_ITEM ( 'NONE', ( #142 ), #40 ) ;
#152 = EDGE_CURVE ( 'NONE', #91, #72, #2, .T. ) ;
#153 =( NAMED_UNIT ( * ) SI_UNIT ( $, .STERADIAN. ) SOLID_ANGLE_UNIT ( ) );
#154 = DIRECTION ( 'NONE',  ( -0.000000000000000000, -1.000000000000000000, -0.000000000000000000 ) ) ;
#155 = LENGTH_MEASURE_WITH_UNIT ( LENGTH_MEASURE( 0.02539999999999999897 ), #12 );
#156 = PRESENTATION_LAYER_ASSIGNMENT (  '', '', ( #42 ) ) ;
#157 = FACE_OUTER_BOUND ( 'NONE', #19, .T. ) ;
#158 = CYLINDRICAL_SURFACE ( 'NONE', #139, 0.1250000000000000278 ) ;
#159 = ORIENTED_EDGE ( 'NONE', *, *, #132, .T. ) ;
#160 = FACE_OUTER_BOUND ( 'NONE', #47, .T. ) ;
#161 = CARTESIAN_POINT ( 'NONE',  ( 0.000000000000000000, 0.000000000000000000, 0.000000000000000000 ) ) ;
#162 = ORIENTED_EDGE ( 'NONE', *, *, #88, .T. ) ;
#163 = EDGE_CURVE ( 'NONE', #182, #135, #164, .T. ) ;
#164 = LINE ( 'NONE', #73, #173 ) ;
#165 =( GEOMETRIC_REPRESENTATION_CONTEXT ( 3 ) GLOBAL_UNCERTAINTY_ASSIGNED_CONTEXT ( ( #147 ) ) GLOBAL_UNIT_ASSIGNED_CONTEXT ( ( #174, #149, #153 ) ) REPRESENTATION_CONTEXT ( 'NONE', 'WORKASPACE' ) );
#166 = AXIS2_PLACEMENT_3D ( 'NONE', #220, #271, #270 ) ;
#167 = SURFACE_SIDE_STYLE ('',( #250 ) ) ;
#168 = ORIENTED_EDGE ( 'NONE', *, *, #201, .F. ) ;
#169 =( LENGTH_UNIT ( ) NAMED_UNIT ( * ) SI_UNIT ( $, .METRE. ) );
#170 = UNCERTAINTY_MEASURE_WITH_UNIT (LENGTH_MEASURE( 1.000000000000000082E-05 ), #53, 'distance_accuracy_value', 'NONE');
#171 = CLOSED_SHELL ( 'NONE', ( #300, #40, #273, #33 ) ) ;
#172 = CYLINDRICAL_SURFACE ( 'NONE', #224, 0.1250000000000000278 ) ;
#173 = VECTOR ( 'NONE', #280, 39.37007874015748143 ) ;
#174 =( CONVERSION_BASED_UNIT ( 'INCH', #3 ) LENGTH_UNIT ( ) NAMED_UNIT ( #4 ) );
#175 = PRODUCT ( '24022', '24022', '', ( #148 ) ) ;
#176 = DIRECTION ( 'NONE',  ( 0.000000000000000000, 0.000000000000000000, -1.000000000000000000 ) ) ;
#177 = SURFACE_STYLE_USAGE ( .BOTH. , #85 ) ;
#178 = MECHANICAL_DESIGN_GEOMETRIC_PRESENTATION_REPRESENTATION (  '', ( #24 ), #301 ) ;
#179 = CARTESIAN_POINT ( 'NONE',  ( -0.1250000000000000000, 0.5000000000000001110, 0.000000000000000000 ) ) ;
#180 = AXIS2_PLACEMENT_3D ( 'NONE', #82, #154, #245 ) ;
#181 = DIRECTION ( 'NONE',  ( -3.061616997868379936E-17, 1.000000000000000000, -0.000000000000000000 ) ) ;
#182 = VERTEX_POINT ( 'NONE', #206 ) ;
#183 = DIRECTION ( 'NONE',  ( -0.000000000000000000, -1.000000000000000000, -0.000000000000000000 ) ) ;
#184 = CARTESIAN_POINT ( 'NONE',  ( 0.000000000000000000, 0.5000000000000000000, 0.000000000000000000 ) ) ;
#185 = ORIENTED_EDGE ( 'NONE', *, *, #152, .F. ) ;
#186 = CARTESIAN_POINT ( 'NONE',  ( 0.000000000000000000, 0.000000000000000000, 0.000000000000000000 ) ) ;
#187 = EDGE_LOOP ( 'NONE', ( #69, #185 ) ) ;
#188 = CARTESIAN_POINT ( 'NONE',  ( 0.1249999999999999584, 2.500000000000000000, 1.530808498934191817E-17 ) ) ;
#189 = MECHANICAL_DESIGN_GEOMETRIC_PRESENTATION_REPRESENTATION (  '', ( #151 ), #52 ) ;
#190 = SURFACE_STYLE_USAGE ( .BOTH. , #32 ) ;
#191 = FILL_AREA_STYLE_COLOUR ( '', #281 ) ;
#192 = SURFACE_STYLE_USAGE ( .BOTH. , #78 ) ;
#193 = DIRECTION ( 'NONE',  ( 0.000000000000000000, 0.000000000000000000, -1.000000000000000000 ) ) ;
#194 =( NAMED_UNIT ( * ) PLANE_ANGLE_UNIT ( ) SI_UNIT ( $, .RADIAN. ) );
#195 = CYLINDRICAL_SURFACE ( 'NONE', #257, 0.1250000000000000278 ) ;
#196 = EDGE_CURVE ( 'NONE', #91, #289, #225, .T. ) ;
#197 = CARTESIAN_POINT ( 'NONE',  ( 0.000000000000000000, 0.5000000000000001110, 0.000000000000000000 ) ) ;
#198 = DIRECTION ( 'NONE',  ( 3.061616997868379936E-17, -1.000000000000000000, 0.000000000000000000 ) ) ;
#199 = ORIENTED_EDGE ( 'NONE', *, *, #129, .F. ) ;
#200 = DIRECTION ( 'NONE',  ( 0.000000000000000000, 0.000000000000000000, -1.000000000000000000 ) ) ;
#201 = EDGE_CURVE ( 'NONE', #93, #119, #205, .T. ) ;
#202 = EDGE_LOOP ( 'NONE', ( #159, #75 ) ) ;
#203 = VECTOR ( 'NONE', #10, 39.37007874015748143 ) ;
#204 = AXIS2_PLACEMENT_3D ( 'NONE', #46, #20, #140 ) ;
#205 = LINE ( 'NONE', #43, #89 ) ;
#206 = CARTESIAN_POINT ( 'NONE',  ( 0.000000000000000000, 0.5000000000000000000, -0.1250000000000000000 ) ) ;
#207 = ORIENTED_EDGE ( 'NONE', *, *, #144, .T. ) ;
#208 = PRESENTATION_LAYER_ASSIGNMENT (  '', '', ( #274 ) ) ;
#209 = AXIS2_PLACEMENT_3D ( 'NONE', #161, #183, #255 ) ;
#210 = CARTESIAN_POINT ( 'NONE',  ( 0.000000000000000000, 0.000000000000000000, 0.000000000000000000 ) ) ;
#211 = PRESENTATION_STYLE_ASSIGNMENT (( #235 ) ) ;
#212 = ADVANCED_FACE ( 'NONE', ( #92 ), #307, .F. ) ;
#213 =( LENGTH_UNIT ( ) NAMED_UNIT ( * ) SI_UNIT ( $, .METRE. ) );
#214 = PRODUCT_DEFINITION_SHAPE ( 'NONE', 'NONE',  #96 ) ;
#215 = LENGTH_MEASURE_WITH_UNIT ( LENGTH_MEASURE( 0.02539999999999999897 ), #169 );
#216 = COLOUR_RGB ( '',1.000000000000000000, 0.000000000000000000, 0.000000000000000000 ) ;
#217 = ADVANCED_FACE ( 'NONE', ( #309 ), #227, .T. ) ;
#218 = DIRECTION ( 'NONE',  ( -1.000000000000000000, 0.000000000000000000, 0.000000000000000000 ) ) ;
#219 = AXIS2_PLACEMENT_3D ( 'NONE', #184, #133, #200 ) ;
#220 = CARTESIAN_POINT ( 'NONE',  ( 0.000000000000000000, 0.5000000000000000000, 0.000000000000000000 ) ) ;
#221 = EDGE_CURVE ( 'NONE', #136, #289, #36, .T. ) ;
#222 = CARTESIAN_POINT ( 'NONE',  ( 0.1250000000000000000, 2.500000000000000000, 0.000000000000000000 ) ) ;
#223 = ADVANCED_BREP_SHAPE_REPRESENTATION ( '24022', ( #35, #45, #86 ), #23 ) ;
#224 = AXIS2_PLACEMENT_3D ( 'NONE', #210, #80, #176 ) ;
#225 = LINE ( 'NONE', #188, #104 ) ;
#226 = ORIENTED_EDGE ( 'NONE', *, *, #132, .F. ) ;
#227 = CYLINDRICAL_SURFACE ( 'NONE', #305, 0.1250000000000000278 ) ;
#228 =( NAMED_UNIT ( * ) SI_UNIT ( $, .STERADIAN. ) SOLID_ANGLE_UNIT ( ) );
#229 = ORIENTED_EDGE ( 'NONE', *, *, #201, .T. ) ;
#230 = COLOUR_RGB ( '',0.7921568627450980005, 0.8196078431372548767, 0.9333333333333333481 ) ;
#231 = SURFACE_STYLE_USAGE ( .BOTH. , #167 ) ;
#232 = EDGE_LOOP ( 'NONE', ( #114, #229, #226, #233 ) ) ;
#233 = ORIENTED_EDGE ( 'NONE', *, *, #163, .F. ) ;
#234 = PRODUCT_RELATED_PRODUCT_CATEGORY ( 'part', '', ( #175 ) ) ;
#235 = SURFACE_STYLE_USAGE ( .BOTH. , #267 ) ;
#236 = SURFACE_STYLE_FILL_AREA ( #295 ) ;
#237 = DIMENSIONAL_EXPONENTS ( 1.000000000000000000, 0.000000000000000000, 0.000000000000000000, 0.000000000000000000, 0.000000000000000000, 0.000000000000000000, 0.000000000000000000 ) ;
#238 = DIRECTION ( 'NONE',  ( 0.000000000000000000, 0.000000000000000000, 1.000000000000000000 ) ) ;
#239 = FILL_AREA_STYLE_COLOUR ( '', #290 ) ;
#240 = APPLICATION_PROTOCOL_DEFINITION ( 'draft international standard', 'automotive_design', 1998, #99 ) ;
#241 = FILL_AREA_STYLE ('',( #58 ) ) ;
#242 = SURFACE_STYLE_FILL_AREA ( #150 ) ;
#243 = CIRCLE ( 'NONE', #128, 0.1250000000000000278 ) ;
#244 =( NAMED_UNIT ( * ) SI_UNIT ( $, .STERADIAN. ) SOLID_ANGLE_UNIT ( ) );
#245 = DIRECTION ( 'NONE',  ( 0.000000000000000000, 0.000000000000000000, -1.000000000000000000 ) ) ;
#246 =( NAMED_UNIT ( * ) PLANE_ANGLE_UNIT ( ) SI_UNIT ( $, .RADIAN. ) );
#247 = DIRECTION ( 'NONE',  ( -3.061616997868379936E-17, 1.000000000000000000, -0.000000000000000000 ) ) ;
#248 = CARTESIAN_POINT ( 'NONE',  ( 0.000000000000000000, 0.000000000000000000, 0.000000000000000000 ) ) ;
#249 = PLANE ( 'NONE',  #106 ) ;
#250 = SURFACE_STYLE_FILL_AREA ( #137 ) ;
#251 = AXIS2_PLACEMENT_3D ( 'NONE', #130, #15, #302 ) ;
#252 = ORIENTED_EDGE ( 'NONE', *, *, #196, .T. ) ;
#253 = LENGTH_MEASURE_WITH_UNIT ( LENGTH_MEASURE( 0.02539999999999999897 ), #87 );
#254 = EDGE_LOOP ( 'NONE', ( #268, #21, #44, #95 ) ) ;
#255 = DIRECTION ( 'NONE',  ( 0.000000000000000000, 0.000000000000000000, -1.000000000000000000 ) ) ;
#256 = CARTESIAN_POINT ( 'NONE',  ( -0.1250000000000001388, 2.500000000000000000, 0.000000000000000000 ) ) ;
#257 = AXIS2_PLACEMENT_3D ( 'NONE', #276, #247, #218 ) ;
#258 = PRESENTATION_STYLE_ASSIGNMENT (( #231 ) ) ;
#259 = EDGE_CURVE ( 'NONE', #72, #91, #61, .T. ) ;
#260 = CARTESIAN_POINT ( 'NONE',  ( 0.1250000000000000278, 2.500000000000000000, 1.530808498934192125E-17 ) ) ;
#261 = LENGTH_MEASURE_WITH_UNIT ( LENGTH_MEASURE( 0.02539999999999999897 ), #213 );
#262 = STYLED_ITEM ( 'NONE', ( #38 ), #45 ) ;
#263 =( CONVERSION_BASED_UNIT ( 'INCH', #100 ) LENGTH_UNIT ( ) NAMED_UNIT ( #286 ) );
#264 = CARTESIAN_POINT ( 'NONE',  ( 0.000000000000000000, 0.000000000000000000, 0.000000000000000000 ) ) ;
#265 = FACE_OUTER_BOUND ( 'NONE', #278, .T. ) ;
#266 = PRODUCT_DEFINITION_CONTEXT ( 'detailed design', #99, 'design' ) ;
#267 = SURFACE_SIDE_STYLE ('',( #55 ) ) ;
#268 = ORIENTED_EDGE ( 'NONE', *, *, #196, .F. ) ;
#269 = COLOUR_RGB ( '',1.000000000000000000, 0.000000000000000000, 0.000000000000000000 ) ;
#270 = DIRECTION ( 'NONE',  ( 0.000000000000000000, -0.000000000000000000, 1.000000000000000000 ) ) ;
#271 = DIRECTION ( 'NONE',  ( 0.000000000000000000, 1.000000000000000000, 0.000000000000000000 ) ) ;
#272 =( LENGTH_UNIT ( ) NAMED_UNIT ( * ) SI_UNIT ( $, .METRE. ) );
#273 = ADVANCED_FACE ( 'NONE', ( #160 ), #158, .T. ) ;
#274 = STYLED_ITEM ( 'NONE', ( #294 ), #35 ) ;
#275 = FILL_AREA_STYLE ('',( #62 ) ) ;
#276 = CARTESIAN_POINT ( 'NONE',  ( -6.123233995736759873E-17, 2.500000000000000000, 0.000000000000000000 ) ) ;
#277 = FILL_AREA_STYLE_COLOUR ( '', #269 ) ;
#278 = EDGE_LOOP ( 'NONE', ( #199, #112 ) ) ;
#279 = APPLICATION_CONTEXT ( 'automotive_design' ) ;
#280 = DIRECTION ( 'NONE',  ( -0.000000000000000000, -1.000000000000000000, -0.000000000000000000 ) ) ;
#281 = COLOUR_RGB ( '',1.000000000000000000, 0.000000000000000000, 0.000000000000000000 ) ;
#282 = CIRCLE ( 'NONE', #209, 0.1250000000000000278 ) ;
#283 = ORIENTED_EDGE ( 'NONE', *, *, #259, .T. ) ;
#284 = DIRECTION ( 'NONE',  ( -0.000000000000000000, -1.000000000000000000, -0.000000000000000000 ) ) ;
#285 = ORIENTED_EDGE ( 'NONE', *, *, #101, .F. ) ;
#286 = DIMENSIONAL_EXPONENTS ( 1.000000000000000000, 0.000000000000000000, 0.000000000000000000, 0.000000000000000000, 0.000000000000000000, 0.000000000000000000, 0.000000000000000000 ) ;
#287 = UNCERTAINTY_MEASURE_WITH_UNIT (LENGTH_MEASURE( 1.000000000000000082E-05 ), #84, 'distance_accuracy_value', 'NONE');
#288 = DIRECTION ( 'NONE',  ( -1.000000000000000000, 0.000000000000000000, 0.000000000000000000 ) ) ;
#289 = VERTEX_POINT ( 'NONE', #260 ) ;
#290 = COLOUR_RGB ( '',1.000000000000000000, 0.000000000000000000, 0.000000000000000000 ) ;
#291 = PRESENTATION_LAYER_ASSIGNMENT (  '', '', ( #262 ) ) ;
#292 =( NAMED_UNIT ( * ) SI_UNIT ( $, .STERADIAN. ) SOLID_ANGLE_UNIT ( ) );
#293 = CARTESIAN_POINT ( 'NONE',  ( -0.1250000000000001110, 2.500000000000000000, 0.000000000000000000 ) ) ;
#294 = PRESENTATION_STYLE_ASSIGNMENT (( #299 ) ) ;
#295 = FILL_AREA_STYLE ('',( #191 ) ) ;
#296 = STYLED_ITEM ( 'NONE', ( #98 ), #33 ) ;
#297 = UNCERTAINTY_MEASURE_WITH_UNIT (LENGTH_MEASURE( 1.000000000000000082E-05 ), #263, 'distance_accuracy_value', 'NONE');
#298 = FILL_AREA_STYLE ('',( #30 ) ) ;
#299 = SURFACE_STYLE_USAGE ( .BOTH. , #123 ) ;
#300 = ADVANCED_FACE ( 'NONE', ( #122 ), #172, .T. ) ;
#301 =( GEOMETRIC_REPRESENTATION_CONTEXT ( 3 ) GLOBAL_UNCERTAINTY_ASSIGNED_CONTEXT ( ( #102 ) ) GLOBAL_UNIT_ASSIGNED_CONTEXT ( ( #97, #141, #292 ) ) REPRESENTATION_CONTEXT ( 'NONE', 'WORKASPACE' ) );
#302 = DIRECTION ( 'NONE',  ( -1.000000000000000000, 0.000000000000000000, 0.000000000000000000 ) ) ;
#303 =( CONVERSION_BASED_UNIT ( 'INCH', #155 ) LENGTH_UNIT ( ) NAMED_UNIT ( #143 ) );
#304 = CARTESIAN_POINT ( 'NONE',  ( 1.530808498934192125E-17, 0.000000000000000000, 0.1250000000000000555 ) ) ;
#305 = AXIS2_PLACEMENT_3D ( 'NONE', #68, #18, #90 ) ;
#306 = DIRECTION ( 'NONE',  ( -1.000000000000000000, 0.000000000000000000, 0.000000000000000000 ) ) ;
#307 = PLANE ( 'NONE',  #308 ) ;
#308 = AXIS2_PLACEMENT_3D ( 'NONE', #222, #198, #94 ) ;
#309 = FACE_OUTER_BOUND ( 'NONE', #254, .T. ) ;
ENDSEC;
END-ISO-10303-21;
