ISO-10303-21;
HEADER;
FILE_DESCRIPTION (( 'STEP AP214' ),
    '1' );
FILE_NAME ('Micro_SME-045-2.STEP',
    '2021-09-02T11:59:09',
    ( '' ),
    ( '' ),
    'SwSTEP 2.0',
    'SolidWorks 2020',
    '' );
FILE_SCHEMA (( 'AUTOMOTIVE_DESIGN' ));
ENDSEC;

DATA;
#1 = LENGTH_MEASURE_WITH_UNIT ( LENGTH_MEASURE( 0.02539999999999999897 ), #185 );
#2 = DIRECTION ( 'NONE',  ( -1.224646799147353700E-16, -0.0000000000000000000, -1.000000000000000000 ) ) ;
#3 = DIRECTION ( 'NONE',  ( 1.000000000000000000, 0.0000000000000000000, 0.0000000000000000000 ) ) ;
#4 = CARTESIAN_POINT ( 'NONE',  ( 0.0000000000000000000, 0.0000000000000000000, 1.500000000000000222 ) ) ;
#5 = DIRECTION ( 'NONE',  ( 0.0000000000000000000, 0.0000000000000000000, 1.000000000000000000 ) ) ;
#6 = MANIFOLD_SOLID_BREP ( 'Cut-Revolve1', #144 ) ;
#7 = PRESENTATION_LAYER_ASSIGNMENT (  '', '', ( #100 ) ) ;
#8 = ADVANCED_FACE ( 'NONE', ( #173 ), #244, .T. ) ;
#9 = CIRCLE ( 'NONE', #106, 0.06250000000000002776 ) ;
#10 = DIRECTION ( 'NONE',  ( 1.000000000000000000, 0.0000000000000000000, 0.0000000000000000000 ) ) ;
#11 = LINE ( 'NONE', #199, #261 ) ;
#12 = CARTESIAN_POINT ( 'NONE',  ( 8.327598234202006480E-18, 0.0000000000000000000, 0.06800000000000000488 ) ) ;
#13 = DIRECTION ( 'NONE',  ( 0.0000000000000000000, 0.0000000000000000000, 1.000000000000000000 ) ) ;
#14 = CONICAL_SURFACE ( 'NONE', #200, 0.02247750000000000095, 0.1745329251994339192 ) ;
#15 = ADVANCED_BREP_SHAPE_REPRESENTATION ( 'Micro_SME-045-2', ( #6, #82 ), #73 ) ;
#16 = APPLICATION_PROTOCOL_DEFINITION ( 'draft international standard', 'automotive_design', 1998, #258 ) ;
#17 = VERTEX_POINT ( 'NONE', #254 ) ;
#18 = EDGE_LOOP ( 'NONE', ( #247, #67, #223, #271 ) ) ;
#19 = UNCERTAINTY_MEASURE_WITH_UNIT (LENGTH_MEASURE( 1.000000000000000082E-05 ), #289, 'distance_accuracy_value', 'NONE');
#20 = EDGE_CURVE ( 'NONE', #163, #17, #179, .T. ) ;
#21 = FILL_AREA_STYLE ('',( #50 ) ) ;
#22 = FILL_AREA_STYLE ('',( #134 ) ) ;
#23 = VECTOR ( 'NONE', #97, 39.37007874015748143 ) ;
#24 = SURFACE_STYLE_FILL_AREA ( #21 ) ;
#25 = EDGE_LOOP ( 'NONE', ( #161, #113, #287, #51 ) ) ;
#26 = UNCERTAINTY_MEASURE_WITH_UNIT (LENGTH_MEASURE( 1.000000000000000082E-05 ), #149, 'distance_accuracy_value', 'NONE');
#27 = ORIENTED_EDGE ( 'NONE', *, *, #274, .F. ) ;
#28 = FACE_OUTER_BOUND ( 'NONE', #158, .T. ) ;
#29 = CARTESIAN_POINT ( 'NONE',  ( 0.0000000000000000000, 0.0000000000000000000, 1.500000000000000222 ) ) ;
#30 = PRODUCT_DEFINITION ( 'UNKNOWN', '', #110, #205 ) ;
#31 = CARTESIAN_POINT ( 'NONE',  ( 0.02247750000000001136, 0.0000000000000000000, 0.06800000000000000488 ) ) ;
#32 = PRODUCT ( 'Micro_SME-045-2', 'Micro_SME-045-2', '', ( #286 ) ) ;
#33 = VECTOR ( 'NONE', #219, 39.37007874015748143 ) ;
#34 = CONICAL_SURFACE ( 'NONE', #101, 0.04750000000000064587, 0.7853981633974466137 ) ;
#35 = FACE_OUTER_BOUND ( 'NONE', #25, .T. ) ;
#36 = FACE_OUTER_BOUND ( 'NONE', #265, .T. ) ;
#37 = ORIENTED_EDGE ( 'NONE', *, *, #152, .T. ) ;
#38 = DIRECTION ( 'NONE',  ( -0.7071067811865462405, 0.0000000000000000000, -0.7071067811865486830 ) ) ;
#39 = AXIS2_PLACEMENT_3D ( 'NONE', #124, #231, #148 ) ;
#40 = AXIS2_PLACEMENT_3D ( 'NONE', #216, #5, #105 ) ;
#41 = DIRECTION ( 'NONE',  ( -1.000000000000000000, 0.0000000000000000000, 0.0000000000000000000 ) ) ;
#42 = EDGE_CURVE ( 'NONE', #46, #92, #170, .T. ) ;
#43 = CARTESIAN_POINT ( 'NONE',  ( 8.327598234202006480E-18, 0.0000000000000000000, 0.06800000000000000488 ) ) ;
#44 = SURFACE_SIDE_STYLE ('',( #24 ) ) ;
#45 = DIRECTION ( 'NONE',  ( 1.000000000000000000, 0.0000000000000000000, 0.0000000000000000000 ) ) ;
#46 = VERTEX_POINT ( 'NONE', #76 ) ;
#47 =( NAMED_UNIT ( * ) SI_UNIT ( $, .STERADIAN. ) SOLID_ANGLE_UNIT ( ) );
#48 = EDGE_LOOP ( 'NONE', ( #175, #37, #229, #91 ) ) ;
#49 = EDGE_CURVE ( 'NONE', #17, #163, #87, .T. ) ;
#50 = FILL_AREA_STYLE_COLOUR ( '', #272 ) ;
#51 = ORIENTED_EDGE ( 'NONE', *, *, #70, .F. ) ;
#52 = UNCERTAINTY_MEASURE_WITH_UNIT (LENGTH_MEASURE( 1.000000000000000082E-05 ), #162, 'distance_accuracy_value', 'NONE');
#53 = ORIENTED_EDGE ( 'NONE', *, *, #55, .T. ) ;
#54 = DIRECTION ( 'NONE',  ( -1.000000000000000000, 0.0000000000000000000, 0.0000000000000000000 ) ) ;
#55 = EDGE_CURVE ( 'NONE', #96, #137, #102, .T. ) ;
#56 = DIRECTION ( 'NONE',  ( -1.000000000000000000, 0.0000000000000000000, 1.224646799147353700E-16 ) ) ;
#57 = CARTESIAN_POINT ( 'NONE',  ( 3.371085051478193277E-34, 0.0000000000000000000, 2.752699842783464379E-18 ) ) ;
#58 = DIRECTION ( 'NONE',  ( -1.224646799147353700E-16, -0.0000000000000000000, -1.000000000000000000 ) ) ;
#59 = ORIENTED_EDGE ( 'NONE', *, *, #20, .T. ) ;
#60 = PRODUCT_DEFINITION_SHAPE ( 'NONE', 'NONE',  #30 ) ;
#61 = DIRECTION ( 'NONE',  ( -1.224646799147353700E-16, -0.0000000000000000000, -1.000000000000000000 ) ) ;
#62 = FACE_OUTER_BOUND ( 'NONE', #188, .T. ) ;
#63 = AXIS2_PLACEMENT_3D ( 'NONE', #212, #2, #256 ) ;
#64 = CARTESIAN_POINT ( 'NONE',  ( 0.0000000000000000000, 0.0000000000000000000, 1.500000000000000222 ) ) ;
#65 = FACE_OUTER_BOUND ( 'NONE', #183, .T. ) ;
#66 =( NAMED_UNIT ( * ) SI_UNIT ( $, .STERADIAN. ) SOLID_ANGLE_UNIT ( ) );
#67 = ORIENTED_EDGE ( 'NONE', *, *, #263, .T. ) ;
#68 =( GEOMETRIC_REPRESENTATION_CONTEXT ( 3 ) GLOBAL_UNCERTAINTY_ASSIGNED_CONTEXT ( ( #52 ) ) GLOBAL_UNIT_ASSIGNED_CONTEXT ( ( #162, #72, #66 ) ) REPRESENTATION_CONTEXT ( 'NONE', 'WORKASPACE' ) );
#69 = SURFACE_SIDE_STYLE ('',( #201 ) ) ;
#70 = EDGE_CURVE ( 'NONE', #268, #96, #9, .T. ) ;
#71 = ORIENTED_EDGE ( 'NONE', *, *, #70, .T. ) ;
#72 =( NAMED_UNIT ( * ) PLANE_ANGLE_UNIT ( ) SI_UNIT ( $, .RADIAN. ) );
#73 =( GEOMETRIC_REPRESENTATION_CONTEXT ( 3 ) GLOBAL_UNCERTAINTY_ASSIGNED_CONTEXT ( ( #19 ) ) GLOBAL_UNIT_ASSIGNED_CONTEXT ( ( #289, #90, #47 ) ) REPRESENTATION_CONTEXT ( 'NONE', 'WORKASPACE' ) );
#74 = VERTEX_POINT ( 'NONE', #31 ) ;
#75 = CARTESIAN_POINT ( 'NONE',  ( 0.0000000000000000000, 0.0000000000000000000, 0.0000000000000000000 ) ) ;
#76 = CARTESIAN_POINT ( 'NONE',  ( -0.04750000000000064587, 0.0000000000000000000, 1.500000000000000222 ) ) ;
#77 = ADVANCED_FACE ( 'NONE', ( #121 ), #34, .T. ) ;
#78 = CARTESIAN_POINT ( 'NONE',  ( 0.0000000000000000000, 0.0000000000000000000, 0.0000000000000000000 ) ) ;
#79 = CARTESIAN_POINT ( 'NONE',  ( 0.02247750000000001136, 0.0000000000000000000, 0.06800000000000000488 ) ) ;
#80 = EDGE_CURVE ( 'NONE', #74, #187, #278, .T. ) ;
#81 = LINE ( 'NONE', #174, #171 ) ;
#82 = AXIS2_PLACEMENT_3D ( 'NONE', #243, #13, #45 ) ;
#83 = CARTESIAN_POINT ( 'NONE',  ( 0.02247750000000000095, 2.752699842783463224E-18, 0.0000000000000000000 ) ) ;
#84 = DIRECTION ( 'NONE',  ( 0.0000000000000000000, 0.0000000000000000000, -1.000000000000000000 ) ) ;
#85 = EDGE_CURVE ( 'NONE', #92, #268, #120, .T. ) ;
#86 = FACE_OUTER_BOUND ( 'NONE', #18, .T. ) ;
#87 = CIRCLE ( 'NONE', #125, 0.02247750000000000095 ) ;
#88 = VECTOR ( 'NONE', #236, 39.37007874015748143 ) ;
#89 = CARTESIAN_POINT ( 'NONE',  ( 0.0000000000000000000, 0.0000000000000000000, 1.500000000000000222 ) ) ;
#90 =( NAMED_UNIT ( * ) PLANE_ANGLE_UNIT ( ) SI_UNIT ( $, .RADIAN. ) );
#91 = ORIENTED_EDGE ( 'NONE', *, *, #224, .F. ) ;
#92 = VERTEX_POINT ( 'NONE', #273 ) ;
#93 = CONICAL_SURFACE ( 'NONE', #159, 0.04750000000000064587, 0.7853981633974466137 ) ;
#94 = ORIENTED_EDGE ( 'NONE', *, *, #55, .F. ) ;
#95 = ADVANCED_FACE ( 'NONE', ( #234 ), #147, .T. ) ;
#96 = VERTEX_POINT ( 'NONE', #142 ) ;
#97 = DIRECTION ( 'NONE',  ( -0.0000000000000000000, -0.0000000000000000000, -1.000000000000000000 ) ) ;
#98 = DIRECTION ( 'NONE',  ( 1.224646799147353700E-16, 0.0000000000000000000, 1.000000000000000000 ) ) ;
#99 = DIRECTION ( 'NONE',  ( -1.224646799147353700E-16, -0.0000000000000000000, -1.000000000000000000 ) ) ;
#100 = STYLED_ITEM ( 'NONE', ( #136 ), #6 ) ;
#101 = AXIS2_PLACEMENT_3D ( 'NONE', #29, #299, #54 ) ;
#102 = LINE ( 'NONE', #146, #23 ) ;
#103 = ADVANCED_FACE ( 'NONE', ( #28 ), #267, .T. ) ;
#104 = DIRECTION ( 'NONE',  ( -0.0000000000000000000, -0.0000000000000000000, -1.000000000000000000 ) ) ;
#105 = DIRECTION ( 'NONE',  ( 1.000000000000000000, 0.0000000000000000000, -0.0000000000000000000 ) ) ;
#106 = AXIS2_PLACEMENT_3D ( 'NONE', #235, #192, #3 ) ;
#107 = DIRECTION ( 'NONE',  ( 1.000000000000000000, 0.0000000000000000000, 0.0000000000000000000 ) ) ;
#108 = DIRECTION ( 'NONE',  ( 0.0000000000000000000, 0.0000000000000000000, 1.000000000000000000 ) ) ;
#109 = CARTESIAN_POINT ( 'NONE',  ( 0.0000000000000000000, 0.0000000000000000000, 1.500000000000000222 ) ) ;
#110 = PRODUCT_DEFINITION_FORMATION_WITH_SPECIFIED_SOURCE ( 'ANY', '', #32, .NOT_KNOWN. ) ;
#111 = EDGE_CURVE ( 'NONE', #137, #187, #139, .T. ) ;
#112 = SHAPE_DEFINITION_REPRESENTATION ( #60, #15 ) ;
#113 = ORIENTED_EDGE ( 'NONE', *, *, #42, .F. ) ;
#114 = DIMENSIONAL_EXPONENTS ( 1.000000000000000000, 0.0000000000000000000, 0.0000000000000000000, 0.0000000000000000000, 0.0000000000000000000, 0.0000000000000000000, 0.0000000000000000000 ) ;
#115 = ORIENTED_EDGE ( 'NONE', *, *, #132, .F. ) ;
#116 = LENGTH_MEASURE_WITH_UNIT ( LENGTH_MEASURE( 0.02539999999999999897 ), #264 );
#117 = AXIS2_PLACEMENT_3D ( 'NONE', #4, #104, #279 ) ;
#118 = DIMENSIONAL_EXPONENTS ( 1.000000000000000000, 0.0000000000000000000, 0.0000000000000000000, 0.0000000000000000000, 0.0000000000000000000, 0.0000000000000000000, 0.0000000000000000000 ) ;
#119 = ORIENTED_EDGE ( 'NONE', *, *, #80, .T. ) ;
#120 = LINE ( 'NONE', #297, #154 ) ;
#121 = FACE_OUTER_BOUND ( 'NONE', #250, .T. ) ;
#122 = ADVANCED_FACE ( 'NONE', ( #283 ), #282, .T. ) ;
#123 = CARTESIAN_POINT ( 'NONE',  ( 8.327598234202006480E-18, 0.0000000000000000000, 0.06800000000000000488 ) ) ;
#124 = CARTESIAN_POINT ( 'NONE',  ( 0.0000000000000000000, 0.0000000000000000000, 1.500000000000000222 ) ) ;
#125 = AXIS2_PLACEMENT_3D ( 'NONE', #194, #99, #208 ) ;
#126 = DIRECTION ( 'NONE',  ( 1.224646799147353700E-16, 0.0000000000000000000, 1.000000000000000000 ) ) ;
#127 = PLANE ( 'NONE',  #40 ) ;
#128 = AXIS2_PLACEMENT_3D ( 'NONE', #57, #251, #56 ) ;
#129 = ADVANCED_FACE ( 'NONE', ( #86 ), #14, .T. ) ;
#130 = DIRECTION ( 'NONE',  ( -0.0000000000000000000, -0.0000000000000000000, -1.000000000000000000 ) ) ;
#131 = DIRECTION ( 'NONE',  ( -1.224646799147353700E-16, -0.0000000000000000000, -1.000000000000000000 ) ) ;
#132 = EDGE_CURVE ( 'NONE', #92, #46, #285, .T. ) ;
#133 = AXIS2_PLACEMENT_3D ( 'NONE', #12, #58, #198 ) ;
#134 = FILL_AREA_STYLE_COLOUR ( '', #226 ) ;
#135 = DIMENSIONAL_EXPONENTS ( 1.000000000000000000, 0.0000000000000000000, 0.0000000000000000000, 0.0000000000000000000, 0.0000000000000000000, 0.0000000000000000000, 0.0000000000000000000 ) ;
#136 = PRESENTATION_STYLE_ASSIGNMENT (( #245 ) ) ;
#137 = VERTEX_POINT ( 'NONE', #257 ) ;
#138 =( GEOMETRIC_REPRESENTATION_CONTEXT ( 3 ) GLOBAL_UNCERTAINTY_ASSIGNED_CONTEXT ( ( #26 ) ) GLOBAL_UNIT_ASSIGNED_CONTEXT ( ( #149, #232, #172 ) ) REPRESENTATION_CONTEXT ( 'NONE', 'WORKASPACE' ) );
#139 = CIRCLE ( 'NONE', #63, 0.06250000000000002776 ) ;
#140 = ORIENTED_EDGE ( 'NONE', *, *, #189, .F. ) ;
#141 = ORIENTED_EDGE ( 'NONE', *, *, #186, .F. ) ;
#142 = CARTESIAN_POINT ( 'NONE',  ( -0.06250000000000002776, 0.0000000000000000000, 1.485000000000000764 ) ) ;
#143 = EDGE_CURVE ( 'NONE', #182, #74, #213, .T. ) ;
#144 = CLOSED_SHELL ( 'NONE', ( #8, #129, #77, #210, #259, #122, #253, #103, #95, #269 ) ) ;
#145 = MECHANICAL_DESIGN_GEOMETRIC_PRESENTATION_REPRESENTATION (  '', ( #150 ), #68 ) ;
#146 = CARTESIAN_POINT ( 'NONE',  ( -0.06250000000000002776, 0.0000000000000000000, 1.500000000000000222 ) ) ;
#147 = CYLINDRICAL_SURFACE ( 'NONE', #209, 0.02247750000000000095 ) ;
#148 = DIRECTION ( 'NONE',  ( 1.000000000000000000, 0.0000000000000000000, 0.0000000000000000000 ) ) ;
#149 =( CONVERSION_BASED_UNIT ( 'INCH', #1 ) LENGTH_UNIT ( ) NAMED_UNIT ( #114 ) );
#150 = STYLED_ITEM ( 'NONE', ( #160 ), #15 ) ;
#151 = DIRECTION ( 'NONE',  ( -0.1736481776669312194, 2.126576849575783625E-17, 0.9848077530122080203 ) ) ;
#152 = EDGE_CURVE ( 'NONE', #74, #163, #177, .T. ) ;
#153 = CARTESIAN_POINT ( 'NONE',  ( 8.327598234202006480E-18, 0.0000000000000000000, 0.06800000000000000488 ) ) ;
#154 = VECTOR ( 'NONE', #191, 39.37007874015748854 ) ;
#155 = DIRECTION ( 'NONE',  ( -0.0000000000000000000, -0.0000000000000000000, -1.000000000000000000 ) ) ;
#156 = LINE ( 'NONE', #242, #33 ) ;
#157 = DIRECTION ( 'NONE',  ( 1.000000000000000000, 0.0000000000000000000, 0.0000000000000000000 ) ) ;
#158 = EDGE_LOOP ( 'NONE', ( #288, #230, #119, #248 ) ) ;
#159 = AXIS2_PLACEMENT_3D ( 'NONE', #89, #181, #195 ) ;
#160 = PRESENTATION_STYLE_ASSIGNMENT (( #293 ) ) ;
#161 = ORIENTED_EDGE ( 'NONE', *, *, #85, .F. ) ;
#162 =( CONVERSION_BASED_UNIT ( 'INCH', #116 ) LENGTH_UNIT ( ) NAMED_UNIT ( #118 ) );
#163 = VERTEX_POINT ( 'NONE', #83 ) ;
#164 = PRODUCT_RELATED_PRODUCT_CATEGORY ( 'part', '', ( #32 ) ) ;
#165 = ORIENTED_EDGE ( 'NONE', *, *, #132, .T. ) ;
#166 = AXIS2_PLACEMENT_3D ( 'NONE', #228, #202, #157 ) ;
#167 = EDGE_LOOP ( 'NONE', ( #203, #270, #238, #291 ) ) ;
#168 = DIRECTION ( 'NONE',  ( -1.000000000000000000, 0.0000000000000000000, 1.224646799147353700E-16 ) ) ;
#169 = DIRECTION ( 'NONE',  ( 1.000000000000000000, 0.0000000000000000000, 0.0000000000000000000 ) ) ;
#170 = CIRCLE ( 'NONE', #39, 0.04750000000000064587 ) ;
#171 = VECTOR ( 'NONE', #151, 39.37007874015747433 ) ;
#172 =( NAMED_UNIT ( * ) SI_UNIT ( $, .STERADIAN. ) SOLID_ANGLE_UNIT ( ) );
#173 = FACE_OUTER_BOUND ( 'NONE', #48, .T. ) ;
#174 = CARTESIAN_POINT ( 'NONE',  ( -0.02247749999999999401, 2.752699842783463224E-18, 0.06800000000000000488 ) ) ;
#175 = ORIENTED_EDGE ( 'NONE', *, *, #143, .T. ) ;
#176 = CARTESIAN_POINT ( 'NONE',  ( 0.02247750000000000095, 2.752699842783463224E-18, -2.752699842783464379E-18 ) ) ;
#177 = LINE ( 'NONE', #176, #227 ) ;
#178 = DIRECTION ( 'NONE',  ( 1.000000000000000000, 0.0000000000000000000, 0.0000000000000000000 ) ) ;
#179 = CIRCLE ( 'NONE', #128, 0.02247750000000000095 ) ;
#180 = VECTOR ( 'NONE', #130, 39.37007874015748143 ) ;
#181 = DIRECTION ( 'NONE',  ( 0.0000000000000000000, 0.0000000000000000000, -1.000000000000000000 ) ) ;
#182 = VERTEX_POINT ( 'NONE', #239 ) ;
#183 = EDGE_LOOP ( 'NONE', ( #225, #71, #53, #27 ) ) ;
#184 = AXIS2_PLACEMENT_3D ( 'NONE', #64, #108, #260 ) ;
#185 =( LENGTH_UNIT ( ) NAMED_UNIT ( * ) SI_UNIT ( $, .METRE. ) );
#186 = EDGE_CURVE ( 'NONE', #46, #96, #11, .T. ) ;
#187 = VERTEX_POINT ( 'NONE', #241 ) ;
#188 = EDGE_LOOP ( 'NONE', ( #240, #296, #280, #94 ) ) ;
#189 = EDGE_CURVE ( 'NONE', #96, #268, #221, .T. ) ;
#190 = PRESENTATION_LAYER_ASSIGNMENT (  '', '', ( #150 ) ) ;
#191 = DIRECTION ( 'NONE',  ( 0.7071067811865462405, 8.659560562354916834E-17, -0.7071067811865486830 ) ) ;
#192 = DIRECTION ( 'NONE',  ( 0.0000000000000000000, 0.0000000000000000000, -1.000000000000000000 ) ) ;
#193 = AXIS2_PLACEMENT_3D ( 'NONE', #123, #98, #169 ) ;
#194 = CARTESIAN_POINT ( 'NONE',  ( 3.371085051478193277E-34, 0.0000000000000000000, 2.752699842783464379E-18 ) ) ;
#195 = DIRECTION ( 'NONE',  ( -1.000000000000000000, 0.0000000000000000000, 0.0000000000000000000 ) ) ;
#196 = LINE ( 'NONE', #281, #180 ) ;
#197 = CARTESIAN_POINT ( 'NONE',  ( 0.0000000000000000000, 0.0000000000000000000, 1.485000000000000764 ) ) ;
#198 = DIRECTION ( 'NONE',  ( -1.000000000000000000, 0.0000000000000000000, 0.0000000000000000000 ) ) ;
#199 = CARTESIAN_POINT ( 'NONE',  ( -0.04750000000000064587, 0.0000000000000000000, 1.500000000000000222 ) ) ;
#200 = AXIS2_PLACEMENT_3D ( 'NONE', #153, #126, #10 ) ;
#201 = SURFACE_STYLE_FILL_AREA ( #22 ) ;
#202 = DIRECTION ( 'NONE',  ( -1.224646799147353700E-16, -0.0000000000000000000, -1.000000000000000000 ) ) ;
#203 = ORIENTED_EDGE ( 'NONE', *, *, #152, .F. ) ;
#204 = CIRCLE ( 'NONE', #166, 0.06250000000000002776 ) ;
#205 = PRODUCT_DEFINITION_CONTEXT ( 'detailed design', #258, 'design' ) ;
#206 = EDGE_LOOP ( 'NONE', ( #294, #165 ) ) ;
#207 = ORIENTED_EDGE ( 'NONE', *, *, #85, .T. ) ;
#208 = DIRECTION ( 'NONE',  ( -1.000000000000000000, 0.0000000000000000000, 1.224646799147353700E-16 ) ) ;
#209 = AXIS2_PLACEMENT_3D ( 'NONE', #75, #275, #168 ) ;
#210 = ADVANCED_FACE ( 'NONE', ( #62 ), #262, .T. ) ;
#211 = APPLICATION_CONTEXT ( 'automotive_design' ) ;
#212 = CARTESIAN_POINT ( 'NONE',  ( 3.612449370756826914E-17, 0.0000000000000000000, 0.2949788766256485895 ) ) ;
#213 = CIRCLE ( 'NONE', #133, 0.02247750000000000095 ) ;
#214 = CYLINDRICAL_SURFACE ( 'NONE', #117, 0.06250000000000002776 ) ;
#215 = EDGE_CURVE ( 'NONE', #268, #187, #196, .T. ) ;
#216 = CARTESIAN_POINT ( 'NONE',  ( 0.0000000000000000000, 0.0000000000000000000, 0.0000000000000000000 ) ) ;
#217 = DIRECTION ( 'NONE',  ( 0.0000000000000000000, 0.0000000000000000000, 1.000000000000000000 ) ) ;
#218 = MECHANICAL_DESIGN_GEOMETRIC_PRESENTATION_REPRESENTATION (  '', ( #100 ), #138 ) ;
#219 = DIRECTION ( 'NONE',  ( -1.224646799147353700E-16, -0.0000000000000000000, -1.000000000000000000 ) ) ;
#220 = DIRECTION ( 'NONE',  ( -1.000000000000000000, 0.0000000000000000000, 0.0000000000000000000 ) ) ;
#221 = CIRCLE ( 'NONE', #298, 0.06250000000000002776 ) ;
#222 = APPLICATION_PROTOCOL_DEFINITION ( 'draft international standard', 'automotive_design', 1998, #211 ) ;
#223 = ORIENTED_EDGE ( 'NONE', *, *, #111, .T. ) ;
#224 = EDGE_CURVE ( 'NONE', #182, #17, #156, .T. ) ;
#225 = ORIENTED_EDGE ( 'NONE', *, *, #215, .F. ) ;
#226 = COLOUR_RGB ( '',0.7921568627450980005, 0.8196078431372548767, 0.9333333333333333481 ) ;
#227 = VECTOR ( 'NONE', #61, 39.37007874015748143 ) ;
#228 = CARTESIAN_POINT ( 'NONE',  ( 3.612449370756826914E-17, 0.0000000000000000000, 0.2949788766256485895 ) ) ;
#229 = ORIENTED_EDGE ( 'NONE', *, *, #49, .F. ) ;
#230 = ORIENTED_EDGE ( 'NONE', *, *, #233, .F. ) ;
#231 = DIRECTION ( 'NONE',  ( 0.0000000000000000000, 0.0000000000000000000, 1.000000000000000000 ) ) ;
#232 =( NAMED_UNIT ( * ) PLANE_ANGLE_UNIT ( ) SI_UNIT ( $, .RADIAN. ) );
#233 = EDGE_CURVE ( 'NONE', #74, #182, #255, .T. ) ;
#234 = FACE_OUTER_BOUND ( 'NONE', #167, .T. ) ;
#235 = CARTESIAN_POINT ( 'NONE',  ( 0.0000000000000000000, 0.0000000000000000000, 1.485000000000000764 ) ) ;
#236 = DIRECTION ( 'NONE',  ( 0.1736481776669314137, 0.0000000000000000000, 0.9848077530122077983 ) ) ;
#237 = CARTESIAN_POINT ( 'NONE',  ( 0.06250000000000002776, 7.654042494670959086E-18, 1.485000000000000764 ) ) ;
#238 = ORIENTED_EDGE ( 'NONE', *, *, #224, .T. ) ;
#239 = CARTESIAN_POINT ( 'NONE',  ( -0.02247749999999999401, 5.203371168727211732E-18, 0.06800000000000000488 ) ) ;
#240 = ORIENTED_EDGE ( 'NONE', *, *, #189, .T. ) ;
#241 = CARTESIAN_POINT ( 'NONE',  ( 0.06250000000000005551, 7.654042494670963708E-18, 0.2949788766256485895 ) ) ;
#242 = CARTESIAN_POINT ( 'NONE',  ( -0.02247750000000000095, 0.0000000000000000000, 2.752699842783464379E-18 ) ) ;
#243 = CARTESIAN_POINT ( 'NONE',  ( 0.0000000000000000000, 0.0000000000000000000, 0.0000000000000000000 ) ) ;
#244 = CYLINDRICAL_SURFACE ( 'NONE', #290, 0.02247750000000000095 ) ;
#245 = SURFACE_STYLE_USAGE ( .BOTH. , #69 ) ;
#246 =( LENGTH_UNIT ( ) NAMED_UNIT ( * ) SI_UNIT ( $, .METRE. ) );
#247 = ORIENTED_EDGE ( 'NONE', *, *, #143, .F. ) ;
#248 = ORIENTED_EDGE ( 'NONE', *, *, #274, .T. ) ;
#249 = AXIS2_PLACEMENT_3D ( 'NONE', #43, #131, #220 ) ;
#250 = EDGE_LOOP ( 'NONE', ( #115, #207, #140, #141 ) ) ;
#251 = DIRECTION ( 'NONE',  ( -1.224646799147353700E-16, -0.0000000000000000000, -1.000000000000000000 ) ) ;
#252 = DIRECTION ( 'NONE',  ( -1.000000000000000000, 0.0000000000000000000, 1.224646799147353700E-16 ) ) ;
#253 = ADVANCED_FACE ( 'NONE', ( #35 ), #93, .T. ) ;
#254 = CARTESIAN_POINT ( 'NONE',  ( -0.02247750000000000095, 0.0000000000000000000, 5.505399685566928759E-18 ) ) ;
#255 = CIRCLE ( 'NONE', #249, 0.02247750000000000095 ) ;
#256 = DIRECTION ( 'NONE',  ( 1.000000000000000000, 0.0000000000000000000, 0.0000000000000000000 ) ) ;
#257 = CARTESIAN_POINT ( 'NONE',  ( -0.06249999999999999306, 0.0000000000000000000, 0.2949788766256485895 ) ) ;
#258 = APPLICATION_CONTEXT ( 'automotive_design' ) ;
#259 = ADVANCED_FACE ( 'NONE', ( #65 ), #214, .T. ) ;
#260 = DIRECTION ( 'NONE',  ( 1.000000000000000000, 0.0000000000000000000, -0.0000000000000000000 ) ) ;
#261 = VECTOR ( 'NONE', #38, 39.37007874015748854 ) ;
#262 = CYLINDRICAL_SURFACE ( 'NONE', #276, 0.06250000000000002776 ) ;
#263 = EDGE_CURVE ( 'NONE', #182, #137, #81, .T. ) ;
#264 =( LENGTH_UNIT ( ) NAMED_UNIT ( * ) SI_UNIT ( $, .METRE. ) );
#265 = EDGE_LOOP ( 'NONE', ( #266, #59 ) ) ;
#266 = ORIENTED_EDGE ( 'NONE', *, *, #49, .T. ) ;
#267 = CONICAL_SURFACE ( 'NONE', #193, 0.02247750000000000095, 0.1745329251994339192 ) ;
#268 = VERTEX_POINT ( 'NONE', #237 ) ;
#269 = ADVANCED_FACE ( 'NONE', ( #36 ), #127, .F. ) ;
#270 = ORIENTED_EDGE ( 'NONE', *, *, #233, .T. ) ;
#271 = ORIENTED_EDGE ( 'NONE', *, *, #80, .F. ) ;
#272 = COLOUR_RGB ( '',0.7921568627450980005, 0.8196078431372548767, 0.9333333333333333481 ) ;
#273 = CARTESIAN_POINT ( 'NONE',  ( 0.04750000000000064587, 6.735557395310483192E-18, 1.500000000000000222 ) ) ;
#274 = EDGE_CURVE ( 'NONE', #187, #137, #204, .T. ) ;
#275 = DIRECTION ( 'NONE',  ( -1.224646799147353700E-16, -0.0000000000000000000, -1.000000000000000000 ) ) ;
#276 = AXIS2_PLACEMENT_3D ( 'NONE', #284, #155, #41 ) ;
#277 = DIRECTION ( 'NONE',  ( -1.224646799147353700E-16, -0.0000000000000000000, -1.000000000000000000 ) ) ;
#278 = LINE ( 'NONE', #79, #88 ) ;
#279 = DIRECTION ( 'NONE',  ( -1.000000000000000000, 0.0000000000000000000, 0.0000000000000000000 ) ) ;
#280 = ORIENTED_EDGE ( 'NONE', *, *, #111, .F. ) ;
#281 = CARTESIAN_POINT ( 'NONE',  ( 0.06250000000000002776, 7.654042494670959086E-18, 1.500000000000000222 ) ) ;
#282 = PLANE ( 'NONE',  #184 ) ;
#283 = FACE_OUTER_BOUND ( 'NONE', #206, .T. ) ;
#284 = CARTESIAN_POINT ( 'NONE',  ( 0.0000000000000000000, 0.0000000000000000000, 1.500000000000000222 ) ) ;
#285 = CIRCLE ( 'NONE', #292, 0.04750000000000064587 ) ;
#286 = PRODUCT_CONTEXT ( 'NONE', #211, 'mechanical' ) ;
#287 = ORIENTED_EDGE ( 'NONE', *, *, #186, .T. ) ;
#288 = ORIENTED_EDGE ( 'NONE', *, *, #263, .F. ) ;
#289 =( CONVERSION_BASED_UNIT ( 'INCH', #295 ) LENGTH_UNIT ( ) NAMED_UNIT ( #135 ) );
#290 = AXIS2_PLACEMENT_3D ( 'NONE', #78, #277, #252 ) ;
#291 = ORIENTED_EDGE ( 'NONE', *, *, #20, .F. ) ;
#292 = AXIS2_PLACEMENT_3D ( 'NONE', #109, #217, #107 ) ;
#293 = SURFACE_STYLE_USAGE ( .BOTH. , #44 ) ;
#294 = ORIENTED_EDGE ( 'NONE', *, *, #42, .T. ) ;
#295 = LENGTH_MEASURE_WITH_UNIT ( LENGTH_MEASURE( 0.02539999999999999897 ), #246 );
#296 = ORIENTED_EDGE ( 'NONE', *, *, #215, .T. ) ;
#297 = CARTESIAN_POINT ( 'NONE',  ( 0.04750000000000064587, 5.817072295950006528E-18, 1.500000000000000222 ) ) ;
#298 = AXIS2_PLACEMENT_3D ( 'NONE', #197, #84, #178 ) ;
#299 = DIRECTION ( 'NONE',  ( 0.0000000000000000000, 0.0000000000000000000, -1.000000000000000000 ) ) ;
ENDSEC;
END-ISO-10303-21;
