ISO-10303-21;
HEADER;
FILE_DESCRIPTION (( 'STEP AP214' ),
    '1' );
FILE_NAME ('59582.STEP',
    '2023-07-24T15:12:44',
    ( '' ),
    ( '' ),
    'SwSTEP 2.0',
    'SolidWorks 2023',
    '' );
FILE_SCHEMA (( 'AUTOMOTIVE_DESIGN' ));
ENDSEC;

DATA;
#1 = EDGE_CURVE ( 'NONE', #184, #146, #106, .T. ) ;
#2 = PRESENTATION_STYLE_ASSIGNMENT (( #8 ) ) ;
#3 = COLOUR_RGB ( '',1.000000000000000000, 0.000000000000000000, 0.000000000000000000 ) ;
#4 = FACE_OUTER_BOUND ( 'NONE', #208, .T. ) ;
#5 = DIRECTION ( 'NONE',  ( 0.000000000000000000, 0.000000000000000000, -1.000000000000000000 ) ) ;
#6 = EDGE_CURVE ( 'NONE', #275, #70, #290, .T. ) ;
#7 = ORIENTED_EDGE ( 'NONE', *, *, #192, .F. ) ;
#8 = SURFACE_STYLE_USAGE ( .BOTH. , #182 ) ;
#9 = PLANE ( 'NONE',  #336 ) ;
#10 = EDGE_LOOP ( 'NONE', ( #97, #13, #164, #179 ) ) ;
#11 = FILL_AREA_STYLE ('',( #362 ) ) ;
#12 = AXIS2_PLACEMENT_3D ( 'NONE', #44, #153, #270 ) ;
#13 = ORIENTED_EDGE ( 'NONE', *, *, #253, .T. ) ;
#14 = DIRECTION ( 'NONE',  ( -0.000000000000000000, -1.000000000000000000, -0.000000000000000000 ) ) ;
#15 = ADVANCED_FACE ( 'NONE', ( #129 ), #311, .T. ) ;
#16 = PRODUCT_DEFINITION_CONTEXT ( 'detailed design', #53, 'design' ) ;
#17 = ORIENTED_EDGE ( 'NONE', *, *, #133, .T. ) ;
#18 = DIRECTION ( 'NONE',  ( -9.135657442593541248E-17, 1.000000000000000000, -0.000000000000000000 ) ) ;
#19 = ORIENTED_EDGE ( 'NONE', *, *, #78, .F. ) ;
#20 =( NAMED_UNIT ( * ) SI_UNIT ( $, .STERADIAN. ) SOLID_ANGLE_UNIT ( ) );
#21 = PRESENTATION_LAYER_ASSIGNMENT (  '', '', ( #239 ) ) ;
#22 = PRESENTATION_LAYER_ASSIGNMENT (  '', '', ( #204 ) ) ;
#23 = SURFACE_SIDE_STYLE ('',( #280 ) ) ;
#24 = DIRECTION ( 'NONE',  ( -0.000000000000000000, -1.000000000000000000, -0.000000000000000000 ) ) ;
#25 = SURFACE_STYLE_USAGE ( .BOTH. , #282 ) ;
#26 = AXIS2_PLACEMENT_3D ( 'NONE', #180, #261, #36 ) ;
#27 = AXIS2_PLACEMENT_3D ( 'NONE', #162, #196, #54 ) ;
#28 = ADVANCED_FACE ( 'NONE', ( #364 ), #111, .T. ) ;
#29 = CARTESIAN_POINT ( 'NONE',  ( 1.469576158976823750E-15, 63.00000000000000000, 0.000000000000000000 ) ) ;
#30 = UNCERTAINTY_MEASURE_WITH_UNIT (LENGTH_MEASURE( 1.000000000000000082E-05 ), #183, 'distance_accuracy_value', 'NONE');
#31 = APPLICATION_CONTEXT ( 'automotive_design' ) ;
#32 = DIRECTION ( 'NONE',  ( -0.000000000000000000, -1.000000000000000000, -0.000000000000000000 ) ) ;
#33 =( NAMED_UNIT ( * ) PLANE_ANGLE_UNIT ( ) SI_UNIT ( $, .RADIAN. ) );
#34 = AXIS2_PLACEMENT_3D ( 'NONE', #43, #294, #353 ) ;
#35 =( GEOMETRIC_REPRESENTATION_CONTEXT ( 3 ) GLOBAL_UNCERTAINTY_ASSIGNED_CONTEXT ( ( #328 ) ) GLOBAL_UNIT_ASSIGNED_CONTEXT ( ( #278, #223, #20 ) ) REPRESENTATION_CONTEXT ( 'NONE', 'WORKASPACE' ) );
#36 = DIRECTION ( 'NONE',  ( 0.000000000000000000, -0.000000000000000000, 1.000000000000000000 ) ) ;
#37 = EDGE_CURVE ( 'NONE', #146, #184, #90, .T. ) ;
#38 = DIRECTION ( 'NONE',  ( -1.000000000000000000, -9.135657442593541248E-17, 0.000000000000000000 ) ) ;
#39 = STYLED_ITEM ( 'NONE', ( #252 ), #172 ) ;
#40 = CARTESIAN_POINT ( 'NONE',  ( 0.000000000000000000, 0.000000000000000000, 0.000000000000000000 ) ) ;
#41 = ADVANCED_FACE ( 'NONE', ( #205 ), #173, .T. ) ;
#42 = ORIENTED_EDGE ( 'NONE', *, *, #317, .F. ) ;
#43 = CARTESIAN_POINT ( 'NONE',  ( 0.000000000000000000, 1.000000000000000000, 0.000000000000000000 ) ) ;
#44 = CARTESIAN_POINT ( 'NONE',  ( 0.000000000000000000, 0.000000000000000000, 0.000000000000000000 ) ) ;
#45 = DIRECTION ( 'NONE',  ( -9.135657442593541248E-17, 1.000000000000000000, -0.000000000000000000 ) ) ;
#46 = DIRECTION ( 'NONE',  ( 1.000000000000000000, 9.135657442593541248E-17, 0.000000000000000000 ) ) ;
#47 = CARTESIAN_POINT ( 'NONE',  ( 0.000000000000000000, 15.00000000000000000, 0.000000000000000000 ) ) ;
#48 = CIRCLE ( 'NONE', #131, 4.999999999999998224 ) ;
#49 = ORIENTED_EDGE ( 'NONE', *, *, #358, .F. ) ;
#50 = DIRECTION ( 'NONE',  ( -0.000000000000000000, -1.000000000000000000, -0.000000000000000000 ) ) ;
#51 = ORIENTED_EDGE ( 'NONE', *, *, #133, .F. ) ;
#52 =( NAMED_UNIT ( * ) PLANE_ANGLE_UNIT ( ) SI_UNIT ( $, .RADIAN. ) );
#53 = APPLICATION_CONTEXT ( 'automotive_design' ) ;
#54 = DIRECTION ( 'NONE',  ( 0.000000000000000000, 0.000000000000000000, -1.000000000000000000 ) ) ;
#55 = ADVANCED_FACE ( 'NONE', ( #115 ), #9, .T. ) ;
#56 = STYLED_ITEM ( 'NONE', ( #64 ), #55 ) ;
#57 = DIRECTION ( 'NONE',  ( -9.135657442593541248E-17, 1.000000000000000000, -0.000000000000000000 ) ) ;
#58 = APPLICATION_PROTOCOL_DEFINITION ( 'draft international standard', 'automotive_design', 1998, #31 ) ;
#59 = SURFACE_STYLE_USAGE ( .BOTH. , #254 ) ;
#60 = COLOUR_RGB ( '',1.000000000000000000, 0.000000000000000000, 0.000000000000000000 ) ;
#61 = PRESENTATION_LAYER_ASSIGNMENT (  '', '', ( #118 ) ) ;
#62 = CARTESIAN_POINT ( 'NONE',  ( 4.898587196589412829E-16, 1.000000000000000000, 4.000000000000000000 ) ) ;
#63 =( NAMED_UNIT ( * ) SI_UNIT ( $, .STERADIAN. ) SOLID_ANGLE_UNIT ( ) );
#64 = PRESENTATION_STYLE_ASSIGNMENT (( #99 ) ) ;
#65 = FILL_AREA_STYLE_COLOUR ( '', #203 ) ;
#66 = EDGE_LOOP ( 'NONE', ( #301, #17 ) ) ;
#67 = CARTESIAN_POINT ( 'NONE',  ( 0.000000000000000000, 1.000000000000000000, 0.000000000000000000 ) ) ;
#68 = AXIS2_PLACEMENT_3D ( 'NONE', #67, #95, #296 ) ;
#69 = CARTESIAN_POINT ( 'NONE',  ( 5.000000000000000000, 63.00000000000000000, 6.123233995736762338E-16 ) ) ;
#70 = VERTEX_POINT ( 'NONE', #347 ) ;
#71 = DIRECTION ( 'NONE',  ( 0.000000000000000000, 0.000000000000000000, -1.000000000000000000 ) ) ;
#72 = ORIENTED_EDGE ( 'NONE', *, *, #37, .F. ) ;
#73 = CARTESIAN_POINT ( 'NONE',  ( 1.469576158976823750E-15, 63.00000000000000000, 0.000000000000000000 ) ) ;
#74 = EDGE_LOOP ( 'NONE', ( #49, #234, #218, #51 ) ) ;
#75 = CIRCLE ( 'NONE', #286, 4.999999999999998224 ) ;
#76 =( GEOMETRIC_REPRESENTATION_CONTEXT ( 3 ) GLOBAL_UNCERTAINTY_ASSIGNED_CONTEXT ( ( #86 ) ) GLOBAL_UNIT_ASSIGNED_CONTEXT ( ( #101, #52, #298 ) ) REPRESENTATION_CONTEXT ( 'NONE', 'WORKASPACE' ) );
#77 = PRESENTATION_STYLE_ASSIGNMENT (( #221 ) ) ;
#78 = EDGE_CURVE ( 'NONE', #359, #128, #258, .T. ) ;
#79 = DIRECTION ( 'NONE',  ( 0.000000000000000000, 0.000000000000000000, 1.000000000000000000 ) ) ;
#80 = PRESENTATION_LAYER_ASSIGNMENT (  '', '', ( #211 ) ) ;
#81 = DIRECTION ( 'NONE',  ( 1.000000000000000000, 0.000000000000000000, 0.000000000000000000 ) ) ;
#82 = DIRECTION ( 'NONE',  ( -0.000000000000000000, -1.000000000000000000, -0.000000000000000000 ) ) ;
#83 = CARTESIAN_POINT ( 'NONE',  ( 5.854691731421723944E-15, 15.00000000000000000, 0.000000000000000000 ) ) ;
#84 = PRESENTATION_STYLE_ASSIGNMENT (( #283 ) ) ;
#85 = CARTESIAN_POINT ( 'NONE',  ( 0.000000000000000000, 1.000000000000000000, -5.000000000000000000 ) ) ;
#86 = UNCERTAINTY_MEASURE_WITH_UNIT (LENGTH_MEASURE( 1.000000000000000082E-05 ), #101, 'distance_accuracy_value', 'NONE');
#87 = ADVANCED_FACE ( 'NONE', ( #352 ), #214, .F. ) ;
#88 = VERTEX_POINT ( 'NONE', #322 ) ;
#89 = CARTESIAN_POINT ( 'NONE',  ( 0.000000000000000000, 15.00000000000000000, 0.000000000000000000 ) ) ;
#90 = CIRCLE ( 'NONE', #291, 4.999999999999993783 ) ;
#91 = CIRCLE ( 'NONE', #287, 4.000000000000000000 ) ;
#92 = CARTESIAN_POINT ( 'NONE',  ( 0.000000000000000000, 1.000000000000000000, -4.000000000000000000 ) ) ;
#93 = ORIENTED_EDGE ( 'NONE', *, *, #358, .T. ) ;
#94 = DIRECTION ( 'NONE',  ( -9.135657442593541248E-17, 1.000000000000000000, -0.000000000000000000 ) ) ;
#95 = DIRECTION ( 'NONE',  ( -0.000000000000000000, -1.000000000000000000, -0.000000000000000000 ) ) ;
#96 = CARTESIAN_POINT ( 'NONE',  ( 5.000000000000000000, 63.00000000000000000, 0.000000000000000000 ) ) ;
#97 = ORIENTED_EDGE ( 'NONE', *, *, #154, .F. ) ;
#98 = VECTOR ( 'NONE', #24, 1000.000000000000000 ) ;
#99 = SURFACE_STYLE_USAGE ( .BOTH. , #119 ) ;
#100 = EDGE_LOOP ( 'NONE', ( #271, #266, #326, #42 ) ) ;
#101 =( LENGTH_UNIT ( ) NAMED_UNIT ( * ) SI_UNIT ( .MILLI., .METRE. ) );
#102 = ORIENTED_EDGE ( 'NONE', *, *, #6, .T. ) ;
#103 =( GEOMETRIC_REPRESENTATION_CONTEXT ( 3 ) GLOBAL_UNCERTAINTY_ASSIGNED_CONTEXT ( ( #122 ) ) GLOBAL_UNIT_ASSIGNED_CONTEXT ( ( #149, #215, #156 ) ) REPRESENTATION_CONTEXT ( 'NONE', 'WORKASPACE' ) );
#104 = FACE_OUTER_BOUND ( 'NONE', #10, .T. ) ;
#105 = PRODUCT_CONTEXT ( 'NONE', #31, 'mechanical' ) ;
#106 = CIRCLE ( 'NONE', #303, 4.999999999999993783 ) ;
#107 = MECHANICAL_DESIGN_GEOMETRIC_PRESENTATION_REPRESENTATION (  '', ( #211 ), #348 ) ;
#108 = PRESENTATION_LAYER_ASSIGNMENT (  '', '', ( #263 ) ) ;
#109 = DIRECTION ( 'NONE',  ( -1.000000000000000000, 0.000000000000000000, 0.000000000000000000 ) ) ;
#110 = PRESENTATION_STYLE_ASSIGNMENT (( #59 ) ) ;
#111 = CYLINDRICAL_SURFACE ( 'NONE', #369, 4.999999999999995559 ) ;
#112 = DIRECTION ( 'NONE',  ( -1.000000000000000000, 0.000000000000000000, 0.000000000000000000 ) ) ;
#113 = ORIENTED_EDGE ( 'NONE', *, *, #317, .T. ) ;
#114 = FILL_AREA_STYLE ('',( #241 ) ) ;
#115 = FACE_OUTER_BOUND ( 'NONE', #66, .T. ) ;
#116 = CLOSED_SHELL ( 'NONE', ( #28, #187, #354, #87 ) ) ;
#117 = SURFACE_SIDE_STYLE ('',( #237 ) ) ;
#118 = STYLED_ITEM ( 'NONE', ( #213 ), #231 ) ;
#119 = SURFACE_SIDE_STYLE ('',( #244 ) ) ;
#120 = LINE ( 'NONE', #240, #185 ) ;
#121 = DIRECTION ( 'NONE',  ( -1.000000000000000000, 0.000000000000000000, 0.000000000000000000 ) ) ;
#122 = UNCERTAINTY_MEASURE_WITH_UNIT (LENGTH_MEASURE( 1.000000000000000082E-05 ), #149, 'distance_accuracy_value', 'NONE');
#123 =( NAMED_UNIT ( * ) PLANE_ANGLE_UNIT ( ) SI_UNIT ( $, .RADIAN. ) );
#124 = DIRECTION ( 'NONE',  ( -0.000000000000000000, -1.000000000000000000, -0.000000000000000000 ) ) ;
#125 = MECHANICAL_DESIGN_GEOMETRIC_PRESENTATION_REPRESENTATION (  '', ( #239 ), #159 ) ;
#126 = MECHANICAL_DESIGN_GEOMETRIC_PRESENTATION_REPRESENTATION (  '', ( #204 ), #35 ) ;
#127 = VERTEX_POINT ( 'NONE', #69 ) ;
#128 = VERTEX_POINT ( 'NONE', #186 ) ;
#129 = FACE_OUTER_BOUND ( 'NONE', #247, .T. ) ;
#130 = PRESENTATION_LAYER_ASSIGNMENT (  '', '', ( #39 ) ) ;
#131 = AXIS2_PLACEMENT_3D ( 'NONE', #276, #18, #357 ) ;
#132 = PRESENTATION_STYLE_ASSIGNMENT (( #302 ) ) ;
#133 = EDGE_CURVE ( 'NONE', #88, #128, #176, .T. ) ;
#134 = CLOSED_SHELL ( 'NONE', ( #41, #15, #55, #172, #259, #206 ) ) ;
#135 =( LENGTH_UNIT ( ) NAMED_UNIT ( * ) SI_UNIT ( .MILLI., .METRE. ) );
#136 = SURFACE_STYLE_FILL_AREA ( #168 ) ;
#137 = FILL_AREA_STYLE ('',( #143 ) ) ;
#138 = APPLICATION_PROTOCOL_DEFINITION ( 'draft international standard', 'automotive_design', 1998, #53 ) ;
#139 = DIRECTION ( 'NONE',  ( -9.135657442593541248E-17, 1.000000000000000000, -0.000000000000000000 ) ) ;
#140 = MECHANICAL_DESIGN_GEOMETRIC_PRESENTATION_REPRESENTATION (  '', ( #39 ), #197 ) ;
#141 = COLOUR_RGB ( '',1.000000000000000000, 0.000000000000000000, 0.000000000000000000 ) ;
#142 =( NAMED_UNIT ( * ) PLANE_ANGLE_UNIT ( ) SI_UNIT ( $, .RADIAN. ) );
#143 = FILL_AREA_STYLE_COLOUR ( '', #60 ) ;
#144 = CARTESIAN_POINT ( 'NONE',  ( 6.123233995736766282E-16, 1.000000000000000000, 5.000000000000000000 ) ) ;
#145 = FILL_AREA_STYLE ('',( #65 ) ) ;
#146 = VERTEX_POINT ( 'NONE', #236 ) ;
#147 = PLANE ( 'NONE',  #245 ) ;
#148 = AXIS2_PLACEMENT_3D ( 'NONE', #340, #32, #230 ) ;
#149 =( LENGTH_UNIT ( ) NAMED_UNIT ( * ) SI_UNIT ( .MILLI., .METRE. ) );
#150 = COLOUR_RGB ( '',0.7921568627450980005, 0.8196078431372548767, 0.9333333333333333481 ) ;
#151 = ORIENTED_EDGE ( 'NONE', *, *, #227, .T. ) ;
#152 = FILL_AREA_STYLE_COLOUR ( '', #281 ) ;
#153 = DIRECTION ( 'NONE',  ( -0.000000000000000000, -1.000000000000000000, -0.000000000000000000 ) ) ;
#154 = EDGE_CURVE ( 'NONE', #70, #191, #345, .T. ) ;
#155 = DIRECTION ( 'NONE',  ( 0.000000000000000000, 0.000000000000000000, -1.000000000000000000 ) ) ;
#156 =( NAMED_UNIT ( * ) SI_UNIT ( $, .STERADIAN. ) SOLID_ANGLE_UNIT ( ) );
#157 = DIRECTION ( 'NONE',  ( 0.000000000000000000, 0.000000000000000000, -1.000000000000000000 ) ) ;
#158 = ORIENTED_EDGE ( 'NONE', *, *, #6, .F. ) ;
#159 =( GEOMETRIC_REPRESENTATION_CONTEXT ( 3 ) GLOBAL_UNCERTAINTY_ASSIGNED_CONTEXT ( ( #207 ) ) GLOBAL_UNIT_ASSIGNED_CONTEXT ( ( #315, #229, #181 ) ) REPRESENTATION_CONTEXT ( 'NONE', 'WORKASPACE' ) );
#160 = AXIS2_PLACEMENT_3D ( 'NONE', #219, #50, #334 ) ;
#161 = DIRECTION ( 'NONE',  ( -1.000000000000000000, 0.000000000000000000, 0.000000000000000000 ) ) ;
#162 = CARTESIAN_POINT ( 'NONE',  ( 0.000000000000000000, 1.000000000000000000, 0.000000000000000000 ) ) ;
#163 = EDGE_CURVE ( 'NONE', #275, #359, #202, .T. ) ;
#164 = ORIENTED_EDGE ( 'NONE', *, *, #163, .T. ) ;
#165 = LINE ( 'NONE', #166, #212 ) ;
#166 = CARTESIAN_POINT ( 'NONE',  ( -4.999999999999993783, 63.00000000000000000, 0.000000000000000000 ) ) ;
#167 = STYLED_ITEM ( 'NONE', ( #110 ), #15 ) ;
#168 = FILL_AREA_STYLE ('',( #368 ) ) ;
#169 = COLOUR_RGB ( '',1.000000000000000000, 0.000000000000000000, 0.000000000000000000 ) ;
#170 = CIRCLE ( 'NONE', #313, 1.000000000000000000 ) ;
#171 =( NAMED_UNIT ( * ) SI_UNIT ( $, .STERADIAN. ) SOLID_ANGLE_UNIT ( ) );
#172 = ADVANCED_FACE ( 'NONE', ( #285 ), #361, .T. ) ;
#173 = CYLINDRICAL_SURFACE ( 'NONE', #305, 5.000000000000000000 ) ;
#174 = ORIENTED_EDGE ( 'NONE', *, *, #37, .T. ) ;
#175 = CARTESIAN_POINT ( 'NONE',  ( 1.469576158976823750E-15, 63.00000000000000000, 0.000000000000000000 ) ) ;
#176 = CIRCLE ( 'NONE', #12, 4.000000000000000000 ) ;
#177 = FILL_AREA_STYLE ('',( #152 ) ) ;
#178 = DIRECTION ( 'NONE',  ( -0.000000000000000000, -1.000000000000000000, -0.000000000000000000 ) ) ;
#179 = ORIENTED_EDGE ( 'NONE', *, *, #314, .F. ) ;
#180 = CARTESIAN_POINT ( 'NONE',  ( 0.000000000000000000, 15.00000000000000000, 0.000000000000000000 ) ) ;
#181 =( NAMED_UNIT ( * ) SI_UNIT ( $, .STERADIAN. ) SOLID_ANGLE_UNIT ( ) );
#182 = SURFACE_SIDE_STYLE ('',( #267 ) ) ;
#183 =( LENGTH_UNIT ( ) NAMED_UNIT ( * ) SI_UNIT ( .MILLI., .METRE. ) );
#184 = VERTEX_POINT ( 'NONE', #255 ) ;
#185 = VECTOR ( 'NONE', #94, 1000.000000000000000 ) ;
#186 = CARTESIAN_POINT ( 'NONE',  ( 0.000000000000000000, 0.000000000000000000, -4.000000000000000000 ) ) ;
#187 = ADVANCED_FACE ( 'NONE', ( #4 ), #147, .F. ) ;
#188 = ORIENTED_EDGE ( 'NONE', *, *, #253, .F. ) ;
#189 = SURFACE_STYLE_FILL_AREA ( #11 ) ;
#190 = PRODUCT_DEFINITION ( 'UNKNOWN', '', #274, #16 ) ;
#191 = VERTEX_POINT ( 'NONE', #144 ) ;
#192 = EDGE_CURVE ( 'NONE', #146, #127, #120, .T. ) ;
#193 = AXIS2_PLACEMENT_3D ( 'NONE', #92, #121, #242 ) ;
#194 = MECHANICAL_DESIGN_GEOMETRIC_PRESENTATION_REPRESENTATION (  '', ( #56 ), #343 ) ;
#195 = ORIENTED_EDGE ( 'NONE', *, *, #154, .T. ) ;
#196 = DIRECTION ( 'NONE',  ( -0.000000000000000000, -1.000000000000000000, -0.000000000000000000 ) ) ;
#197 =( GEOMETRIC_REPRESENTATION_CONTEXT ( 3 ) GLOBAL_UNCERTAINTY_ASSIGNED_CONTEXT ( ( #265 ) ) GLOBAL_UNIT_ASSIGNED_CONTEXT ( ( #341, #142, #209 ) ) REPRESENTATION_CONTEXT ( 'NONE', 'WORKASPACE' ) );
#198 = EDGE_CURVE ( 'NONE', #359, #191, #365, .T. ) ;
#199 = MECHANICAL_DESIGN_GEOMETRIC_PRESENTATION_REPRESENTATION (  '', ( #263 ), #76 ) ;
#200 = FILL_AREA_STYLE_COLOUR ( '', #169 ) ;
#201 = PRODUCT_DEFINITION_SHAPE ( 'NONE', 'NONE',  #190 ) ;
#202 = LINE ( 'NONE', #339, #312 ) ;
#203 = COLOUR_RGB ( '',1.000000000000000000, 0.000000000000000000, 0.000000000000000000 ) ;
#204 = STYLED_ITEM ( 'NONE', ( #77 ), #350 ) ;
#205 = FACE_OUTER_BOUND ( 'NONE', #217, .T. ) ;
#206 = ADVANCED_FACE ( 'NONE', ( #260 ), #319, .T. ) ;
#207 = UNCERTAINTY_MEASURE_WITH_UNIT (LENGTH_MEASURE( 1.000000000000000082E-05 ), #315, 'distance_accuracy_value', 'NONE');
#208 = EDGE_LOOP ( 'NONE', ( #220, #72 ) ) ;
#209 =( NAMED_UNIT ( * ) SI_UNIT ( $, .STERADIAN. ) SOLID_ANGLE_UNIT ( ) );
#210 = CARTESIAN_POINT ( 'NONE',  ( 0.000000000000000000, 0.000000000000000000, 0.000000000000000000 ) ) ;
#211 = STYLED_ITEM ( 'NONE', ( #2 ), #206 ) ;
#212 = VECTOR ( 'NONE', #332, 1000.000000000000000 ) ;
#213 = PRESENTATION_STYLE_ASSIGNMENT (( #351 ) ) ;
#214 = PLANE ( 'NONE',  #222 ) ;
#215 =( NAMED_UNIT ( * ) PLANE_ANGLE_UNIT ( ) SI_UNIT ( $, .RADIAN. ) );
#216 = DIRECTION ( 'NONE',  ( 9.135657442593541248E-17, -1.000000000000000000, 0.000000000000000000 ) ) ;
#217 = EDGE_LOOP ( 'NONE', ( #102, #195, #251, #329 ) ) ;
#218 = ORIENTED_EDGE ( 'NONE', *, *, #78, .T. ) ;
#219 = CARTESIAN_POINT ( 'NONE',  ( 0.000000000000000000, 0.000000000000000000, 0.000000000000000000 ) ) ;
#220 = ORIENTED_EDGE ( 'NONE', *, *, #1, .F. ) ;
#221 = SURFACE_STYLE_USAGE ( .BOTH. , #23 ) ;
#222 = AXIS2_PLACEMENT_3D ( 'NONE', #96, #216, #46 ) ;
#223 =( NAMED_UNIT ( * ) PLANE_ANGLE_UNIT ( ) SI_UNIT ( $, .RADIAN. ) );
#224 = PRESENTATION_LAYER_ASSIGNMENT (  '', '', ( #167 ) ) ;
#225 =( NAMED_UNIT ( * ) SI_UNIT ( $, .STERADIAN. ) SOLID_ANGLE_UNIT ( ) );
#226 = DIRECTION ( 'NONE',  ( 1.000000000000000000, 0.000000000000000000, -1.224646799147353207E-16 ) ) ;
#227 = EDGE_CURVE ( 'NONE', #370, #127, #75, .T. ) ;
#228 = SURFACE_STYLE_FILL_AREA ( #309 ) ;
#229 =( NAMED_UNIT ( * ) PLANE_ANGLE_UNIT ( ) SI_UNIT ( $, .RADIAN. ) );
#230 = DIRECTION ( 'NONE',  ( 0.000000000000000000, 0.000000000000000000, -1.000000000000000000 ) ) ;
#231 = MANIFOLD_SOLID_BREP ( 'Revolve - Tool Body (Straight Shanked)', #116 ) ;
#232 =( GEOMETRIC_REPRESENTATION_CONTEXT ( 3 ) GLOBAL_UNCERTAINTY_ASSIGNED_CONTEXT ( ( #349 ) ) GLOBAL_UNIT_ASSIGNED_CONTEXT ( ( #284, #335, #171 ) ) REPRESENTATION_CONTEXT ( 'NONE', 'WORKASPACE' ) );
#233 = UNCERTAINTY_MEASURE_WITH_UNIT (LENGTH_MEASURE( 1.000000000000000082E-05 ), #135, 'distance_accuracy_value', 'NONE');
#234 = ORIENTED_EDGE ( 'NONE', *, *, #314, .T. ) ;
#235 = DIRECTION ( 'NONE',  ( -9.135657442593541248E-17, 1.000000000000000000, 0.000000000000000000 ) ) ;
#236 = CARTESIAN_POINT ( 'NONE',  ( 5.000000000000000000, 15.00000000000000000, 6.123233995736762338E-16 ) ) ;
#237 = SURFACE_STYLE_FILL_AREA ( #114 ) ;
#238 = DIRECTION ( 'NONE',  ( 0.000000000000000000, -1.000000000000000000, -0.000000000000000000 ) ) ;
#239 = STYLED_ITEM ( 'NONE', ( #84 ), #41 ) ;
#240 = CARTESIAN_POINT ( 'NONE',  ( 4.999999999999997335, 63.00000000000000000, 6.123233995736761352E-16 ) ) ;
#241 = FILL_AREA_STYLE_COLOUR ( '', #330 ) ;
#242 = DIRECTION ( 'NONE',  ( 0.000000000000000000, 0.000000000000000000, 1.000000000000000000 ) ) ;
#243 =( LENGTH_UNIT ( ) NAMED_UNIT ( * ) SI_UNIT ( .MILLI., .METRE. ) );
#244 = SURFACE_STYLE_FILL_AREA ( #145 ) ;
#245 = AXIS2_PLACEMENT_3D ( 'NONE', #321, #235, #38 ) ;
#246 = DIRECTION ( 'NONE',  ( 0.000000000000000000, 0.000000000000000000, -1.000000000000000000 ) ) ;
#247 = EDGE_LOOP ( 'NONE', ( #295, #93, #320, #19 ) ) ;
#248 = CARTESIAN_POINT ( 'NONE',  ( 5.854691731421723944E-15, 15.00000000000000000, 0.000000000000000000 ) ) ;
#249 = FILL_AREA_STYLE ('',( #299 ) ) ;
#250 = CARTESIAN_POINT ( 'NONE',  ( 6.123233995736766282E-16, 0.000000000000000000, 5.000000000000000000 ) ) ;
#251 = ORIENTED_EDGE ( 'NONE', *, *, #198, .F. ) ;
#252 = PRESENTATION_STYLE_ASSIGNMENT (( #25 ) ) ;
#253 = EDGE_CURVE ( 'NONE', #70, #275, #306, .T. ) ;
#254 = SURFACE_SIDE_STYLE ('',( #344 ) ) ;
#255 = CARTESIAN_POINT ( 'NONE',  ( -4.999999999999987566, 15.00000000000000000, 0.000000000000000000 ) ) ;
#256 = CARTESIAN_POINT ( 'NONE',  ( -4.999999999999996447, 63.00000000000000000, 0.000000000000000000 ) ) ;
#257 =( NAMED_UNIT ( * ) PLANE_ANGLE_UNIT ( ) SI_UNIT ( $, .RADIAN. ) );
#258 = CIRCLE ( 'NONE', #193, 1.000000000000000000 ) ;
#259 = ADVANCED_FACE ( 'NONE', ( #104 ), #269, .T. ) ;
#260 = FACE_OUTER_BOUND ( 'NONE', #297, .T. ) ;
#261 = DIRECTION ( 'NONE',  ( 0.000000000000000000, 1.000000000000000000, 0.000000000000000000 ) ) ;
#262 =( GEOMETRIC_REPRESENTATION_CONTEXT ( 3 ) GLOBAL_UNCERTAINTY_ASSIGNED_CONTEXT ( ( #233 ) ) GLOBAL_UNIT_ASSIGNED_CONTEXT ( ( #135, #257, #225 ) ) REPRESENTATION_CONTEXT ( 'NONE', 'WORKASPACE' ) );
#263 = STYLED_ITEM ( 'NONE', ( #132 ), #259 ) ;
#264 =( NAMED_UNIT ( * ) SI_UNIT ( $, .STERADIAN. ) SOLID_ANGLE_UNIT ( ) );
#265 = UNCERTAINTY_MEASURE_WITH_UNIT (LENGTH_MEASURE( 1.000000000000000082E-05 ), #341, 'distance_accuracy_value', 'NONE');
#266 = ORIENTED_EDGE ( 'NONE', *, *, #192, .T. ) ;
#267 = SURFACE_STYLE_FILL_AREA ( #177 ) ;
#268 = EDGE_LOOP ( 'NONE', ( #151, #288 ) ) ;
#269 = CYLINDRICAL_SURFACE ( 'NONE', #160, 5.000000000000000000 ) ;
#270 = DIRECTION ( 'NONE',  ( 0.000000000000000000, 0.000000000000000000, -1.000000000000000000 ) ) ;
#271 = ORIENTED_EDGE ( 'NONE', *, *, #1, .T. ) ;
#272 = PRESENTATION_LAYER_ASSIGNMENT (  '', '', ( #56 ) ) ;
#273 = DIRECTION ( 'NONE',  ( -9.135657442593541248E-17, 1.000000000000000000, -0.000000000000000000 ) ) ;
#274 = PRODUCT_DEFINITION_FORMATION_WITH_SPECIFIED_SOURCE ( 'ANY', '', #292, .NOT_KNOWN. ) ;
#275 = VERTEX_POINT ( 'NONE', #363 ) ;
#276 = CARTESIAN_POINT ( 'NONE',  ( 1.469576158976823750E-15, 63.00000000000000000, 0.000000000000000000 ) ) ;
#277 = DIRECTION ( 'NONE',  ( -0.000000000000000000, -1.000000000000000000, -0.000000000000000000 ) ) ;
#278 =( LENGTH_UNIT ( ) NAMED_UNIT ( * ) SI_UNIT ( .MILLI., .METRE. ) );
#279 = AXIS2_PLACEMENT_3D ( 'NONE', #47, #277, #155 ) ;
#280 = SURFACE_STYLE_FILL_AREA ( #249 ) ;
#281 = COLOUR_RGB ( '',1.000000000000000000, 0.000000000000000000, 0.000000000000000000 ) ;
#282 = SURFACE_SIDE_STYLE ('',( #228 ) ) ;
#283 = SURFACE_STYLE_USAGE ( .BOTH. , #367 ) ;
#284 =( LENGTH_UNIT ( ) NAMED_UNIT ( * ) SI_UNIT ( .MILLI., .METRE. ) );
#285 = FACE_OUTER_BOUND ( 'NONE', #74, .T. ) ;
#286 = AXIS2_PLACEMENT_3D ( 'NONE', #175, #289, #112 ) ;
#287 = AXIS2_PLACEMENT_3D ( 'NONE', #327, #124, #246 ) ;
#288 = ORIENTED_EDGE ( 'NONE', *, *, #331, .T. ) ;
#289 = DIRECTION ( 'NONE',  ( -9.135657442593541248E-17, 1.000000000000000000, -0.000000000000000000 ) ) ;
#290 = CIRCLE ( 'NONE', #279, 5.000000000000000000 ) ;
#291 = AXIS2_PLACEMENT_3D ( 'NONE', #83, #57, #109 ) ;
#292 = PRODUCT ( '59582', '59582', '', ( #105 ) ) ;
#293 = PRODUCT_RELATED_PRODUCT_CATEGORY ( 'part', '', ( #292 ) ) ;
#294 = DIRECTION ( 'NONE',  ( -0.000000000000000000, -1.000000000000000000, -0.000000000000000000 ) ) ;
#295 = ORIENTED_EDGE ( 'NONE', *, *, #198, .T. ) ;
#296 = DIRECTION ( 'NONE',  ( 0.000000000000000000, 0.000000000000000000, -1.000000000000000000 ) ) ;
#297 = EDGE_LOOP ( 'NONE', ( #158, #188 ) ) ;
#298 =( NAMED_UNIT ( * ) SI_UNIT ( $, .STERADIAN. ) SOLID_ANGLE_UNIT ( ) );
#299 = FILL_AREA_STYLE_COLOUR ( '', #150 ) ;
#300 = AXIS2_PLACEMENT_3D ( 'NONE', #73, #273, #310 ) ;
#301 = ORIENTED_EDGE ( 'NONE', *, *, #307, .T. ) ;
#302 = SURFACE_STYLE_USAGE ( .BOTH. , #360 ) ;
#303 = AXIS2_PLACEMENT_3D ( 'NONE', #248, #45, #161 ) ;
#304 = DIRECTION ( 'NONE',  ( -1.224646799147353454E-16, 0.000000000000000000, -1.000000000000000000 ) ) ;
#305 = AXIS2_PLACEMENT_3D ( 'NONE', #210, #178, #157 ) ;
#306 = CIRCLE ( 'NONE', #316, 5.000000000000000000 ) ;
#307 = EDGE_CURVE ( 'NONE', #128, #88, #91, .T. ) ;
#308 = CARTESIAN_POINT ( 'NONE',  ( 0.000000000000000000, 0.000000000000000000, 0.000000000000000000 ) ) ;
#309 = FILL_AREA_STYLE ('',( #200 ) ) ;
#310 = DIRECTION ( 'NONE',  ( -1.000000000000000000, 0.000000000000000000, 0.000000000000000000 ) ) ;
#311 = TOROIDAL_SURFACE ( 'NONE', #148, 4.000000000000000000, 1.000000000000000000 ) ;
#312 = VECTOR ( 'NONE', #82, 1000.000000000000000 ) ;
#313 = AXIS2_PLACEMENT_3D ( 'NONE', #62, #226, #304 ) ;
#314 = EDGE_CURVE ( 'NONE', #191, #359, #366, .T. ) ;
#315 =( LENGTH_UNIT ( ) NAMED_UNIT ( * ) SI_UNIT ( .MILLI., .METRE. ) );
#316 = AXIS2_PLACEMENT_3D ( 'NONE', #89, #14, #71 ) ;
#317 = EDGE_CURVE ( 'NONE', #184, #370, #165, .T. ) ;
#318 = EDGE_LOOP ( 'NONE', ( #7, #174, #113, #323 ) ) ;
#319 = PLANE ( 'NONE',  #26 ) ;
#320 = ORIENTED_EDGE ( 'NONE', *, *, #307, .F. ) ;
#321 = CARTESIAN_POINT ( 'NONE',  ( 5.854691731421723944E-15, 15.00000000000000000, 0.000000000000000000 ) ) ;
#322 = CARTESIAN_POINT ( 'NONE',  ( 5.510910596163088569E-16, 0.000000000000000000, 4.000000000000000000 ) ) ;
#323 = ORIENTED_EDGE ( 'NONE', *, *, #331, .F. ) ;
#324 = UNCERTAINTY_MEASURE_WITH_UNIT (LENGTH_MEASURE( 1.000000000000000082E-05 ), #243, 'distance_accuracy_value', 'NONE');
#325 = FACE_OUTER_BOUND ( 'NONE', #318, .T. ) ;
#326 = ORIENTED_EDGE ( 'NONE', *, *, #227, .F. ) ;
#327 = CARTESIAN_POINT ( 'NONE',  ( 0.000000000000000000, 0.000000000000000000, 0.000000000000000000 ) ) ;
#328 = UNCERTAINTY_MEASURE_WITH_UNIT (LENGTH_MEASURE( 1.000000000000000082E-05 ), #278, 'distance_accuracy_value', 'NONE');
#329 = ORIENTED_EDGE ( 'NONE', *, *, #163, .F. ) ;
#330 = COLOUR_RGB ( '',0.7921568627450980005, 0.8196078431372548767, 0.9333333333333333481 ) ;
#331 = EDGE_CURVE ( 'NONE', #127, #370, #48, .T. ) ;
#332 = DIRECTION ( 'NONE',  ( -9.135657442593541248E-17, 1.000000000000000000, -0.000000000000000000 ) ) ;
#333 = ADVANCED_BREP_SHAPE_REPRESENTATION ( '59582', ( #350, #231, #337 ), #232 ) ;
#334 = DIRECTION ( 'NONE',  ( 0.000000000000000000, 0.000000000000000000, -1.000000000000000000 ) ) ;
#335 =( NAMED_UNIT ( * ) PLANE_ANGLE_UNIT ( ) SI_UNIT ( $, .RADIAN. ) );
#336 = AXIS2_PLACEMENT_3D ( 'NONE', #40, #238, #5 ) ;
#337 = AXIS2_PLACEMENT_3D ( 'NONE', #308, #79, #81 ) ;
#338 = DIRECTION ( 'NONE',  ( -1.000000000000000000, 0.000000000000000000, 0.000000000000000000 ) ) ;
#339 = CARTESIAN_POINT ( 'NONE',  ( 0.000000000000000000, 0.000000000000000000, -5.000000000000000000 ) ) ;
#340 = CARTESIAN_POINT ( 'NONE',  ( 0.000000000000000000, 1.000000000000000000, 0.000000000000000000 ) ) ;
#341 =( LENGTH_UNIT ( ) NAMED_UNIT ( * ) SI_UNIT ( .MILLI., .METRE. ) );
#342 = SHAPE_DEFINITION_REPRESENTATION ( #201, #333 ) ;
#343 =( GEOMETRIC_REPRESENTATION_CONTEXT ( 3 ) GLOBAL_UNCERTAINTY_ASSIGNED_CONTEXT ( ( #30 ) ) GLOBAL_UNIT_ASSIGNED_CONTEXT ( ( #183, #123, #264 ) ) REPRESENTATION_CONTEXT ( 'NONE', 'WORKASPACE' ) );
#344 = SURFACE_STYLE_FILL_AREA ( #137 ) ;
#345 = LINE ( 'NONE', #250, #98 ) ;
#346 = MECHANICAL_DESIGN_GEOMETRIC_PRESENTATION_REPRESENTATION (  '', ( #167 ), #262 ) ;
#347 = CARTESIAN_POINT ( 'NONE',  ( 6.123233995736766282E-16, 15.00000000000000000, 5.000000000000000000 ) ) ;
#348 =( GEOMETRIC_REPRESENTATION_CONTEXT ( 3 ) GLOBAL_UNCERTAINTY_ASSIGNED_CONTEXT ( ( #324 ) ) GLOBAL_UNIT_ASSIGNED_CONTEXT ( ( #243, #33, #63 ) ) REPRESENTATION_CONTEXT ( 'NONE', 'WORKASPACE' ) );
#349 = UNCERTAINTY_MEASURE_WITH_UNIT (LENGTH_MEASURE( 1.000000000000000082E-05 ), #284, 'distance_accuracy_value', 'NONE');
#350 = MANIFOLD_SOLID_BREP ( 'Revolve - Cutting Edge', #134 ) ;
#351 = SURFACE_STYLE_USAGE ( .BOTH. , #117 ) ;
#352 = FACE_OUTER_BOUND ( 'NONE', #268, .T. ) ;
#353 = DIRECTION ( 'NONE',  ( 0.000000000000000000, 0.000000000000000000, -1.000000000000000000 ) ) ;
#354 = ADVANCED_FACE ( 'NONE', ( #325 ), #356, .T. ) ;
#355 = MECHANICAL_DESIGN_GEOMETRIC_PRESENTATION_REPRESENTATION (  '', ( #118 ), #103 ) ;
#356 = CYLINDRICAL_SURFACE ( 'NONE', #300, 4.999999999999995559 ) ;
#357 = DIRECTION ( 'NONE',  ( -1.000000000000000000, 0.000000000000000000, 0.000000000000000000 ) ) ;
#358 = EDGE_CURVE ( 'NONE', #191, #88, #170, .T. ) ;
#359 = VERTEX_POINT ( 'NONE', #85 ) ;
#360 = SURFACE_SIDE_STYLE ('',( #189 ) ) ;
#361 = TOROIDAL_SURFACE ( 'NONE', #34, 4.000000000000000000, 1.000000000000000000 ) ;
#362 = FILL_AREA_STYLE_COLOUR ( '', #141 ) ;
#363 = CARTESIAN_POINT ( 'NONE',  ( 0.000000000000000000, 15.00000000000000000, -5.000000000000000000 ) ) ;
#364 = FACE_OUTER_BOUND ( 'NONE', #100, .T. ) ;
#365 = CIRCLE ( 'NONE', #68, 5.000000000000000000 ) ;
#366 = CIRCLE ( 'NONE', #27, 5.000000000000000000 ) ;
#367 = SURFACE_SIDE_STYLE ('',( #136 ) ) ;
#368 = FILL_AREA_STYLE_COLOUR ( '', #3 ) ;
#369 = AXIS2_PLACEMENT_3D ( 'NONE', #29, #139, #338 ) ;
#370 = VERTEX_POINT ( 'NONE', #256 ) ;
ENDSEC;
END-ISO-10303-21;
