ISO-10303-21;
HEADER;
FILE_DESCRIPTION (( 'STEP AP214' ),
    '1' );
FILE_NAME ('01450.STEP',
    '2023-06-22T14:31:47',
    ( '' ),
    ( '' ),
    'SwSTEP 2.0',
    'SolidWorks 2023',
    '' );
FILE_SCHEMA (( 'AUTOMOTIVE_DESIGN' ));
ENDSEC;

DATA;
#1 = AXIS2_PLACEMENT_3D ( 'NONE', #112, #203, #306 ) ;
#2 = VERTEX_POINT ( 'NONE', #277 ) ;
#3 = SURFACE_STYLE_FILL_AREA ( #199 ) ;
#4 = EDGE_CURVE ( 'NONE', #2, #103, #146, .T. ) ;
#5 = DIRECTION ( 'NONE',  ( -1.000000000000000000, 0.000000000000000000, 0.000000000000000000 ) ) ;
#6 = SURFACE_SIDE_STYLE ('',( #118 ) ) ;
#7 = PLANE ( 'NONE',  #8 ) ;
#8 = AXIS2_PLACEMENT_3D ( 'NONE', #98, #95, #169 ) ;
#9 = FACE_OUTER_BOUND ( 'NONE', #133, .T. ) ;
#10 = LENGTH_MEASURE_WITH_UNIT ( LENGTH_MEASURE( 0.02539999999999999897 ), #233 );
#11 = DIMENSIONAL_EXPONENTS ( 1.000000000000000000, 0.000000000000000000, 0.000000000000000000, 0.000000000000000000, 0.000000000000000000, 0.000000000000000000, 0.000000000000000000 ) ;
#12 = EDGE_LOOP ( 'NONE', ( #59, #105 ) ) ;
#13 = UNCERTAINTY_MEASURE_WITH_UNIT (LENGTH_MEASURE( 1.000000000000000082E-05 ), #213, 'distance_accuracy_value', 'NONE');
#14 = AXIS2_PLACEMENT_3D ( 'NONE', #47, #308, #223 ) ;
#15 = EDGE_CURVE ( 'NONE', #181, #38, #275, .T. ) ;
#16 = DIRECTION ( 'NONE',  ( 1.000000000000000000, 3.061616997868386099E-17, 0.000000000000000000 ) ) ;
#17 = CARTESIAN_POINT ( 'NONE',  ( 0.000000000000000000, 0.000000000000000000, 0.000000000000000000 ) ) ;
#18 = STYLED_ITEM ( 'NONE', ( #307 ), #291 ) ;
#19 = DIRECTION ( 'NONE',  ( -0.000000000000000000, -1.000000000000000000, -0.000000000000000000 ) ) ;
#20 = FACE_OUTER_BOUND ( 'NONE', #193, .T. ) ;
#21 = CARTESIAN_POINT ( 'NONE',  ( 7.582401355855259480E-33, 1.000000000000000000, 0.000000000000000000 ) ) ;
#22 =( NAMED_UNIT ( * ) SI_UNIT ( $, .STERADIAN. ) SOLID_ANGLE_UNIT ( ) );
#23 = ORIENTED_EDGE ( 'NONE', *, *, #69, .F. ) ;
#24 =( NAMED_UNIT ( * ) PLANE_ANGLE_UNIT ( ) SI_UNIT ( $, .RADIAN. ) );
#25 = CARTESIAN_POINT ( 'NONE',  ( 0.000000000000000000, 0.000000000000000000, 0.000000000000000000 ) ) ;
#26 = COLOUR_RGB ( '',0.7921568627450980005, 0.8196078431372548767, 0.9333333333333333481 ) ;
#27 = FILL_AREA_STYLE ('',( #84 ) ) ;
#28 = FILL_AREA_STYLE_COLOUR ( '', #218 ) ;
#29 = SURFACE_STYLE_FILL_AREA ( #76 ) ;
#30 =( LENGTH_UNIT ( ) NAMED_UNIT ( * ) SI_UNIT ( $, .METRE. ) );
#31 = SURFACE_SIDE_STYLE ('',( #29 ) ) ;
#32 = STYLED_ITEM ( 'NONE', ( #92 ), #156 ) ;
#33 = SURFACE_SIDE_STYLE ('',( #240 ) ) ;
#34 =( LENGTH_UNIT ( ) NAMED_UNIT ( * ) SI_UNIT ( $, .METRE. ) );
#35 = CIRCLE ( 'NONE', #1, 0.2500000000000000555 ) ;
#36 = COLOUR_RGB ( '',1.000000000000000000, 0.000000000000000000, 0.000000000000000000 ) ;
#37 = AXIS2_PLACEMENT_3D ( 'NONE', #120, #208, #93 ) ;
#38 = VERTEX_POINT ( 'NONE', #230 ) ;
#39 = ADVANCED_FACE ( 'NONE', ( #64 ), #65, .T. ) ;
#40 = LINE ( 'NONE', #108, #183 ) ;
#41 = UNCERTAINTY_MEASURE_WITH_UNIT (LENGTH_MEASURE( 1.000000000000000082E-05 ), #178, 'distance_accuracy_value', 'NONE');
#42 = EDGE_CURVE ( 'NONE', #273, #38, #35, .T. ) ;
#43 = LINE ( 'NONE', #179, #258 ) ;
#44 = DIRECTION ( 'NONE',  ( -3.061616997868386099E-17, 1.000000000000000000, -0.000000000000000000 ) ) ;
#45 = CARTESIAN_POINT ( 'NONE',  ( 3.061616997868383018E-17, 1.000000000000000000, 0.2500000000000000000 ) ) ;
#46 =( CONVERSION_BASED_UNIT ( 'INCH', #276 ) LENGTH_UNIT ( ) NAMED_UNIT ( #128 ) );
#47 = CARTESIAN_POINT ( 'NONE',  ( 0.000000000000000000, 1.000000000000000000, 0.000000000000000000 ) ) ;
#48 = CARTESIAN_POINT ( 'NONE',  ( 0.000000000000000000, 0.000000000000000000, 0.000000000000000000 ) ) ;
#49 = DIRECTION ( 'NONE',  ( -1.000000000000000000, 0.000000000000000000, 0.000000000000000000 ) ) ;
#50 =( NAMED_UNIT ( * ) SI_UNIT ( $, .STERADIAN. ) SOLID_ANGLE_UNIT ( ) );
#51 = EDGE_CURVE ( 'NONE', #181, #151, #217, .T. ) ;
#52 =( NAMED_UNIT ( * ) PLANE_ANGLE_UNIT ( ) SI_UNIT ( $, .RADIAN. ) );
#53 = COLOUR_RGB ( '',1.000000000000000000, 0.000000000000000000, 0.000000000000000000 ) ;
#54 = PRODUCT_CONTEXT ( 'NONE', #278, 'mechanical' ) ;
#55 = SURFACE_STYLE_USAGE ( .BOTH. , #163 ) ;
#56 = LENGTH_MEASURE_WITH_UNIT ( LENGTH_MEASURE( 0.02539999999999999897 ), #34 );
#57 = STYLED_ITEM ( 'NONE', ( #212 ), #301 ) ;
#58 = DIRECTION ( 'NONE',  ( -1.000000000000000000, 0.000000000000000000, 0.000000000000000000 ) ) ;
#59 = ORIENTED_EDGE ( 'NONE', *, *, #82, .T. ) ;
#60 = STYLED_ITEM ( 'NONE', ( #284 ), #187 ) ;
#61 = ORIENTED_EDGE ( 'NONE', *, *, #149, .F. ) ;
#62 = LINE ( 'NONE', #248, #171 ) ;
#63 = DIRECTION ( 'NONE',  ( 3.061616997868386099E-17, -1.000000000000000000, 0.000000000000000000 ) ) ;
#64 = FACE_OUTER_BOUND ( 'NONE', #267, .T. ) ;
#65 = CYLINDRICAL_SURFACE ( 'NONE', #243, 0.2500000000000000555 ) ;
#66 =( NAMED_UNIT ( * ) SI_UNIT ( $, .STERADIAN. ) SOLID_ANGLE_UNIT ( ) );
#67 = AXIS2_PLACEMENT_3D ( 'NONE', #48, #90, #180 ) ;
#68 = FILL_AREA_STYLE_COLOUR ( '', #116 ) ;
#69 = EDGE_CURVE ( 'NONE', #38, #273, #246, .T. ) ;
#70 = PLANE ( 'NONE',  #225 ) ;
#71 = APPLICATION_PROTOCOL_DEFINITION ( 'draft international standard', 'automotive_design', 1998, #278 ) ;
#72 =( CONVERSION_BASED_UNIT ( 'INCH', #210 ) LENGTH_UNIT ( ) NAMED_UNIT ( #189 ) );
#73 = SURFACE_SIDE_STYLE ('',( #144 ) ) ;
#74 = DIMENSIONAL_EXPONENTS ( 1.000000000000000000, 0.000000000000000000, 0.000000000000000000, 0.000000000000000000, 0.000000000000000000, 0.000000000000000000, 0.000000000000000000 ) ;
#75 = AXIS2_PLACEMENT_3D ( 'NONE', #177, #137, #154 ) ;
#76 = FILL_AREA_STYLE ('',( #68 ) ) ;
#77 = CIRCLE ( 'NONE', #159, 0.2500000000000000000 ) ;
#78 = EDGE_CURVE ( 'NONE', #2, #281, #43, .T. ) ;
#79 = AXIS2_PLACEMENT_3D ( 'NONE', #17, #228, #158 ) ;
#80 =( GEOMETRIC_REPRESENTATION_CONTEXT ( 3 ) GLOBAL_UNCERTAINTY_ASSIGNED_CONTEXT ( ( #175 ) ) GLOBAL_UNIT_ASSIGNED_CONTEXT ( ( #285, #122, #164 ) ) REPRESENTATION_CONTEXT ( 'NONE', 'WORKASPACE' ) );
#81 = ORIENTED_EDGE ( 'NONE', *, *, #149, .T. ) ;
#82 = EDGE_CURVE ( 'NONE', #281, #131, #198, .T. ) ;
#83 = ORIENTED_EDGE ( 'NONE', *, *, #42, .T. ) ;
#84 = FILL_AREA_STYLE_COLOUR ( '', #244 ) ;
#85 = FACE_OUTER_BOUND ( 'NONE', #227, .T. ) ;
#86 = CARTESIAN_POINT ( 'NONE',  ( 0.2499999999999999722, 3.000000000000000444, 3.061616997868383634E-17 ) ) ;
#87 = DIRECTION ( 'NONE',  ( 0.000000000000000000, 0.000000000000000000, -1.000000000000000000 ) ) ;
#88 = MECHANICAL_DESIGN_GEOMETRIC_PRESENTATION_REPRESENTATION (  '', ( #60 ), #272 ) ;
#89 = DIRECTION ( 'NONE',  ( -3.061616997868386099E-17, 1.000000000000000000, -0.000000000000000000 ) ) ;
#90 = DIRECTION ( 'NONE',  ( 0.000000000000000000, -1.000000000000000000, -0.000000000000000000 ) ) ;
#91 = ORIENTED_EDGE ( 'NONE', *, *, #265, .F. ) ;
#92 = PRESENTATION_STYLE_ASSIGNMENT (( #55 ) ) ;
#93 = DIRECTION ( 'NONE',  ( 1.000000000000000000, 0.000000000000000000, 0.000000000000000000 ) ) ;
#94 = MECHANICAL_DESIGN_GEOMETRIC_PRESENTATION_REPRESENTATION (  '', ( #303 ), #111 ) ;
#95 = DIRECTION ( 'NONE',  ( -3.061616997868386099E-17, 1.000000000000000000, 0.000000000000000000 ) ) ;
#96 = CARTESIAN_POINT ( 'NONE',  ( 0.2500000000000000000, 1.000000000000000000, 3.061616997868383634E-17 ) ) ;
#97 = DIRECTION ( 'NONE',  ( 0.000000000000000000, 0.000000000000000000, -1.000000000000000000 ) ) ;
#98 = CARTESIAN_POINT ( 'NONE',  ( 1.171687330204578608E-34, 1.000000000000000000, 0.000000000000000000 ) ) ;
#99 = DIRECTION ( 'NONE',  ( -0.000000000000000000, -1.000000000000000000, -0.000000000000000000 ) ) ;
#100 = CYLINDRICAL_SURFACE ( 'NONE', #173, 0.2500000000000000000 ) ;
#101 = CLOSED_SHELL ( 'NONE', ( #280, #196, #39, #104 ) ) ;
#102 = PRESENTATION_LAYER_ASSIGNMENT (  '', '', ( #57 ) ) ;
#103 = VERTEX_POINT ( 'NONE', #45 ) ;
#104 = ADVANCED_FACE ( 'NONE', ( #85 ), #161, .F. ) ;
#105 = ORIENTED_EDGE ( 'NONE', *, *, #265, .T. ) ;
#106 = UNCERTAINTY_MEASURE_WITH_UNIT (LENGTH_MEASURE( 1.000000000000000082E-05 ), #46, 'distance_accuracy_value', 'NONE');
#107 = ORIENTED_EDGE ( 'NONE', *, *, #42, .F. ) ;
#108 = CARTESIAN_POINT ( 'NONE',  ( 3.061616997868383018E-17, 0.000000000000000000, 0.2500000000000000000 ) ) ;
#109 = FACE_OUTER_BOUND ( 'NONE', #139, .T. ) ;
#110 = AXIS2_PLACEMENT_3D ( 'NONE', #25, #19, #176 ) ;
#111 =( GEOMETRIC_REPRESENTATION_CONTEXT ( 3 ) GLOBAL_UNCERTAINTY_ASSIGNED_CONTEXT ( ( #106 ) ) GLOBAL_UNIT_ASSIGNED_CONTEXT ( ( #46, #162, #50 ) ) REPRESENTATION_CONTEXT ( 'NONE', 'WORKASPACE' ) );
#112 = CARTESIAN_POINT ( 'NONE',  ( -6.123233995736772199E-17, 3.000000000000000444, 0.000000000000000000 ) ) ;
#113 = DIRECTION ( 'NONE',  ( -3.061616997868386099E-17, 1.000000000000000000, -0.000000000000000000 ) ) ;
#114 = UNCERTAINTY_MEASURE_WITH_UNIT (LENGTH_MEASURE( 1.000000000000000082E-05 ), #124, 'distance_accuracy_value', 'NONE');
#115 = AXIS2_PLACEMENT_3D ( 'NONE', #174, #89, #49 ) ;
#116 = COLOUR_RGB ( '',0.7921568627450980005, 0.8196078431372548767, 0.9333333333333333481 ) ;
#117 = CARTESIAN_POINT ( 'NONE',  ( 0.2500000000000000000, 3.000000000000000444, 0.000000000000000000 ) ) ;
#118 = SURFACE_STYLE_FILL_AREA ( #27 ) ;
#119 = FILL_AREA_STYLE_COLOUR ( '', #53 ) ;
#120 = CARTESIAN_POINT ( 'NONE',  ( 0.000000000000000000, 0.000000000000000000, 0.000000000000000000 ) ) ;
#121 =( NAMED_UNIT ( * ) PLANE_ANGLE_UNIT ( ) SI_UNIT ( $, .RADIAN. ) );
#122 =( NAMED_UNIT ( * ) PLANE_ANGLE_UNIT ( ) SI_UNIT ( $, .RADIAN. ) );
#123 = DIMENSIONAL_EXPONENTS ( 1.000000000000000000, 0.000000000000000000, 0.000000000000000000, 0.000000000000000000, 0.000000000000000000, 0.000000000000000000, 0.000000000000000000 ) ;
#124 =( CONVERSION_BASED_UNIT ( 'INCH', #56 ) LENGTH_UNIT ( ) NAMED_UNIT ( #297 ) );
#125 = MECHANICAL_DESIGN_GEOMETRIC_PRESENTATION_REPRESENTATION (  '', ( #170 ), #211 ) ;
#126 = PRODUCT_DEFINITION_CONTEXT ( 'detailed design', #299, 'design' ) ;
#127 = EDGE_CURVE ( 'NONE', #103, #131, #40, .T. ) ;
#128 = DIMENSIONAL_EXPONENTS ( 1.000000000000000000, 0.000000000000000000, 0.000000000000000000, 0.000000000000000000, 0.000000000000000000, 0.000000000000000000, 0.000000000000000000 ) ;
#129 = ORIENTED_EDGE ( 'NONE', *, *, #127, .F. ) ;
#130 = AXIS2_PLACEMENT_3D ( 'NONE', #21, #113, #58 ) ;
#131 = VERTEX_POINT ( 'NONE', #304 ) ;
#132 =( LENGTH_UNIT ( ) NAMED_UNIT ( * ) SI_UNIT ( $, .METRE. ) );
#133 = EDGE_LOOP ( 'NONE', ( #269, #152 ) ) ;
#134 = MECHANICAL_DESIGN_GEOMETRIC_PRESENTATION_REPRESENTATION (  '', ( #32 ), #165 ) ;
#135 = ORIENTED_EDGE ( 'NONE', *, *, #141, .T. ) ;
#136 = SURFACE_STYLE_USAGE ( .BOTH. , #256 ) ;
#137 = DIRECTION ( 'NONE',  ( -3.061616997868386099E-17, 1.000000000000000000, -0.000000000000000000 ) ) ;
#138 = CARTESIAN_POINT ( 'NONE',  ( 0.000000000000000000, 0.000000000000000000, 0.000000000000000000 ) ) ;
#139 = EDGE_LOOP ( 'NONE', ( #81, #255, #107, #222 ) ) ;
#140 = DIRECTION ( 'NONE',  ( -0.000000000000000000, -1.000000000000000000, -0.000000000000000000 ) ) ;
#141 = EDGE_CURVE ( 'NONE', #151, #273, #62, .T. ) ;
#142 = APPLICATION_PROTOCOL_DEFINITION ( 'draft international standard', 'automotive_design', 1998, #299 ) ;
#143 =( LENGTH_UNIT ( ) NAMED_UNIT ( * ) SI_UNIT ( $, .METRE. ) );
#144 = SURFACE_STYLE_FILL_AREA ( #185 ) ;
#145 =( NAMED_UNIT ( * ) PLANE_ANGLE_UNIT ( ) SI_UNIT ( $, .RADIAN. ) );
#146 = CIRCLE ( 'NONE', #14, 0.2500000000000000000 ) ;
#147 = AXIS2_PLACEMENT_3D ( 'NONE', #167, #239, #186 ) ;
#148 = DIRECTION ( 'NONE',  ( 0.000000000000000000, -0.000000000000000000, 1.000000000000000000 ) ) ;
#149 = EDGE_CURVE ( 'NONE', #151, #181, #204, .T. ) ;
#150 = AXIS2_PLACEMENT_3D ( 'NONE', #231, #44, #305 ) ;
#151 = VERTEX_POINT ( 'NONE', #257 ) ;
#152 = ORIENTED_EDGE ( 'NONE', *, *, #298, .F. ) ;
#153 = FACE_OUTER_BOUND ( 'NONE', #12, .T. ) ;
#154 = DIRECTION ( 'NONE',  ( -1.000000000000000000, 0.000000000000000000, 0.000000000000000000 ) ) ;
#155 = PRESENTATION_STYLE_ASSIGNMENT (( #136 ) ) ;
#156 = ADVANCED_FACE ( 'NONE', ( #9 ), #70, .T. ) ;
#157 = ORIENTED_EDGE ( 'NONE', *, *, #298, .T. ) ;
#158 = DIRECTION ( 'NONE',  ( 0.000000000000000000, 0.000000000000000000, -1.000000000000000000 ) ) ;
#159 = AXIS2_PLACEMENT_3D ( 'NONE', #264, #99, #97 ) ;
#160 = EDGE_LOOP ( 'NONE', ( #129, #157, #195, #91 ) ) ;
#161 = PLANE ( 'NONE',  #287 ) ;
#162 =( NAMED_UNIT ( * ) PLANE_ANGLE_UNIT ( ) SI_UNIT ( $, .RADIAN. ) );
#163 = SURFACE_SIDE_STYLE ('',( #289 ) ) ;
#164 =( NAMED_UNIT ( * ) SI_UNIT ( $, .STERADIAN. ) SOLID_ANGLE_UNIT ( ) );
#165 =( GEOMETRIC_REPRESENTATION_CONTEXT ( 3 ) GLOBAL_UNCERTAINTY_ASSIGNED_CONTEXT ( ( #13 ) ) GLOBAL_UNIT_ASSIGNED_CONTEXT ( ( #213, #121, #66 ) ) REPRESENTATION_CONTEXT ( 'NONE', 'WORKASPACE' ) );
#166 = DIRECTION ( 'NONE',  ( 0.000000000000000000, 1.000000000000000000, 0.000000000000000000 ) ) ;
#167 = CARTESIAN_POINT ( 'NONE',  ( 0.000000000000000000, 0.000000000000000000, 0.000000000000000000 ) ) ;
#168 =( NAMED_UNIT ( * ) SI_UNIT ( $, .STERADIAN. ) SOLID_ANGLE_UNIT ( ) );
#169 = DIRECTION ( 'NONE',  ( -1.000000000000000000, -3.061616997868386099E-17, 0.000000000000000000 ) ) ;
#170 = STYLED_ITEM ( 'NONE', ( #266 ), #235 ) ;
#171 = VECTOR ( 'NONE', #250, 39.37007874015748143 ) ;
#172 = ORIENTED_EDGE ( 'NONE', *, *, #127, .T. ) ;
#173 = AXIS2_PLACEMENT_3D ( 'NONE', #138, #140, #87 ) ;
#174 = CARTESIAN_POINT ( 'NONE',  ( -6.123233995736772199E-17, 3.000000000000000444, 0.000000000000000000 ) ) ;
#175 = UNCERTAINTY_MEASURE_WITH_UNIT (LENGTH_MEASURE( 1.000000000000000082E-05 ), #285, 'distance_accuracy_value', 'NONE');
#176 = DIRECTION ( 'NONE',  ( 0.000000000000000000, 0.000000000000000000, -1.000000000000000000 ) ) ;
#177 = CARTESIAN_POINT ( 'NONE',  ( 7.582401355855259480E-33, 1.000000000000000000, 0.000000000000000000 ) ) ;
#178 =( CONVERSION_BASED_UNIT ( 'INCH', #252 ) LENGTH_UNIT ( ) NAMED_UNIT ( #123 ) );
#179 = CARTESIAN_POINT ( 'NONE',  ( 0.000000000000000000, 0.000000000000000000, -0.2500000000000000000 ) ) ;
#180 = DIRECTION ( 'NONE',  ( 0.000000000000000000, 0.000000000000000000, -1.000000000000000000 ) ) ;
#181 = VERTEX_POINT ( 'NONE', #96 ) ;
#182 = LENGTH_MEASURE_WITH_UNIT ( LENGTH_MEASURE( 0.02539999999999999897 ), #143 );
#183 = VECTOR ( 'NONE', #205, 39.37007874015748143 ) ;
#184 = PRESENTATION_LAYER_ASSIGNMENT (  '', '', ( #60 ) ) ;
#185 = FILL_AREA_STYLE ('',( #119 ) ) ;
#186 = DIRECTION ( 'NONE',  ( 0.000000000000000000, 0.000000000000000000, -1.000000000000000000 ) ) ;
#187 = MANIFOLD_SOLID_BREP ( 'Revolve - Tool Body (Straight Shanked)', #101 ) ;
#188 =( LENGTH_UNIT ( ) NAMED_UNIT ( * ) SI_UNIT ( $, .METRE. ) );
#189 = DIMENSIONAL_EXPONENTS ( 1.000000000000000000, 0.000000000000000000, 0.000000000000000000, 0.000000000000000000, 0.000000000000000000, 0.000000000000000000, 0.000000000000000000 ) ;
#190 = EDGE_LOOP ( 'NONE', ( #61, #242 ) ) ;
#191 = CLOSED_SHELL ( 'NONE', ( #291, #156, #235, #259 ) ) ;
#192 = PRESENTATION_LAYER_ASSIGNMENT (  '', '', ( #170 ) ) ;
#193 = EDGE_LOOP ( 'NONE', ( #202, #172, #245, #200 ) ) ;
#194 = ADVANCED_BREP_SHAPE_REPRESENTATION ( '01450', ( #301, #187, #37 ), #80 ) ;
#195 = ORIENTED_EDGE ( 'NONE', *, *, #78, .T. ) ;
#196 = ADVANCED_FACE ( 'NONE', ( #215 ), #7, .F. ) ;
#197 = ORIENTED_EDGE ( 'NONE', *, *, #51, .T. ) ;
#198 = CIRCLE ( 'NONE', #110, 0.2500000000000000000 ) ;
#199 = FILL_AREA_STYLE ('',( #254 ) ) ;
#200 = ORIENTED_EDGE ( 'NONE', *, *, #78, .F. ) ;
#201 = SURFACE_STYLE_USAGE ( .BOTH. , #6 ) ;
#202 = ORIENTED_EDGE ( 'NONE', *, *, #4, .T. ) ;
#203 = DIRECTION ( 'NONE',  ( -3.061616997868386099E-17, 1.000000000000000000, -0.000000000000000000 ) ) ;
#204 = CIRCLE ( 'NONE', #130, 0.2500000000000000000 ) ;
#205 = DIRECTION ( 'NONE',  ( -0.000000000000000000, -1.000000000000000000, -0.000000000000000000 ) ) ;
#206 = PLANE ( 'NONE',  #67 ) ;
#207 = SURFACE_STYLE_USAGE ( .BOTH. , #73 ) ;
#208 = DIRECTION ( 'NONE',  ( 0.000000000000000000, 0.000000000000000000, 1.000000000000000000 ) ) ;
#209 = PRODUCT_DEFINITION_SHAPE ( 'NONE', 'NONE',  #229 ) ;
#210 = LENGTH_MEASURE_WITH_UNIT ( LENGTH_MEASURE( 0.02539999999999999897 ), #30 );
#211 =( GEOMETRIC_REPRESENTATION_CONTEXT ( 3 ) GLOBAL_UNCERTAINTY_ASSIGNED_CONTEXT ( ( #221 ) ) GLOBAL_UNIT_ASSIGNED_CONTEXT ( ( #219, #296, #22 ) ) REPRESENTATION_CONTEXT ( 'NONE', 'WORKASPACE' ) );
#212 = PRESENTATION_STYLE_ASSIGNMENT (( #293 ) ) ;
#213 =( CONVERSION_BASED_UNIT ( 'INCH', #10 ) LENGTH_UNIT ( ) NAMED_UNIT ( #271 ) );
#214 =( NAMED_UNIT ( * ) SI_UNIT ( $, .STERADIAN. ) SOLID_ANGLE_UNIT ( ) );
#215 = FACE_OUTER_BOUND ( 'NONE', #190, .T. ) ;
#216 = PRODUCT_RELATED_PRODUCT_CATEGORY ( 'part', '', ( #262 ) ) ;
#217 = CIRCLE ( 'NONE', #75, 0.2500000000000000000 ) ;
#218 = COLOUR_RGB ( '',1.000000000000000000, 0.000000000000000000, 0.000000000000000000 ) ;
#219 =( CONVERSION_BASED_UNIT ( 'INCH', #241 ) LENGTH_UNIT ( ) NAMED_UNIT ( #74 ) );
#220 = PRESENTATION_LAYER_ASSIGNMENT (  '', '', ( #32 ) ) ;
#221 = UNCERTAINTY_MEASURE_WITH_UNIT (LENGTH_MEASURE( 1.000000000000000082E-05 ), #219, 'distance_accuracy_value', 'NONE');
#222 = ORIENTED_EDGE ( 'NONE', *, *, #141, .F. ) ;
#223 = DIRECTION ( 'NONE',  ( 0.000000000000000000, 0.000000000000000000, -1.000000000000000000 ) ) ;
#224 = DIRECTION ( 'NONE',  ( -0.000000000000000000, -1.000000000000000000, -0.000000000000000000 ) ) ;
#225 = AXIS2_PLACEMENT_3D ( 'NONE', #236, #166, #148 ) ;
#226 = DIRECTION ( 'NONE',  ( -3.061616997868386099E-17, 1.000000000000000000, -0.000000000000000000 ) ) ;
#227 = EDGE_LOOP ( 'NONE', ( #83, #302 ) ) ;
#228 = DIRECTION ( 'NONE',  ( -0.000000000000000000, -1.000000000000000000, -0.000000000000000000 ) ) ;
#229 = PRODUCT_DEFINITION ( 'UNKNOWN', '', #232, #126 ) ;
#230 = CARTESIAN_POINT ( 'NONE',  ( 0.2500000000000000000, 3.000000000000000444, 3.061616997868383634E-17 ) ) ;
#231 = CARTESIAN_POINT ( 'NONE',  ( -6.123233995736772199E-17, 3.000000000000000444, 0.000000000000000000 ) ) ;
#232 = PRODUCT_DEFINITION_FORMATION_WITH_SPECIFIED_SOURCE ( 'ANY', '', #262, .NOT_KNOWN. ) ;
#233 =( LENGTH_UNIT ( ) NAMED_UNIT ( * ) SI_UNIT ( $, .METRE. ) );
#234 = SHAPE_DEFINITION_REPRESENTATION ( #209, #194 ) ;
#235 = ADVANCED_FACE ( 'NONE', ( #292 ), #100, .T. ) ;
#236 = CARTESIAN_POINT ( 'NONE',  ( 0.000000000000000000, 1.000000000000000000, 0.000000000000000000 ) ) ;
#237 = PRESENTATION_LAYER_ASSIGNMENT (  '', '', ( #18 ) ) ;
#238 = FILL_AREA_STYLE_COLOUR ( '', #26 ) ;
#239 = DIRECTION ( 'NONE',  ( -0.000000000000000000, -1.000000000000000000, -0.000000000000000000 ) ) ;
#240 = SURFACE_STYLE_FILL_AREA ( #286 ) ;
#241 = LENGTH_MEASURE_WITH_UNIT ( LENGTH_MEASURE( 0.02539999999999999897 ), #188 );
#242 = ORIENTED_EDGE ( 'NONE', *, *, #51, .F. ) ;
#243 = AXIS2_PLACEMENT_3D ( 'NONE', #253, #247, #5 ) ;
#244 = COLOUR_RGB ( '',1.000000000000000000, 0.000000000000000000, 0.000000000000000000 ) ;
#245 = ORIENTED_EDGE ( 'NONE', *, *, #82, .F. ) ;
#246 = CIRCLE ( 'NONE', #115, 0.2500000000000000555 ) ;
#247 = DIRECTION ( 'NONE',  ( -3.061616997868386099E-17, 1.000000000000000000, -0.000000000000000000 ) ) ;
#248 = CARTESIAN_POINT ( 'NONE',  ( -0.2500000000000001110, 3.000000000000000444, 0.000000000000000000 ) ) ;
#249 = CARTESIAN_POINT ( 'NONE',  ( -0.2500000000000001110, 3.000000000000000444, 0.000000000000000000 ) ) ;
#250 = DIRECTION ( 'NONE',  ( -3.061616997868386099E-17, 1.000000000000000000, -0.000000000000000000 ) ) ;
#251 = MECHANICAL_DESIGN_GEOMETRIC_PRESENTATION_REPRESENTATION (  '', ( #18 ), #300 ) ;
#252 = LENGTH_MEASURE_WITH_UNIT ( LENGTH_MEASURE( 0.02539999999999999897 ), #279 );
#253 = CARTESIAN_POINT ( 'NONE',  ( -6.123233995736772199E-17, 3.000000000000000444, 0.000000000000000000 ) ) ;
#254 = FILL_AREA_STYLE_COLOUR ( '', #36 ) ;
#255 = ORIENTED_EDGE ( 'NONE', *, *, #15, .T. ) ;
#256 = SURFACE_SIDE_STYLE ('',( #3 ) ) ;
#257 = CARTESIAN_POINT ( 'NONE',  ( -0.2500000000000000000, 1.000000000000000000, 0.000000000000000000 ) ) ;
#258 = VECTOR ( 'NONE', #224, 39.37007874015748143 ) ;
#259 = ADVANCED_FACE ( 'NONE', ( #153 ), #206, .T. ) ;
#260 =( GEOMETRIC_REPRESENTATION_CONTEXT ( 3 ) GLOBAL_UNCERTAINTY_ASSIGNED_CONTEXT ( ( #114 ) ) GLOBAL_UNIT_ASSIGNED_CONTEXT ( ( #124, #145, #261 ) ) REPRESENTATION_CONTEXT ( 'NONE', 'WORKASPACE' ) );
#261 =( NAMED_UNIT ( * ) SI_UNIT ( $, .STERADIAN. ) SOLID_ANGLE_UNIT ( ) );
#262 = PRODUCT ( '01450', '01450', '', ( #54 ) ) ;
#263 = FILL_AREA_STYLE ('',( #28 ) ) ;
#264 = CARTESIAN_POINT ( 'NONE',  ( 0.000000000000000000, 1.000000000000000000, 0.000000000000000000 ) ) ;
#265 = EDGE_CURVE ( 'NONE', #131, #281, #288, .T. ) ;
#266 = PRESENTATION_STYLE_ASSIGNMENT (( #207 ) ) ;
#267 = EDGE_LOOP ( 'NONE', ( #283, #197, #135, #23 ) ) ;
#268 = PRESENTATION_LAYER_ASSIGNMENT (  '', '', ( #303 ) ) ;
#269 = ORIENTED_EDGE ( 'NONE', *, *, #4, .F. ) ;
#270 = UNCERTAINTY_MEASURE_WITH_UNIT (LENGTH_MEASURE( 1.000000000000000082E-05 ), #72, 'distance_accuracy_value', 'NONE');
#271 = DIMENSIONAL_EXPONENTS ( 1.000000000000000000, 0.000000000000000000, 0.000000000000000000, 0.000000000000000000, 0.000000000000000000, 0.000000000000000000, 0.000000000000000000 ) ;
#272 =( GEOMETRIC_REPRESENTATION_CONTEXT ( 3 ) GLOBAL_UNCERTAINTY_ASSIGNED_CONTEXT ( ( #270 ) ) GLOBAL_UNIT_ASSIGNED_CONTEXT ( ( #72, #52, #168 ) ) REPRESENTATION_CONTEXT ( 'NONE', 'WORKASPACE' ) );
#273 = VERTEX_POINT ( 'NONE', #249 ) ;
#274 = CYLINDRICAL_SURFACE ( 'NONE', #147, 0.2500000000000000000 ) ;
#275 = LINE ( 'NONE', #86, #294 ) ;
#276 = LENGTH_MEASURE_WITH_UNIT ( LENGTH_MEASURE( 0.02539999999999999897 ), #132 );
#277 = CARTESIAN_POINT ( 'NONE',  ( 0.000000000000000000, 1.000000000000000000, -0.2500000000000000000 ) ) ;
#278 = APPLICATION_CONTEXT ( 'automotive_design' ) ;
#279 =( LENGTH_UNIT ( ) NAMED_UNIT ( * ) SI_UNIT ( $, .METRE. ) );
#280 = ADVANCED_FACE ( 'NONE', ( #109 ), #282, .T. ) ;
#281 = VERTEX_POINT ( 'NONE', #309 ) ;
#282 = CYLINDRICAL_SURFACE ( 'NONE', #150, 0.2500000000000000555 ) ;
#283 = ORIENTED_EDGE ( 'NONE', *, *, #15, .F. ) ;
#284 = PRESENTATION_STYLE_ASSIGNMENT (( #290 ) ) ;
#285 =( CONVERSION_BASED_UNIT ( 'INCH', #182 ) LENGTH_UNIT ( ) NAMED_UNIT ( #11 ) );
#286 = FILL_AREA_STYLE ('',( #238 ) ) ;
#287 = AXIS2_PLACEMENT_3D ( 'NONE', #117, #63, #16 ) ;
#288 = CIRCLE ( 'NONE', #79, 0.2500000000000000000 ) ;
#289 = SURFACE_STYLE_FILL_AREA ( #263 ) ;
#290 = SURFACE_STYLE_USAGE ( .BOTH. , #33 ) ;
#291 = ADVANCED_FACE ( 'NONE', ( #20 ), #274, .T. ) ;
#292 = FACE_OUTER_BOUND ( 'NONE', #160, .T. ) ;
#293 = SURFACE_STYLE_USAGE ( .BOTH. , #31 ) ;
#294 = VECTOR ( 'NONE', #226, 39.37007874015748143 ) ;
#295 = MECHANICAL_DESIGN_GEOMETRIC_PRESENTATION_REPRESENTATION (  '', ( #57 ), #260 ) ;
#296 =( NAMED_UNIT ( * ) PLANE_ANGLE_UNIT ( ) SI_UNIT ( $, .RADIAN. ) );
#297 = DIMENSIONAL_EXPONENTS ( 1.000000000000000000, 0.000000000000000000, 0.000000000000000000, 0.000000000000000000, 0.000000000000000000, 0.000000000000000000, 0.000000000000000000 ) ;
#298 = EDGE_CURVE ( 'NONE', #103, #2, #77, .T. ) ;
#299 = APPLICATION_CONTEXT ( 'automotive_design' ) ;
#300 =( GEOMETRIC_REPRESENTATION_CONTEXT ( 3 ) GLOBAL_UNCERTAINTY_ASSIGNED_CONTEXT ( ( #41 ) ) GLOBAL_UNIT_ASSIGNED_CONTEXT ( ( #178, #24, #214 ) ) REPRESENTATION_CONTEXT ( 'NONE', 'WORKASPACE' ) );
#301 = MANIFOLD_SOLID_BREP ( 'Revolve - Cutting Edge', #191 ) ;
#302 = ORIENTED_EDGE ( 'NONE', *, *, #69, .T. ) ;
#303 = STYLED_ITEM ( 'NONE', ( #155 ), #259 ) ;
#304 = CARTESIAN_POINT ( 'NONE',  ( 3.061616997868383018E-17, 0.000000000000000000, 0.2500000000000000000 ) ) ;
#305 = DIRECTION ( 'NONE',  ( -1.000000000000000000, 0.000000000000000000, 0.000000000000000000 ) ) ;
#306 = DIRECTION ( 'NONE',  ( -1.000000000000000000, 0.000000000000000000, 0.000000000000000000 ) ) ;
#307 = PRESENTATION_STYLE_ASSIGNMENT (( #201 ) ) ;
#308 = DIRECTION ( 'NONE',  ( -0.000000000000000000, -1.000000000000000000, -0.000000000000000000 ) ) ;
#309 = CARTESIAN_POINT ( 'NONE',  ( 0.000000000000000000, 0.000000000000000000, -0.2500000000000000000 ) ) ;
ENDSEC;
END-ISO-10303-21;
