ISO-10303-21;
HEADER;
FILE_DESCRIPTION (( 'STEP AP214' ),
    '1' );
FILE_NAME ('86084.STEP',
    '2023-07-01T00:06:40',
    ( '' ),
    ( '' ),
    'SwSTEP 2.0',
    'SolidWorks 2023',
    '' );
FILE_SCHEMA (( 'AUTOMOTIVE_DESIGN' ));
ENDSEC;

DATA;
#1 = CYLINDRICAL_SURFACE ( 'NONE', #173, 0.3749999999999998335 ) ;
#2 = FILL_AREA_STYLE_COLOUR ( '', #266 ) ;
#3 = DIRECTION ( 'NONE',  ( 0.000000000000000000, 0.000000000000000000, -1.000000000000000000 ) ) ;
#4 = CARTESIAN_POINT ( 'NONE',  ( 0.000000000000000000, 3.250000000000000000, 0.000000000000000000 ) ) ;
#5 = DIRECTION ( 'NONE',  ( 0.000000000000000000, 0.000000000000000000, 1.000000000000000000 ) ) ;
#6 = UNCERTAINTY_MEASURE_WITH_UNIT (LENGTH_MEASURE( 1.000000000000000082E-05 ), #257, 'distance_accuracy_value', 'NONE');
#7 = CARTESIAN_POINT ( 'NONE',  ( 4.592425496802572370E-17, 0.000000000000000000, 0.3749999999999998335 ) ) ;
#8 = CARTESIAN_POINT ( 'NONE',  ( -0.3749999999999992228, 3.250000000000000000, 0.000000000000000000 ) ) ;
#9 = STYLED_ITEM ( 'NONE', ( #244 ), #105 ) ;
#10 = CIRCLE ( 'NONE', #306, 0.3750000000000000555 ) ;
#11 = ORIENTED_EDGE ( 'NONE', *, *, #29, .F. ) ;
#12 = CLOSED_SHELL ( 'NONE', ( #312, #225, #24, #66, #286 ) ) ;
#13 = CARTESIAN_POINT ( 'NONE',  ( 0.000000000000000000, 0.000000000000000000, 0.000000000000000000 ) ) ;
#14 = CIRCLE ( 'NONE', #246, 0.3749999999999996114 ) ;
#15 = CARTESIAN_POINT ( 'NONE',  ( -1.224646799147354440E-16, 6.000000000000000888, 0.000000000000000000 ) ) ;
#16 = CARTESIAN_POINT ( 'NONE',  ( -0.3749999999999998890, 6.000000000000000888, 0.000000000000000000 ) ) ;
#17 = ORIENTED_EDGE ( 'NONE', *, *, #330, .T. ) ;
#18 = CARTESIAN_POINT ( 'NONE',  ( 0.3749999999999993894, 6.000000000000000888, 4.592425496802569288E-17 ) ) ;
#19 = APPLICATION_PROTOCOL_DEFINITION ( 'draft international standard', 'automotive_design', 1998, #68 ) ;
#20 = MECHANICAL_DESIGN_GEOMETRIC_PRESENTATION_REPRESENTATION (  '', ( #171 ), #261 ) ;
#21 = EDGE_CURVE ( 'NONE', #48, #269, #56, .T. ) ;
#22 = MECHANICAL_DESIGN_GEOMETRIC_PRESENTATION_REPRESENTATION (  '', ( #9 ), #84 ) ;
#23 = DIMENSIONAL_EXPONENTS ( 1.000000000000000000, 0.000000000000000000, 0.000000000000000000, 0.000000000000000000, 0.000000000000000000, 0.000000000000000000, 0.000000000000000000 ) ;
#24 = ADVANCED_FACE ( 'NONE', ( #337 ), #74, .T. ) ;
#25 = PLANE ( 'NONE',  #43 ) ;
#26 = CARTESIAN_POINT ( 'NONE',  ( 0.000000000000000000, 0.000000000000000000, 0.000000000000000000 ) ) ;
#27 = DIRECTION ( 'NONE',  ( -0.000000000000000000, -1.000000000000000000, -0.000000000000000000 ) ) ;
#28 = CARTESIAN_POINT ( 'NONE',  ( -1.224646799147354440E-16, 6.000000000000000888, 0.000000000000000000 ) ) ;
#29 = EDGE_CURVE ( 'NONE', #167, #319, #163, .T. ) ;
#30 = COLOUR_RGB ( '',1.000000000000000000, 0.000000000000000000, 0.000000000000000000 ) ;
#31 = PRODUCT_DEFINITION_FORMATION_WITH_SPECIFIED_SOURCE ( 'ANY', '', #243, .NOT_KNOWN. ) ;
#32 = MECHANICAL_DESIGN_GEOMETRIC_PRESENTATION_REPRESENTATION (  '', ( #137 ), #214 ) ;
#33 = ORIENTED_EDGE ( 'NONE', *, *, #140, .T. ) ;
#34 = SURFACE_STYLE_FILL_AREA ( #260 ) ;
#35 = CARTESIAN_POINT ( 'NONE',  ( 0.000000000000000000, 3.250000000000000000, 0.000000000000000000 ) ) ;
#36 = LENGTH_MEASURE_WITH_UNIT ( LENGTH_MEASURE( 0.02539999999999999897 ), #285 );
#37 = LENGTH_MEASURE_WITH_UNIT ( LENGTH_MEASURE( 0.02539999999999999897 ), #113 );
#38 = CARTESIAN_POINT ( 'NONE',  ( 0.3749999999999996114, 3.250000000000000000, 4.592425496802569905E-17 ) ) ;
#39 = SURFACE_STYLE_FILL_AREA ( #289 ) ;
#40 = DIRECTION ( 'NONE',  ( 0.000000000000000000, -0.000000000000000000, 1.000000000000000000 ) ) ;
#41 = FACE_OUTER_BOUND ( 'NONE', #77, .T. ) ;
#42 = PRESENTATION_LAYER_ASSIGNMENT (  '', '', ( #70 ) ) ;
#43 = AXIS2_PLACEMENT_3D ( 'NONE', #307, #369, #339 ) ;
#44 = PRESENTATION_STYLE_ASSIGNMENT (( #119 ) ) ;
#45 = EDGE_LOOP ( 'NONE', ( #33, #138, #221, #302, #332 ) ) ;
#46 = PRODUCT_DEFINITION_CONTEXT ( 'detailed design', #68, 'design' ) ;
#47 =( NAMED_UNIT ( * ) PLANE_ANGLE_UNIT ( ) SI_UNIT ( $, .RADIAN. ) );
#48 = VERTEX_POINT ( 'NONE', #16 ) ;
#49 = ORIENTED_EDGE ( 'NONE', *, *, #355, .T. ) ;
#50 = FACE_OUTER_BOUND ( 'NONE', #45, .T. ) ;
#51 = STYLED_ITEM ( 'NONE', ( #44 ), #286 ) ;
#52 = DIRECTION ( 'NONE',  ( 1.000000000000000000, 0.000000000000000000, 0.000000000000000000 ) ) ;
#53 = EDGE_CURVE ( 'NONE', #319, #167, #115, .T. ) ;
#54 = SURFACE_STYLE_FILL_AREA ( #224 ) ;
#55 = FACE_OUTER_BOUND ( 'NONE', #264, .T. ) ;
#56 = CIRCLE ( 'NONE', #283, 0.3749999999999997780 ) ;
#57 = DIRECTION ( 'NONE',  ( 1.000000000000000000, 0.000000000000000000, 0.000000000000000000 ) ) ;
#58 = ORIENTED_EDGE ( 'NONE', *, *, #21, .T. ) ;
#59 = DIRECTION ( 'NONE',  ( -1.166302553557088328E-16, 1.000000000000000000, -0.000000000000000000 ) ) ;
#60 = DIRECTION ( 'NONE',  ( -0.000000000000000000, -1.000000000000000000, -0.000000000000000000 ) ) ;
#61 =( NAMED_UNIT ( * ) PLANE_ANGLE_UNIT ( ) SI_UNIT ( $, .RADIAN. ) );
#62 =( NAMED_UNIT ( * ) SI_UNIT ( $, .STERADIAN. ) SOLID_ANGLE_UNIT ( ) );
#63 = SHAPE_DEFINITION_REPRESENTATION ( #251, #364 ) ;
#64 =( GEOMETRIC_REPRESENTATION_CONTEXT ( 3 ) GLOBAL_UNCERTAINTY_ASSIGNED_CONTEXT ( ( #188 ) ) GLOBAL_UNIT_ASSIGNED_CONTEXT ( ( #110, #47, #103 ) ) REPRESENTATION_CONTEXT ( 'NONE', 'WORKASPACE' ) );
#65 = AXIS2_PLACEMENT_3D ( 'NONE', #226, #317, #343 ) ;
#66 = ADVANCED_FACE ( 'NONE', ( #41 ), #1, .T. ) ;
#67 = DIMENSIONAL_EXPONENTS ( 1.000000000000000000, 0.000000000000000000, 0.000000000000000000, 0.000000000000000000, 0.000000000000000000, 0.000000000000000000, 0.000000000000000000 ) ;
#68 = APPLICATION_CONTEXT ( 'automotive_design' ) ;
#69 = AXIS2_PLACEMENT_3D ( 'NONE', #208, #356, #143 ) ;
#70 = STYLED_ITEM ( 'NONE', ( #199 ), #66 ) ;
#71 = EDGE_CURVE ( 'NONE', #167, #48, #239, .T. ) ;
#72 = DIRECTION ( 'NONE',  ( 1.000000000000000000, 0.000000000000000000, -1.224646799147353207E-16 ) ) ;
#73 = ORIENTED_EDGE ( 'NONE', *, *, #29, .T. ) ;
#74 = PLANE ( 'NONE',  #127 ) ;
#75 = ORIENTED_EDGE ( 'NONE', *, *, #363, .F. ) ;
#76 = FILL_AREA_STYLE_COLOUR ( '', #277 ) ;
#77 = EDGE_LOOP ( 'NONE', ( #75, #17, #326, #338, #159 ) ) ;
#78 = EDGE_CURVE ( 'NONE', #193, #352, #155, .T. ) ;
#79 = DIRECTION ( 'NONE',  ( -0.000000000000000000, -1.000000000000000000, -0.000000000000000000 ) ) ;
#80 = DIRECTION ( 'NONE',  ( -0.000000000000000000, -1.000000000000000000, -0.000000000000000000 ) ) ;
#81 = FACE_OUTER_BOUND ( 'NONE', #362, .T. ) ;
#82 = DIRECTION ( 'NONE',  ( -1.166302553557088328E-16, 1.000000000000000000, -0.000000000000000000 ) ) ;
#83 = PRODUCT_RELATED_PRODUCT_CATEGORY ( 'part', '', ( #243 ) ) ;
#84 =( GEOMETRIC_REPRESENTATION_CONTEXT ( 3 ) GLOBAL_UNCERTAINTY_ASSIGNED_CONTEXT ( ( #305 ) ) GLOBAL_UNIT_ASSIGNED_CONTEXT ( ( #99, #194, #101 ) ) REPRESENTATION_CONTEXT ( 'NONE', 'WORKASPACE' ) );
#85 = SURFACE_STYLE_USAGE ( .BOTH. , #227 ) ;
#86 = CIRCLE ( 'NONE', #371, 0.3750000000000000555 ) ;
#87 = DIRECTION ( 'NONE',  ( -1.166302553557088328E-16, 1.000000000000000000, -0.000000000000000000 ) ) ;
#88 = ORIENTED_EDGE ( 'NONE', *, *, #186, .T. ) ;
#89 = CARTESIAN_POINT ( 'NONE',  ( 0.3749999999999999445, 0.3750000000000000555, 0.000000000000000000 ) ) ;
#90 = DIRECTION ( 'NONE',  ( -1.000000000000000000, 0.000000000000000000, 0.000000000000000000 ) ) ;
#91 = LENGTH_MEASURE_WITH_UNIT ( LENGTH_MEASURE( 0.02539999999999999897 ), #256 );
#92 = COLOUR_RGB ( '',1.000000000000000000, 0.000000000000000000, 0.000000000000000000 ) ;
#93 = ORIENTED_EDGE ( 'NONE', *, *, #78, .F. ) ;
#94 = CARTESIAN_POINT ( 'NONE',  ( 0.000000000000000000, 0.000000000000000000, -0.3749999999999998335 ) ) ;
#95 = CYLINDRICAL_SURFACE ( 'NONE', #328, 0.3749999999999995559 ) ;
#96 = AXIS2_PLACEMENT_3D ( 'NONE', #13, #311, #345 ) ;
#97 = CYLINDRICAL_SURFACE ( 'NONE', #96, 0.3749999999999998335 ) ;
#98 = AXIS2_PLACEMENT_3D ( 'NONE', #320, #87, #144 ) ;
#99 =( CONVERSION_BASED_UNIT ( 'INCH', #370 ) LENGTH_UNIT ( ) NAMED_UNIT ( #67 ) );
#100 = SURFACE_SIDE_STYLE ('',( #139 ) ) ;
#101 =( NAMED_UNIT ( * ) SI_UNIT ( $, .STERADIAN. ) SOLID_ANGLE_UNIT ( ) );
#102 = EDGE_LOOP ( 'NONE', ( #309, #348 ) ) ;
#103 =( NAMED_UNIT ( * ) SI_UNIT ( $, .STERADIAN. ) SOLID_ANGLE_UNIT ( ) );
#104 = ADVANCED_FACE ( 'NONE', ( #273 ), #95, .T. ) ;
#105 = MANIFOLD_SOLID_BREP ( 'Revolve - Tool Body (Straight Shanked)', #131 ) ;
#106 = CARTESIAN_POINT ( 'NONE',  ( 0.000000000000000000, 0.3750000000000000555, 0.000000000000000000 ) ) ;
#107 = FILL_AREA_STYLE_COLOUR ( '', #191 ) ;
#108 =( NAMED_UNIT ( * ) SI_UNIT ( $, .STERADIAN. ) SOLID_ANGLE_UNIT ( ) );
#109 = CARTESIAN_POINT ( 'NONE',  ( 4.592425496802574219E-17, 0.3750000000000000555, 0.3749999999999999445 ) ) ;
#110 =( CONVERSION_BASED_UNIT ( 'INCH', #36 ) LENGTH_UNIT ( ) NAMED_UNIT ( #23 ) );
#111 = FILL_AREA_STYLE_COLOUR ( '', #218 ) ;
#112 = CARTESIAN_POINT ( 'NONE',  ( -4.592425496802573602E-17, 0.3749999999999999445, 0.000000000000000000 ) ) ;
#113 =( LENGTH_UNIT ( ) NAMED_UNIT ( * ) SI_UNIT ( $, .METRE. ) );
#114 = CARTESIAN_POINT ( 'NONE',  ( 0.000000000000000000, 3.250000000000000000, 0.000000000000000000 ) ) ;
#115 = CIRCLE ( 'NONE', #154, 0.3749999999999993894 ) ;
#116 =( LENGTH_UNIT ( ) NAMED_UNIT ( * ) SI_UNIT ( $, .METRE. ) );
#117 = VECTOR ( 'NONE', #27, 39.37007874015748143 ) ;
#118 = VERTEX_POINT ( 'NONE', #109 ) ;
#119 = SURFACE_STYLE_USAGE ( .BOTH. , #150 ) ;
#120 = DIRECTION ( 'NONE',  ( -1.000000000000000000, 0.000000000000000000, 0.000000000000000000 ) ) ;
#121 =( CONVERSION_BASED_UNIT ( 'INCH', #292 ) LENGTH_UNIT ( ) NAMED_UNIT ( #200 ) );
#122 = ORIENTED_EDGE ( 'NONE', *, *, #21, .F. ) ;
#123 = LENGTH_MEASURE_WITH_UNIT ( LENGTH_MEASURE( 0.02539999999999999897 ), #202 );
#124 =( NAMED_UNIT ( * ) PLANE_ANGLE_UNIT ( ) SI_UNIT ( $, .RADIAN. ) );
#125 = AXIS2_PLACEMENT_3D ( 'NONE', #230, #5, #52 ) ;
#126 = ORIENTED_EDGE ( 'NONE', *, *, #355, .F. ) ;
#127 = AXIS2_PLACEMENT_3D ( 'NONE', #4, #291, #40 ) ;
#128 = LENGTH_MEASURE_WITH_UNIT ( LENGTH_MEASURE( 0.02539999999999999897 ), #359 );
#129 = ADVANCED_FACE ( 'NONE', ( #351 ), #166, .T. ) ;
#130 = UNCERTAINTY_MEASURE_WITH_UNIT (LENGTH_MEASURE( 1.000000000000000082E-05 ), #357, 'distance_accuracy_value', 'NONE');
#131 = CLOSED_SHELL ( 'NONE', ( #129, #219, #104, #242 ) ) ;
#132 = EDGE_CURVE ( 'NONE', #193, #182, #151, .T. ) ;
#133 = FILL_AREA_STYLE ('',( #335 ) ) ;
#134 = DIRECTION ( 'NONE',  ( 0.000000000000000000, 0.000000000000000000, -1.000000000000000000 ) ) ;
#135 = DIRECTION ( 'NONE',  ( -1.166302553557088328E-16, 1.000000000000000000, -0.000000000000000000 ) ) ;
#136 = PRESENTATION_LAYER_ASSIGNMENT (  '', '', ( #313 ) ) ;
#137 = STYLED_ITEM ( 'NONE', ( #238 ), #225 ) ;
#138 = ORIENTED_EDGE ( 'NONE', *, *, #363, .T. ) ;
#139 = SURFACE_STYLE_FILL_AREA ( #133 ) ;
#140 = EDGE_CURVE ( 'NONE', #373, #142, #14, .T. ) ;
#141 = ORIENTED_EDGE ( 'NONE', *, *, #53, .T. ) ;
#142 = VERTEX_POINT ( 'NONE', #252 ) ;
#143 = DIRECTION ( 'NONE',  ( 1.000000000000000000, 1.166302553557088328E-16, 0.000000000000000000 ) ) ;
#144 = DIRECTION ( 'NONE',  ( -1.000000000000000000, 0.000000000000000000, 0.000000000000000000 ) ) ;
#145 = AXIS2_PLACEMENT_3D ( 'NONE', #209, #60, #284 ) ;
#146 = SURFACE_SIDE_STYLE ('',( #54 ) ) ;
#147 = FILL_AREA_STYLE ('',( #111 ) ) ;
#148 =( NAMED_UNIT ( * ) PLANE_ANGLE_UNIT ( ) SI_UNIT ( $, .RADIAN. ) );
#149 = DIRECTION ( 'NONE',  ( 0.000000000000000000, 0.000000000000000000, -1.000000000000000000 ) ) ;
#150 = SURFACE_SIDE_STYLE ('',( #39 ) ) ;
#151 = CIRCLE ( 'NONE', #145, 0.3750000000000000555 ) ;
#152 = CARTESIAN_POINT ( 'NONE',  ( 1.982685223134639388E-16, 3.250000000000000000, 0.000000000000000000 ) ) ;
#153 = DIRECTION ( 'NONE',  ( -0.000000000000000000, -1.000000000000000000, -0.000000000000000000 ) ) ;
#154 = AXIS2_PLACEMENT_3D ( 'NONE', #354, #82, #90 ) ;
#155 = CIRCLE ( 'NONE', #275, 0.3750000000000000555 ) ;
#156 = SURFACE_STYLE_USAGE ( .BOTH. , #308 ) ;
#157 = PRESENTATION_LAYER_ASSIGNMENT (  '', '', ( #171 ) ) ;
#158 = ORIENTED_EDGE ( 'NONE', *, *, #186, .F. ) ;
#159 = ORIENTED_EDGE ( 'NONE', *, *, #160, .F. ) ;
#160 = EDGE_CURVE ( 'NONE', #118, #193, #86, .T. ) ;
#161 =( NAMED_UNIT ( * ) SI_UNIT ( $, .STERADIAN. ) SOLID_ANGLE_UNIT ( ) );
#162 = UNCERTAINTY_MEASURE_WITH_UNIT (LENGTH_MEASURE( 1.000000000000000082E-05 ), #303, 'distance_accuracy_value', 'NONE');
#163 = CIRCLE ( 'NONE', #212, 0.3749999999999993894 ) ;
#164 = AXIS2_PLACEMENT_3D ( 'NONE', #206, #341, #57 ) ;
#165 = VECTOR ( 'NONE', #217, 39.37007874015748143 ) ;
#166 = CYLINDRICAL_SURFACE ( 'NONE', #98, 0.3749999999999995559 ) ;
#167 = VERTEX_POINT ( 'NONE', #8 ) ;
#168 = LINE ( 'NONE', #94, #117 ) ;
#169 = CARTESIAN_POINT ( 'NONE',  ( 0.000000000000000000, 0.3750000000000000555, 0.000000000000000000 ) ) ;
#170 = CARTESIAN_POINT ( 'NONE',  ( 0.3749999999999996114, 6.000000000000000888, 4.592425496802569905E-17 ) ) ;
#171 = STYLED_ITEM ( 'NONE', ( #178 ), #312 ) ;
#172 = DIRECTION ( 'NONE',  ( 0.000000000000000000, 0.000000000000000000, -1.000000000000000000 ) ) ;
#173 = AXIS2_PLACEMENT_3D ( 'NONE', #26, #336, #134 ) ;
#174 = DIMENSIONAL_EXPONENTS ( 1.000000000000000000, 0.000000000000000000, 0.000000000000000000, 0.000000000000000000, 0.000000000000000000, 0.000000000000000000, 0.000000000000000000 ) ;
#175 =( NAMED_UNIT ( * ) PLANE_ANGLE_UNIT ( ) SI_UNIT ( $, .RADIAN. ) );
#176 = LINE ( 'NONE', #18, #334 ) ;
#177 = CARTESIAN_POINT ( 'NONE',  ( 0.000000000000000000, 0.3750000000000000555, -0.3750000000000000555 ) ) ;
#178 = PRESENTATION_STYLE_ASSIGNMENT (( #314 ) ) ;
#179 = ORIENTED_EDGE ( 'NONE', *, *, #53, .F. ) ;
#180 = FILL_AREA_STYLE_COLOUR ( '', #92 ) ;
#181 = DIRECTION ( 'NONE',  ( 0.000000000000000000, 0.000000000000000000, -1.000000000000000000 ) ) ;
#182 = VERTEX_POINT ( 'NONE', #177 ) ;
#183 = PLANE ( 'NONE',  #69 ) ;
#184 = PRODUCT_CONTEXT ( 'NONE', #240, 'mechanical' ) ;
#185 = CARTESIAN_POINT ( 'NONE',  ( 0.000000000000000000, 3.250000000000000000, -0.3749999999999996114 ) ) ;
#186 = EDGE_CURVE ( 'NONE', #248, #352, #318, .T. ) ;
#187 = PRESENTATION_LAYER_ASSIGNMENT (  '', '', ( #137 ) ) ;
#188 = UNCERTAINTY_MEASURE_WITH_UNIT (LENGTH_MEASURE( 1.000000000000000082E-05 ), #110, 'distance_accuracy_value', 'NONE');
#189 = DIRECTION ( 'NONE',  ( 1.224646799147353207E-16, -0.000000000000000000, 1.000000000000000000 ) ) ;
#190 = CIRCLE ( 'NONE', #65, 0.3750000000000000555 ) ;
#191 = COLOUR_RGB ( '',1.000000000000000000, 0.000000000000000000, 0.000000000000000000 ) ;
#192 = DIRECTION ( 'NONE',  ( -1.000000000000000000, 0.000000000000000000, 0.000000000000000000 ) ) ;
#193 = VERTEX_POINT ( 'NONE', #204 ) ;
#194 =( NAMED_UNIT ( * ) PLANE_ANGLE_UNIT ( ) SI_UNIT ( $, .RADIAN. ) );
#195 = PRODUCT_DEFINITION ( 'UNKNOWN', '', #31, #46 ) ;
#196 = ORIENTED_EDGE ( 'NONE', *, *, #235, .T. ) ;
#197 = EDGE_CURVE ( 'NONE', #373, #182, #168, .T. ) ;
#198 = LENGTH_MEASURE_WITH_UNIT ( LENGTH_MEASURE( 0.02539999999999999897 ), #333 );
#199 = PRESENTATION_STYLE_ASSIGNMENT (( #340 ) ) ;
#200 = DIMENSIONAL_EXPONENTS ( 1.000000000000000000, 0.000000000000000000, 0.000000000000000000, 0.000000000000000000, 0.000000000000000000, 0.000000000000000000, 0.000000000000000000 ) ;
#201 = PRESENTATION_LAYER_ASSIGNMENT (  '', '', ( #9 ) ) ;
#202 =( LENGTH_UNIT ( ) NAMED_UNIT ( * ) SI_UNIT ( $, .METRE. ) );
#203 = AXIS2_PLACEMENT_3D ( 'NONE', #15, #322, #290 ) ;
#204 = CARTESIAN_POINT ( 'NONE',  ( -0.3750000000000001110, 0.3750000000000000555, 4.592425496802575451E-17 ) ) ;
#205 = AXIS2_PLACEMENT_3D ( 'NONE', #112, #229, #346 ) ;
#206 = CARTESIAN_POINT ( 'NONE',  ( -4.592425496802573602E-17, 0.3749999999999999445, 0.000000000000000000 ) ) ;
#207 = ORIENTED_EDGE ( 'NONE', *, *, #71, .F. ) ;
#208 = CARTESIAN_POINT ( 'NONE',  ( 0.3749999999999996114, 6.000000000000000888, 0.000000000000000000 ) ) ;
#209 = CARTESIAN_POINT ( 'NONE',  ( 0.000000000000000000, 0.3750000000000000555, 0.000000000000000000 ) ) ;
#210 = FILL_AREA_STYLE_COLOUR ( '', #30 ) ;
#211 = SURFACE_STYLE_USAGE ( .BOTH. , #231 ) ;
#212 = AXIS2_PLACEMENT_3D ( 'NONE', #152, #263, #120 ) ;
#213 = DIMENSIONAL_EXPONENTS ( 1.000000000000000000, 0.000000000000000000, 0.000000000000000000, 0.000000000000000000, 0.000000000000000000, 0.000000000000000000, 0.000000000000000000 ) ;
#214 =( GEOMETRIC_REPRESENTATION_CONTEXT ( 3 ) GLOBAL_UNCERTAINTY_ASSIGNED_CONTEXT ( ( #215 ) ) GLOBAL_UNIT_ASSIGNED_CONTEXT ( ( #294, #148, #255 ) ) REPRESENTATION_CONTEXT ( 'NONE', 'WORKASPACE' ) );
#215 = UNCERTAINTY_MEASURE_WITH_UNIT (LENGTH_MEASURE( 1.000000000000000082E-05 ), #294, 'distance_accuracy_value', 'NONE');
#216 = EDGE_LOOP ( 'NONE', ( #274, #141, #265, #126 ) ) ;
#217 = DIRECTION ( 'NONE',  ( -1.166302553557088328E-16, 1.000000000000000000, -0.000000000000000000 ) ) ;
#218 = COLOUR_RGB ( '',1.000000000000000000, 0.000000000000000000, 0.000000000000000000 ) ;
#219 = ADVANCED_FACE ( 'NONE', ( #250 ), #25, .F. ) ;
#220 = SURFACE_STYLE_USAGE ( .BOTH. , #100 ) ;
#221 = ORIENTED_EDGE ( 'NONE', *, *, #342, .F. ) ;
#222 = EDGE_LOOP ( 'NONE', ( #73, #249, #122, #207 ) ) ;
#223 = CIRCLE ( 'NONE', #203, 0.3749999999999997780 ) ;
#224 = FILL_AREA_STYLE ('',( #107 ) ) ;
#225 = ADVANCED_FACE ( 'NONE', ( #50 ), #97, .T. ) ;
#226 = CARTESIAN_POINT ( 'NONE',  ( 0.000000000000000000, 0.3750000000000000555, 0.000000000000000000 ) ) ;
#227 = SURFACE_SIDE_STYLE ('',( #288 ) ) ;
#228 = CARTESIAN_POINT ( 'NONE',  ( 0.000000000000000000, 0.000000000000000000, 0.000000000000000000 ) ) ;
#229 = DIRECTION ( 'NONE',  ( 0.000000000000000000, 0.000000000000000000, -1.000000000000000000 ) ) ;
#230 = CARTESIAN_POINT ( 'NONE',  ( -4.592425496802573602E-17, 0.3749999999999999445, 0.000000000000000000 ) ) ;
#231 = SURFACE_SIDE_STYLE ('',( #34 ) ) ;
#232 =( CONVERSION_BASED_UNIT ( 'INCH', #123 ) LENGTH_UNIT ( ) NAMED_UNIT ( #213 ) );
#233 = MANIFOLD_SOLID_BREP ( 'Revolve - Cutting Edge', #12 ) ;
#234 = PRESENTATION_LAYER_ASSIGNMENT (  '', '', ( #361 ) ) ;
#235 = EDGE_CURVE ( 'NONE', #182, #248, #190, .T. ) ;
#236 = ORIENTED_EDGE ( 'NONE', *, *, #132, .T. ) ;
#237 = CARTESIAN_POINT ( 'NONE',  ( -1.224646799147354440E-16, 6.000000000000000888, 0.000000000000000000 ) ) ;
#238 = PRESENTATION_STYLE_ASSIGNMENT (( #220 ) ) ;
#239 = LINE ( 'NONE', #367, #165 ) ;
#240 = APPLICATION_CONTEXT ( 'automotive_design' ) ;
#241 = ORIENTED_EDGE ( 'NONE', *, *, #160, .T. ) ;
#242 = ADVANCED_FACE ( 'NONE', ( #81 ), #183, .F. ) ;
#243 = PRODUCT ( '86084', '86084', '', ( #184 ) ) ;
#244 = PRESENTATION_STYLE_ASSIGNMENT (( #156 ) ) ;
#245 = DIRECTION ( 'NONE',  ( -1.000000000000000000, 0.000000000000000000, 0.000000000000000000 ) ) ;
#246 = AXIS2_PLACEMENT_3D ( 'NONE', #35, #253, #181 ) ;
#247 = CARTESIAN_POINT ( 'NONE',  ( -4.592425496802573602E-17, 0.3749999999999999445, 0.000000000000000000 ) ) ;
#248 = VERTEX_POINT ( 'NONE', #89 ) ;
#249 = ORIENTED_EDGE ( 'NONE', *, *, #254, .T. ) ;
#250 = FACE_OUTER_BOUND ( 'NONE', #278, .T. ) ;
#251 = PRODUCT_DEFINITION_SHAPE ( 'NONE', 'NONE',  #195 ) ;
#252 = CARTESIAN_POINT ( 'NONE',  ( 4.592425496802571754E-17, 3.250000000000000000, 0.3749999999999996114 ) ) ;
#253 = DIRECTION ( 'NONE',  ( -0.000000000000000000, -1.000000000000000000, -0.000000000000000000 ) ) ;
#254 = EDGE_CURVE ( 'NONE', #319, #269, #176, .T. ) ;
#255 =( NAMED_UNIT ( * ) SI_UNIT ( $, .STERADIAN. ) SOLID_ANGLE_UNIT ( ) );
#256 =( LENGTH_UNIT ( ) NAMED_UNIT ( * ) SI_UNIT ( $, .METRE. ) );
#257 =( CONVERSION_BASED_UNIT ( 'INCH', #37 ) LENGTH_UNIT ( ) NAMED_UNIT ( #174 ) );
#258 = SPHERICAL_SURFACE ( 'NONE', #125, 0.3750000000000000555 ) ;
#259 =( GEOMETRIC_REPRESENTATION_CONTEXT ( 3 ) GLOBAL_UNCERTAINTY_ASSIGNED_CONTEXT ( ( #6 ) ) GLOBAL_UNIT_ASSIGNED_CONTEXT ( ( #257, #61, #297 ) ) REPRESENTATION_CONTEXT ( 'NONE', 'WORKASPACE' ) );
#260 = FILL_AREA_STYLE ('',( #2 ) ) ;
#261 =( GEOMETRIC_REPRESENTATION_CONTEXT ( 3 ) GLOBAL_UNCERTAINTY_ASSIGNED_CONTEXT ( ( #268 ) ) GLOBAL_UNIT_ASSIGNED_CONTEXT ( ( #121, #175, #62 ) ) REPRESENTATION_CONTEXT ( 'NONE', 'WORKASPACE' ) );
#262 =( NAMED_UNIT ( * ) SI_UNIT ( $, .STERADIAN. ) SOLID_ANGLE_UNIT ( ) );
#263 = DIRECTION ( 'NONE',  ( -1.166302553557088328E-16, 1.000000000000000000, -0.000000000000000000 ) ) ;
#264 = EDGE_LOOP ( 'NONE', ( #93, #236, #196, #88 ) ) ;
#265 = ORIENTED_EDGE ( 'NONE', *, *, #71, .T. ) ;
#266 = COLOUR_RGB ( '',0.7921568627450980005, 0.8196078431372548767, 0.9333333333333333481 ) ;
#267 = MECHANICAL_DESIGN_GEOMETRIC_PRESENTATION_REPRESENTATION (  '', ( #70 ), #64 ) ;
#268 = UNCERTAINTY_MEASURE_WITH_UNIT (LENGTH_MEASURE( 1.000000000000000082E-05 ), #121, 'distance_accuracy_value', 'NONE');
#269 = VERTEX_POINT ( 'NONE', #170 ) ;
#270 = DIRECTION ( 'NONE',  ( -1.166302553557088328E-16, 1.000000000000000000, -0.000000000000000000 ) ) ;
#271 = ORIENTED_EDGE ( 'NONE', *, *, #342, .T. ) ;
#272 =( NAMED_UNIT ( * ) PLANE_ANGLE_UNIT ( ) SI_UNIT ( $, .RADIAN. ) );
#273 = FACE_OUTER_BOUND ( 'NONE', #216, .T. ) ;
#274 = ORIENTED_EDGE ( 'NONE', *, *, #254, .F. ) ;
#275 = AXIS2_PLACEMENT_3D ( 'NONE', #247, #189, #72 ) ;
#276 =( GEOMETRIC_REPRESENTATION_CONTEXT ( 3 ) GLOBAL_UNCERTAINTY_ASSIGNED_CONTEXT ( ( #162 ) ) GLOBAL_UNIT_ASSIGNED_CONTEXT ( ( #303, #272, #161 ) ) REPRESENTATION_CONTEXT ( 'NONE', 'WORKASPACE' ) );
#277 = COLOUR_RGB ( '',0.7921568627450980005, 0.8196078431372548767, 0.9333333333333333481 ) ;
#278 = EDGE_LOOP ( 'NONE', ( #11, #179 ) ) ;
#279 = SURFACE_STYLE_FILL_AREA ( #147 ) ;
#280 = FILL_AREA_STYLE ('',( #210 ) ) ;
#281 =( GEOMETRIC_REPRESENTATION_CONTEXT ( 3 ) GLOBAL_UNCERTAINTY_ASSIGNED_CONTEXT ( ( #315 ) ) GLOBAL_UNIT_ASSIGNED_CONTEXT ( ( #232, #349, #108 ) ) REPRESENTATION_CONTEXT ( 'NONE', 'WORKASPACE' ) );
#282 = PRESENTATION_STYLE_ASSIGNMENT (( #211 ) ) ;
#283 = AXIS2_PLACEMENT_3D ( 'NONE', #28, #135, #245 ) ;
#284 = DIRECTION ( 'NONE',  ( 0.000000000000000000, 0.000000000000000000, -1.000000000000000000 ) ) ;
#285 =( LENGTH_UNIT ( ) NAMED_UNIT ( * ) SI_UNIT ( $, .METRE. ) );
#286 = ADVANCED_FACE ( 'NONE', ( #55 ), #258, .T. ) ;
#287 = FACE_OUTER_BOUND ( 'NONE', #366, .T. ) ;
#288 = SURFACE_STYLE_FILL_AREA ( #280 ) ;
#289 = FILL_AREA_STYLE ('',( #180 ) ) ;
#290 = DIRECTION ( 'NONE',  ( -1.000000000000000000, 0.000000000000000000, 0.000000000000000000 ) ) ;
#291 = DIRECTION ( 'NONE',  ( 0.000000000000000000, 1.000000000000000000, 0.000000000000000000 ) ) ;
#292 = LENGTH_MEASURE_WITH_UNIT ( LENGTH_MEASURE( 0.02539999999999999897 ), #116 );
#293 = AXIS2_PLACEMENT_3D ( 'NONE', #228, #325, #360 ) ;
#294 =( CONVERSION_BASED_UNIT ( 'INCH', #198 ) LENGTH_UNIT ( ) NAMED_UNIT ( #344 ) );
#295 = CARTESIAN_POINT ( 'NONE',  ( -2.296212748401286185E-17, -6.829619984160658046E-17, 0.000000000000000000 ) ) ;
#296 = DIMENSIONAL_EXPONENTS ( 1.000000000000000000, 0.000000000000000000, 0.000000000000000000, 0.000000000000000000, 0.000000000000000000, 0.000000000000000000, 0.000000000000000000 ) ;
#297 =( NAMED_UNIT ( * ) SI_UNIT ( $, .STERADIAN. ) SOLID_ANGLE_UNIT ( ) );
#298 = DIRECTION ( 'NONE',  ( -0.000000000000000000, -1.000000000000000000, -0.000000000000000000 ) ) ;
#299 = PRESENTATION_LAYER_ASSIGNMENT (  '', '', ( #51 ) ) ;
#300 = COLOUR_RGB ( '',1.000000000000000000, 0.000000000000000000, 0.000000000000000000 ) ;
#301 = MECHANICAL_DESIGN_GEOMETRIC_PRESENTATION_REPRESENTATION (  '', ( #51 ), #276 ) ;
#302 = ORIENTED_EDGE ( 'NONE', *, *, #235, .F. ) ;
#303 =( CONVERSION_BASED_UNIT ( 'INCH', #128 ) LENGTH_UNIT ( ) NAMED_UNIT ( #296 ) );
#304 = FILL_AREA_STYLE ('',( #76 ) ) ;
#305 = UNCERTAINTY_MEASURE_WITH_UNIT (LENGTH_MEASURE( 1.000000000000000082E-05 ), #99, 'distance_accuracy_value', 'NONE');
#306 = AXIS2_PLACEMENT_3D ( 'NONE', #169, #298, #149 ) ;
#307 = CARTESIAN_POINT ( 'NONE',  ( 1.982685223134639388E-16, 3.250000000000000000, 0.000000000000000000 ) ) ;
#308 = SURFACE_SIDE_STYLE ('',( #372 ) ) ;
#309 = ORIENTED_EDGE ( 'NONE', *, *, #140, .F. ) ;
#310 = SPHERICAL_SURFACE ( 'NONE', #164, 0.3750000000000000555 ) ;
#311 = DIRECTION ( 'NONE',  ( -0.000000000000000000, -1.000000000000000000, -0.000000000000000000 ) ) ;
#312 = ADVANCED_FACE ( 'NONE', ( #287 ), #310, .T. ) ;
#313 = STYLED_ITEM ( 'NONE', ( #282 ), #233 ) ;
#314 = SURFACE_STYLE_USAGE ( .BOTH. , #321 ) ;
#315 = UNCERTAINTY_MEASURE_WITH_UNIT (LENGTH_MEASURE( 1.000000000000000082E-05 ), #232, 'distance_accuracy_value', 'NONE');
#316 =( GEOMETRIC_REPRESENTATION_CONTEXT ( 3 ) GLOBAL_UNCERTAINTY_ASSIGNED_CONTEXT ( ( #130 ) ) GLOBAL_UNIT_ASSIGNED_CONTEXT ( ( #357, #124, #262 ) ) REPRESENTATION_CONTEXT ( 'NONE', 'WORKASPACE' ) );
#317 = DIRECTION ( 'NONE',  ( -0.000000000000000000, -1.000000000000000000, -0.000000000000000000 ) ) ;
#318 = CIRCLE ( 'NONE', #205, 0.3750000000000000555 ) ;
#319 = VERTEX_POINT ( 'NONE', #38 ) ;
#320 = CARTESIAN_POINT ( 'NONE',  ( -1.224646799147354440E-16, 6.000000000000000888, 0.000000000000000000 ) ) ;
#321 = SURFACE_SIDE_STYLE ('',( #279 ) ) ;
#322 = DIRECTION ( 'NONE',  ( -1.166302553557088328E-16, 1.000000000000000000, -0.000000000000000000 ) ) ;
#323 = PRESENTATION_STYLE_ASSIGNMENT (( #85 ) ) ;
#324 = DIMENSIONAL_EXPONENTS ( 1.000000000000000000, 0.000000000000000000, 0.000000000000000000, 0.000000000000000000, 0.000000000000000000, 0.000000000000000000, 0.000000000000000000 ) ;
#325 = DIRECTION ( 'NONE',  ( 0.000000000000000000, 0.000000000000000000, 1.000000000000000000 ) ) ;
#326 = ORIENTED_EDGE ( 'NONE', *, *, #197, .T. ) ;
#327 = APPLICATION_PROTOCOL_DEFINITION ( 'draft international standard', 'automotive_design', 1998, #240 ) ;
#328 = AXIS2_PLACEMENT_3D ( 'NONE', #237, #270, #192 ) ;
#329 = CIRCLE ( 'NONE', #358, 0.3749999999999996114 ) ;
#330 = EDGE_CURVE ( 'NONE', #142, #373, #329, .T. ) ;
#331 =( LENGTH_UNIT ( ) NAMED_UNIT ( * ) SI_UNIT ( $, .METRE. ) );
#332 = ORIENTED_EDGE ( 'NONE', *, *, #197, .F. ) ;
#333 =( LENGTH_UNIT ( ) NAMED_UNIT ( * ) SI_UNIT ( $, .METRE. ) );
#334 = VECTOR ( 'NONE', #59, 39.37007874015748143 ) ;
#335 = FILL_AREA_STYLE_COLOUR ( '', #300 ) ;
#336 = DIRECTION ( 'NONE',  ( -0.000000000000000000, -1.000000000000000000, -0.000000000000000000 ) ) ;
#337 = FACE_OUTER_BOUND ( 'NONE', #102, .T. ) ;
#338 = ORIENTED_EDGE ( 'NONE', *, *, #132, .F. ) ;
#339 = DIRECTION ( 'NONE',  ( -1.000000000000000000, -1.166302553557088328E-16, 0.000000000000000000 ) ) ;
#340 = SURFACE_STYLE_USAGE ( .BOTH. , #146 ) ;
#341 = DIRECTION ( 'NONE',  ( 0.000000000000000000, 0.000000000000000000, 1.000000000000000000 ) ) ;
#342 = EDGE_CURVE ( 'NONE', #248, #118, #10, .T. ) ;
#343 = DIRECTION ( 'NONE',  ( 0.000000000000000000, 0.000000000000000000, -1.000000000000000000 ) ) ;
#344 = DIMENSIONAL_EXPONENTS ( 1.000000000000000000, 0.000000000000000000, 0.000000000000000000, 0.000000000000000000, 0.000000000000000000, 0.000000000000000000, 0.000000000000000000 ) ;
#345 = DIRECTION ( 'NONE',  ( 0.000000000000000000, 0.000000000000000000, -1.000000000000000000 ) ) ;
#346 = DIRECTION ( 'NONE',  ( -1.000000000000000000, 0.000000000000000000, 0.000000000000000000 ) ) ;
#347 = MECHANICAL_DESIGN_GEOMETRIC_PRESENTATION_REPRESENTATION (  '', ( #313 ), #281 ) ;
#348 = ORIENTED_EDGE ( 'NONE', *, *, #330, .F. ) ;
#349 =( NAMED_UNIT ( * ) PLANE_ANGLE_UNIT ( ) SI_UNIT ( $, .RADIAN. ) );
#350 = MECHANICAL_DESIGN_GEOMETRIC_PRESENTATION_REPRESENTATION (  '', ( #361 ), #259 ) ;
#351 = FACE_OUTER_BOUND ( 'NONE', #222, .T. ) ;
#352 = VERTEX_POINT ( 'NONE', #295 ) ;
#353 = LINE ( 'NONE', #7, #365 ) ;
#354 = CARTESIAN_POINT ( 'NONE',  ( 1.982685223134639388E-16, 3.250000000000000000, 0.000000000000000000 ) ) ;
#355 = EDGE_CURVE ( 'NONE', #269, #48, #223, .T. ) ;
#356 = DIRECTION ( 'NONE',  ( 1.166302553557088328E-16, -1.000000000000000000, 0.000000000000000000 ) ) ;
#357 =( CONVERSION_BASED_UNIT ( 'INCH', #91 ) LENGTH_UNIT ( ) NAMED_UNIT ( #324 ) );
#358 = AXIS2_PLACEMENT_3D ( 'NONE', #114, #80, #172 ) ;
#359 =( LENGTH_UNIT ( ) NAMED_UNIT ( * ) SI_UNIT ( $, .METRE. ) );
#360 = DIRECTION ( 'NONE',  ( 1.000000000000000000, 0.000000000000000000, 0.000000000000000000 ) ) ;
#361 = STYLED_ITEM ( 'NONE', ( #323 ), #24 ) ;
#362 = EDGE_LOOP ( 'NONE', ( #58, #49 ) ) ;
#363 = EDGE_CURVE ( 'NONE', #142, #118, #353, .T. ) ;
#364 = ADVANCED_BREP_SHAPE_REPRESENTATION ( '86084', ( #233, #105, #293 ), #316 ) ;
#365 = VECTOR ( 'NONE', #153, 39.37007874015748143 ) ;
#366 = EDGE_LOOP ( 'NONE', ( #241, #368, #158, #271 ) ) ;
#367 = CARTESIAN_POINT ( 'NONE',  ( -0.3749999999999996669, 6.000000000000000888, 0.000000000000000000 ) ) ;
#368 = ORIENTED_EDGE ( 'NONE', *, *, #78, .T. ) ;
#369 = DIRECTION ( 'NONE',  ( -1.166302553557088328E-16, 1.000000000000000000, 0.000000000000000000 ) ) ;
#370 = LENGTH_MEASURE_WITH_UNIT ( LENGTH_MEASURE( 0.02539999999999999897 ), #331 );
#371 = AXIS2_PLACEMENT_3D ( 'NONE', #106, #79, #3 ) ;
#372 = SURFACE_STYLE_FILL_AREA ( #304 ) ;
#373 = VERTEX_POINT ( 'NONE', #185 ) ;
ENDSEC;
END-ISO-10303-21;
