ISO-10303-21;
HEADER;
FILE_DESCRIPTION (( 'STEP AP214' ),
    '1' );
FILE_NAME ('Micro_SBMM-030-221X.STEP',
    '2021-09-02T17:07:02',
    ( '' ),
    ( '' ),
    'SwSTEP 2.0',
    'SolidWorks 2020',
    '' );
FILE_SCHEMA (( 'AUTOMOTIVE_DESIGN' ));
ENDSEC;

DATA;
#1 = VERTEX_POINT ( 'NONE', #143 ) ;
#2 = CYLINDRICAL_SURFACE ( 'NONE', #336, 0.1181100000000000344 ) ;
#3 = STYLED_ITEM ( 'NONE', ( #233 ), #151 ) ;
#4 = CARTESIAN_POINT ( 'NONE',  ( 0.0000000000000000000, 0.0000000000000000000, 2.952755999999999936 ) ) ;
#5 = CARTESIAN_POINT ( 'NONE',  ( 0.1031099999999991745, 1.354581824536882559E-17, 2.952755999999999936 ) ) ;
#6 = ORIENTED_EDGE ( 'NONE', *, *, #10, .T. ) ;
#7 = AXIS2_PLACEMENT_3D ( 'NONE', #63, #144, #8 ) ;
#8 = DIRECTION ( 'NONE',  ( 1.000000000000000000, 0.0000000000000000000, 0.0000000000000000000 ) ) ;
#9 = EDGE_LOOP ( 'NONE', ( #191, #115, #82, #159 ) ) ;
#10 = EDGE_CURVE ( 'NONE', #270, #117, #256, .T. ) ;
#11 = PRODUCT_DEFINITION_CONTEXT ( 'detailed design', #99, 'design' ) ;
#12 =( CONVERSION_BASED_UNIT ( 'INCH', #113 ) LENGTH_UNIT ( ) NAMED_UNIT ( #163 ) );
#13 = CIRCLE ( 'NONE', #16, 0.05905499999999999639 ) ;
#14 = EDGE_CURVE ( 'NONE', #172, #270, #169, .T. ) ;
#15 = CARTESIAN_POINT ( 'NONE',  ( 0.0000000000000000000, 0.0000000000000000000, 2.952755999999999936 ) ) ;
#16 = AXIS2_PLACEMENT_3D ( 'NONE', #247, #107, #218 ) ;
#17 = DIRECTION ( 'NONE',  ( -1.000000000000000000, 0.0000000000000000000, 0.0000000000000000000 ) ) ;
#18 = DIRECTION ( 'NONE',  ( -1.000000000000000000, 0.0000000000000000000, 0.0000000000000000000 ) ) ;
#19 = EDGE_CURVE ( 'NONE', #282, #172, #280, .T. ) ;
#20 = ORIENTED_EDGE ( 'NONE', *, *, #141, .F. ) ;
#21 = DIRECTION ( 'NONE',  ( -0.0000000000000000000, -0.0000000000000000000, -1.000000000000000000 ) ) ;
#22 = ORIENTED_EDGE ( 'NONE', *, *, #10, .F. ) ;
#23 = DIRECTION ( 'NONE',  ( -0.0000000000000000000, -0.0000000000000000000, -1.000000000000000000 ) ) ;
#24 = CONICAL_SURFACE ( 'NONE', #155, 0.1299209999999997867, 0.09065978310229558246 ) ;
#25 = EDGE_CURVE ( 'NONE', #1, #203, #213, .T. ) ;
#26 = ORIENTED_EDGE ( 'NONE', *, *, #167, .T. ) ;
#27 = DIRECTION ( 'NONE',  ( -0.09053564237157933625, 1.108741846391041270E-17, 0.9958932158923291533 ) ) ;
#28 = EDGE_CURVE ( 'NONE', #298, #270, #95, .T. ) ;
#29 = ORIENTED_EDGE ( 'NONE', *, *, #141, .T. ) ;
#30 = DIRECTION ( 'NONE',  ( -0.0000000000000000000, -0.0000000000000000000, -1.000000000000000000 ) ) ;
#31 = AXIS2_PLACEMENT_3D ( 'NONE', #71, #100, #75 ) ;
#32 = DIRECTION ( 'NONE',  ( 1.000000000000000000, 0.0000000000000000000, 0.0000000000000000000 ) ) ;
#33 = DIRECTION ( 'NONE',  ( 0.7071067811865486830, 8.659560562354947649E-17, -0.7071067811865462405 ) ) ;
#34 = ORIENTED_EDGE ( 'NONE', *, *, #28, .F. ) ;
#35 = SURFACE_STYLE_USAGE ( .BOTH. , #178 ) ;
#36 = DIRECTION ( 'NONE',  ( 1.000000000000000000, 0.0000000000000000000, 0.0000000000000000000 ) ) ;
#37 = CARTESIAN_POINT ( 'NONE',  ( 0.0000000000000000000, 0.0000000000000000000, 2.937755999999999368 ) ) ;
#38 =( LENGTH_UNIT ( ) NAMED_UNIT ( * ) SI_UNIT ( $, .METRE. ) );
#39 = CARTESIAN_POINT ( 'NONE',  ( 0.0000000000000000000, 0.0000000000000000000, 0.05905500000000000332 ) ) ;
#40 = EDGE_CURVE ( 'NONE', #91, #1, #68, .T. ) ;
#41 = DIRECTION ( 'NONE',  ( 1.000000000000000000, 0.0000000000000000000, -0.0000000000000000000 ) ) ;
#42 = CIRCLE ( 'NONE', #250, 0.1031099999999991745 ) ;
#43 = AXIS2_PLACEMENT_3D ( 'NONE', #130, #23, #18 ) ;
#44 = CARTESIAN_POINT ( 'NONE',  ( 0.0000000000000000000, 0.0000000000000000000, 2.952755999999999936 ) ) ;
#45 = EDGE_LOOP ( 'NONE', ( #327, #129, #276, #34 ) ) ;
#46 = MANIFOLD_SOLID_BREP ( 'Cut-Revolve3', #154 ) ;
#47 = FACE_OUTER_BOUND ( 'NONE', #85, .T. ) ;
#48 = ORIENTED_EDGE ( 'NONE', *, *, #174, .T. ) ;
#49 = CARTESIAN_POINT ( 'NONE',  ( 0.0000000000000000000, 0.0000000000000000000, 1.822834149999997377 ) ) ;
#50 = EDGE_LOOP ( 'NONE', ( #220, #322, #26, #290 ) ) ;
#51 = FACE_OUTER_BOUND ( 'NONE', #230, .T. ) ;
#52 = CIRCLE ( 'NONE', #274, 0.03936999999999998140 ) ;
#53 = EDGE_LOOP ( 'NONE', ( #264, #345, #20, #279, #198 ) ) ;
#54 = CARTESIAN_POINT ( 'NONE',  ( 0.0000000000000000000, 0.0000000000000000000, 0.05905500000000000332 ) ) ;
#55 = EDGE_LOOP ( 'NONE', ( #343, #89 ) ) ;
#56 = PRODUCT_DEFINITION ( 'UNKNOWN', '', #243, #11 ) ;
#57 =( NAMED_UNIT ( * ) SI_UNIT ( $, .STERADIAN. ) SOLID_ANGLE_UNIT ( ) );
#58 = STYLED_ITEM ( 'NONE', ( #253 ), #46 ) ;
#59 = AXIS2_PLACEMENT_3D ( 'NONE', #44, #127, #41 ) ;
#60 =( NAMED_UNIT ( * ) SI_UNIT ( $, .STERADIAN. ) SOLID_ANGLE_UNIT ( ) );
#61 = DIRECTION ( 'NONE',  ( -0.0000000000000000000, -0.0000000000000000000, -1.000000000000000000 ) ) ;
#62 = FILL_AREA_STYLE_COLOUR ( '', #222 ) ;
#63 = CARTESIAN_POINT ( 'NONE',  ( 0.0000000000000000000, 0.0000000000000000000, 0.0000000000000000000 ) ) ;
#64 = EDGE_CURVE ( 'NONE', #91, #319, #183, .T. ) ;
#65 = CARTESIAN_POINT ( 'NONE',  ( 0.0000000000000000000, 0.0000000000000000000, 0.1030719981370833843 ) ) ;
#66 =( CONVERSION_BASED_UNIT ( 'INCH', #118 ) LENGTH_UNIT ( ) NAMED_UNIT ( #216 ) );
#67 = CIRCLE ( 'NONE', #186, 0.05905499999999998945 ) ;
#68 = LINE ( 'NONE', #258, #335 ) ;
#69 = SPHERICAL_SURFACE ( 'NONE', #210, 0.05905499999999999639 ) ;
#70 = AXIS2_PLACEMENT_3D ( 'NONE', #104, #312, #315 ) ;
#71 = CARTESIAN_POINT ( 'NONE',  ( 0.0000000000000000000, 0.0000000000000000000, 0.1030719981370833843 ) ) ;
#72 = EDGE_CURVE ( 'NONE', #172, #282, #42, .T. ) ;
#73 = LINE ( 'NONE', #83, #184 ) ;
#74 = AXIS2_PLACEMENT_3D ( 'NONE', #135, #173, #297 ) ;
#75 = DIRECTION ( 'NONE',  ( -1.000000000000000000, 0.0000000000000000000, 0.0000000000000000000 ) ) ;
#76 = ORIENTED_EDGE ( 'NONE', *, *, #14, .F. ) ;
#77 = DIRECTION ( 'NONE',  ( -1.000000000000000000, 0.0000000000000000000, 0.0000000000000000000 ) ) ;
#78 = CARTESIAN_POINT ( 'NONE',  ( -0.1299209999999997867, 1.591073367920230343E-17, 1.822834149999997377 ) ) ;
#79 = EDGE_LOOP ( 'NONE', ( #29, #303, #223, #205 ) ) ;
#80 = CONICAL_SURFACE ( 'NONE', #81, 0.1031099999999991745, 0.7853981633974500554 ) ;
#81 = AXIS2_PLACEMENT_3D ( 'NONE', #301, #344, #192 ) ;
#82 = ORIENTED_EDGE ( 'NONE', *, *, #97, .F. ) ;
#83 = CARTESIAN_POINT ( 'NONE',  ( 0.1299209999999997867, 0.0000000000000000000, 1.822834149999997377 ) ) ;
#84 = ADVANCED_FACE ( 'NONE', ( #338 ), #160, .T. ) ;
#85 = EDGE_LOOP ( 'NONE', ( #267, #317, #296, #48 ) ) ;
#86 = CARTESIAN_POINT ( 'NONE',  ( 0.1181100000000000344, 1.446430334472939084E-17, 2.937755999999999368 ) ) ;
#87 =( NAMED_UNIT ( * ) PLANE_ANGLE_UNIT ( ) SI_UNIT ( $, .RADIAN. ) );
#88 = EDGE_CURVE ( 'NONE', #105, #157, #93, .T. ) ;
#89 = ORIENTED_EDGE ( 'NONE', *, *, #19, .T. ) ;
#90 = APPLICATION_PROTOCOL_DEFINITION ( 'draft international standard', 'automotive_design', 1998, #99 ) ;
#91 = VERTEX_POINT ( 'NONE', #152 ) ;
#92 = SHAPE_DEFINITION_REPRESENTATION ( #122, #151 ) ;
#93 = CIRCLE ( 'NONE', #242, 0.03936999999999998140 ) ;
#94 = DIRECTION ( 'NONE',  ( 1.000000000000000000, 0.0000000000000000000, 0.0000000000000000000 ) ) ;
#95 = CIRCLE ( 'NONE', #142, 0.1181100000000000344 ) ;
#96 = VECTOR ( 'NONE', #27, 39.37007874015748854 ) ;
#97 = EDGE_CURVE ( 'NONE', #166, #117, #125, .T. ) ;
#98 = FACE_OUTER_BOUND ( 'NONE', #55, .T. ) ;
#99 = APPLICATION_CONTEXT ( 'automotive_design' ) ;
#100 = DIRECTION ( 'NONE',  ( -0.0000000000000000000, -0.0000000000000000000, -1.000000000000000000 ) ) ;
#101 = ADVANCED_FACE ( 'NONE', ( #98 ), #188, .T. ) ;
#102 = DIRECTION ( 'NONE',  ( 0.0000000000000000000, 0.0000000000000000000, -1.000000000000000000 ) ) ;
#103 = MECHANICAL_DESIGN_GEOMETRIC_PRESENTATION_REPRESENTATION (  '', ( #58 ), #149 ) ;
#104 = CARTESIAN_POINT ( 'NONE',  ( 0.0000000000000000000, 0.0000000000000000000, 2.937755999999999368 ) ) ;
#105 = VERTEX_POINT ( 'NONE', #340 ) ;
#106 = ADVANCED_FACE ( 'NONE', ( #215 ), #182, .T. ) ;
#107 = DIRECTION ( 'NONE',  ( 1.000000000000000000, 1.224646799147353207E-16, -0.0000000000000000000 ) ) ;
#108 = ORIENTED_EDGE ( 'NONE', *, *, #131, .T. ) ;
#109 = ORIENTED_EDGE ( 'NONE', *, *, #64, .T. ) ;
#110 = CIRCLE ( 'NONE', #179, 0.1181100000000000344 ) ;
#111 = CARTESIAN_POINT ( 'NONE',  ( 4.821434448243127714E-18, -0.03936999999999998140, 0.1030719981370833843 ) ) ;
#112 = DIRECTION ( 'NONE',  ( -1.000000000000000000, 0.0000000000000000000, 0.0000000000000000000 ) ) ;
#113 = LENGTH_MEASURE_WITH_UNIT ( LENGTH_MEASURE( 0.02539999999999999897 ), #38 );
#114 = DIRECTION ( 'NONE',  ( 0.09053564237157933625, 0.0000000000000000000, 0.9958932158923291533 ) ) ;
#115 = ORIENTED_EDGE ( 'NONE', *, *, #295, .T. ) ;
#116 = COLOUR_RGB ( '',0.7921568627450980005, 0.8196078431372548767, 0.9333333333333333481 ) ;
#117 = VERTEX_POINT ( 'NONE', #261 ) ;
#118 = LENGTH_MEASURE_WITH_UNIT ( LENGTH_MEASURE( 0.02539999999999999897 ), #259 );
#119 = DIRECTION ( 'NONE',  ( -0.7071067811865486830, 0.0000000000000000000, -0.7071067811865462405 ) ) ;
#120 = ORIENTED_EDGE ( 'NONE', *, *, #181, .F. ) ;
#121 = ADVANCED_FACE ( 'NONE', ( #156 ), #307, .T. ) ;
#122 = PRODUCT_DEFINITION_SHAPE ( 'NONE', 'NONE',  #56 ) ;
#123 = ADVANCED_FACE ( 'NONE', ( #208 ), #195, .T. ) ;
#124 = DIRECTION ( 'NONE',  ( -1.000000000000000000, 0.0000000000000000000, 0.0000000000000000000 ) ) ;
#125 = CIRCLE ( 'NONE', #224, 0.1181100000000000344 ) ;
#126 = EDGE_CURVE ( 'NONE', #319, #105, #235, .T. ) ;
#127 = DIRECTION ( 'NONE',  ( 0.0000000000000000000, 0.0000000000000000000, 1.000000000000000000 ) ) ;
#128 = CARTESIAN_POINT ( 'NONE',  ( 0.0000000000000000000, 0.0000000000000000000, 2.952755999999999936 ) ) ;
#129 = ORIENTED_EDGE ( 'NONE', *, *, #72, .F. ) ;
#130 = CARTESIAN_POINT ( 'NONE',  ( 0.0000000000000000000, 0.0000000000000000000, 0.0000000000000000000 ) ) ;
#131 = EDGE_CURVE ( 'NONE', #270, #298, #162, .T. ) ;
#132 = CARTESIAN_POINT ( 'NONE',  ( 0.0000000000000000000, 0.0000000000000000000, 0.1030719981370833843 ) ) ;
#133 = EDGE_LOOP ( 'NONE', ( #329, #278, #193, #76 ) ) ;
#134 =( LENGTH_UNIT ( ) NAMED_UNIT ( * ) SI_UNIT ( $, .METRE. ) );
#135 = CARTESIAN_POINT ( 'NONE',  ( 0.0000000000000000000, 0.0000000000000000000, 0.0000000000000000000 ) ) ;
#136 = LENGTH_MEASURE_WITH_UNIT ( LENGTH_MEASURE( 0.02539999999999999897 ), #134 );
#137 = FILL_AREA_STYLE ('',( #62 ) ) ;
#138 = CARTESIAN_POINT ( 'NONE',  ( 0.0000000000000000000, 0.0000000000000000000, 1.692912999999999890 ) ) ;
#139 = DIRECTION ( 'NONE',  ( -0.0000000000000000000, -0.0000000000000000000, -1.000000000000000000 ) ) ;
#140 = SURFACE_SIDE_STYLE ('',( #324 ) ) ;
#141 = EDGE_CURVE ( 'NONE', #157, #1, #170, .T. ) ;
#142 = AXIS2_PLACEMENT_3D ( 'NONE', #37, #146, #32 ) ;
#143 = CARTESIAN_POINT ( 'NONE',  ( 0.03936999999999998140, 4.821434448243128484E-18, 0.1030719981370833843 ) ) ;
#144 = DIRECTION ( 'NONE',  ( 0.0000000000000000000, 0.0000000000000000000, 1.000000000000000000 ) ) ;
#145 = UNCERTAINTY_MEASURE_WITH_UNIT (LENGTH_MEASURE( 1.000000000000000082E-05 ), #66, 'distance_accuracy_value', 'NONE');
#146 = DIRECTION ( 'NONE',  ( 0.0000000000000000000, 0.0000000000000000000, -1.000000000000000000 ) ) ;
#147 = ADVANCED_FACE ( 'NONE', ( #47 ), #69, .T. ) ;
#148 = SURFACE_STYLE_FILL_AREA ( #228 ) ;
#149 =( GEOMETRIC_REPRESENTATION_CONTEXT ( 3 ) GLOBAL_UNCERTAINTY_ASSIGNED_CONTEXT ( ( #231 ) ) GLOBAL_UNIT_ASSIGNED_CONTEXT ( ( #12, #87, #60 ) ) REPRESENTATION_CONTEXT ( 'NONE', 'WORKASPACE' ) );
#150 = VECTOR ( 'NONE', #211, 39.37007874015748143 ) ;
#151 = ADVANCED_BREP_SHAPE_REPRESENTATION ( 'Micro_SBMM-030-221X', ( #46, #7 ), #260 ) ;
#152 = CARTESIAN_POINT ( 'NONE',  ( 0.03936999999999990507, 0.0000000000000000000, 0.8267719999999999514 ) ) ;
#153 = DIRECTION ( 'NONE',  ( -1.000000000000000000, 0.0000000000000000000, 0.0000000000000000000 ) ) ;
#154 = CLOSED_SHELL ( 'NONE', ( #286, #106, #158, #123, #84, #271, #101, #237, #257, #147, #121 ) ) ;
#155 = AXIS2_PLACEMENT_3D ( 'NONE', #252, #275, #269 ) ;
#156 = FACE_OUTER_BOUND ( 'NONE', #189, .T. ) ;
#157 = VERTEX_POINT ( 'NONE', #341 ) ;
#158 = ADVANCED_FACE ( 'NONE', ( #313 ), #328, .T. ) ;
#159 = ORIENTED_EDGE ( 'NONE', *, *, #167, .F. ) ;
#160 = CYLINDRICAL_SURFACE ( 'NONE', #284, 0.1181100000000000344 ) ;
#161 = ORIENTED_EDGE ( 'NONE', *, *, #25, .F. ) ;
#162 = CIRCLE ( 'NONE', #70, 0.1181100000000000344 ) ;
#163 = DIMENSIONAL_EXPONENTS ( 1.000000000000000000, 0.0000000000000000000, 0.0000000000000000000, 0.0000000000000000000, 0.0000000000000000000, 0.0000000000000000000, 0.0000000000000000000 ) ;
#164 = DIRECTION ( 'NONE',  ( 1.000000000000000000, 0.0000000000000000000, 0.0000000000000000000 ) ) ;
#165 = LINE ( 'NONE', #249, #251 ) ;
#166 = VERTEX_POINT ( 'NONE', #262 ) ;
#167 = EDGE_CURVE ( 'NONE', #91, #166, #73, .T. ) ;
#168 = LINE ( 'NONE', #78, #96 ) ;
#169 = LINE ( 'NONE', #273, #194 ) ;
#170 = CIRCLE ( 'NONE', #31, 0.03936999999999998140 ) ;
#171 = DIRECTION ( 'NONE',  ( -1.000000000000000000, 0.0000000000000000000, 0.0000000000000000000 ) ) ;
#172 = VERTEX_POINT ( 'NONE', #254 ) ;
#173 = DIRECTION ( 'NONE',  ( -0.0000000000000000000, -0.0000000000000000000, -1.000000000000000000 ) ) ;
#174 = EDGE_CURVE ( 'NONE', #157, #240, #67, .T. ) ;
#175 = ORIENTED_EDGE ( 'NONE', *, *, #40, .F. ) ;
#176 = DIRECTION ( 'NONE',  ( -0.0000000000000000000, -0.0000000000000000000, -1.000000000000000000 ) ) ;
#177 = PRODUCT ( 'Micro_SBMM-030-221X', 'Micro_SBMM-030-221X', '', ( #204 ) ) ;
#178 = SURFACE_SIDE_STYLE ('',( #148 ) ) ;
#179 = AXIS2_PLACEMENT_3D ( 'NONE', #138, #197, #164 ) ;
#180 = CARTESIAN_POINT ( 'NONE',  ( -0.1181100000000000344, 0.0000000000000000000, 2.952755999999999936 ) ) ;
#181 = EDGE_CURVE ( 'NONE', #203, #105, #52, .T. ) ;
#182 = SPHERICAL_SURFACE ( 'NONE', #300, 0.05905499999999999639 ) ;
#183 = CIRCLE ( 'NONE', #306, 0.03936999999999990507 ) ;
#184 = VECTOR ( 'NONE', #114, 39.37007874015748854 ) ;
#185 = DIRECTION ( 'NONE',  ( 1.000000000000000000, 0.0000000000000000000, 0.0000000000000000000 ) ) ;
#186 = AXIS2_PLACEMENT_3D ( 'NONE', #54, #171, #294 ) ;
#187 = EDGE_CURVE ( 'NONE', #117, #166, #110, .T. ) ;
#188 = PLANE ( 'NONE',  #59 ) ;
#189 = EDGE_LOOP ( 'NONE', ( #175, #109, #246, #120, #161 ) ) ;
#190 = CARTESIAN_POINT ( 'NONE',  ( 0.0000000000000000000, 0.0000000000000000000, 0.05905500000000000332 ) ) ;
#191 = ORIENTED_EDGE ( 'NONE', *, *, #309, .F. ) ;
#192 = DIRECTION ( 'NONE',  ( -1.000000000000000000, 0.0000000000000000000, 0.0000000000000000000 ) ) ;
#193 = ORIENTED_EDGE ( 'NONE', *, *, #131, .F. ) ;
#194 = VECTOR ( 'NONE', #119, 39.37007874015748854 ) ;
#195 = CONICAL_SURFACE ( 'NONE', #285, 0.1031099999999991745, 0.7853981633974500554 ) ;
#196 = CARTESIAN_POINT ( 'NONE',  ( -0.1181100000000000344, 0.0000000000000000000, 2.937755999999999368 ) ) ;
#197 = DIRECTION ( 'NONE',  ( 0.0000000000000000000, 0.0000000000000000000, 1.000000000000000000 ) ) ;
#198 = ORIENTED_EDGE ( 'NONE', *, *, #126, .F. ) ;
#199 = CARTESIAN_POINT ( 'NONE',  ( 0.1181100000000000344, 1.446430334472939084E-17, 2.952755999999999936 ) ) ;
#200 = DIRECTION ( 'NONE',  ( 0.0000000000000000000, 0.0000000000000000000, 1.000000000000000000 ) ) ;
#201 = EDGE_CURVE ( 'NONE', #282, #298, #165, .T. ) ;
#202 = DIRECTION ( 'NONE',  ( -1.000000000000000000, 0.0000000000000000000, 0.0000000000000000000 ) ) ;
#203 = VERTEX_POINT ( 'NONE', #111 ) ;
#204 = PRODUCT_CONTEXT ( 'NONE', #217, 'mechanical' ) ;
#205 = ORIENTED_EDGE ( 'NONE', *, *, #174, .F. ) ;
#206 = CARTESIAN_POINT ( 'NONE',  ( 0.0000000000000000000, 0.0000000000000000000, 0.8267719999999999514 ) ) ;
#207 = MECHANICAL_DESIGN_GEOMETRIC_PRESENTATION_REPRESENTATION (  '', ( #3 ), #333 ) ;
#208 = FACE_OUTER_BOUND ( 'NONE', #133, .T. ) ;
#209 = AXIS2_PLACEMENT_3D ( 'NONE', #229, #200, #36 ) ;
#210 = AXIS2_PLACEMENT_3D ( 'NONE', #190, #263, #241 ) ;
#211 = DIRECTION ( 'NONE',  ( -0.0000000000000000000, -0.0000000000000000000, -1.000000000000000000 ) ) ;
#212 = DIRECTION ( 'NONE',  ( 0.0000000000000000000, 1.000000000000000000, 0.0000000000000000000 ) ) ;
#213 = CIRCLE ( 'NONE', #320, 0.03936999999999998140 ) ;
#214 = ORIENTED_EDGE ( 'NONE', *, *, #28, .T. ) ;
#215 = FACE_OUTER_BOUND ( 'NONE', #79, .T. ) ;
#216 = DIMENSIONAL_EXPONENTS ( 1.000000000000000000, 0.0000000000000000000, 0.0000000000000000000, 0.0000000000000000000, 0.0000000000000000000, 0.0000000000000000000, 0.0000000000000000000 ) ;
#217 = APPLICATION_CONTEXT ( 'automotive_design' ) ;
#218 = DIRECTION ( 'NONE',  ( -1.224646799147353207E-16, 1.000000000000000000, 0.0000000000000000000 ) ) ;
#219 = DIMENSIONAL_EXPONENTS ( 1.000000000000000000, 0.0000000000000000000, 0.0000000000000000000, 0.0000000000000000000, 0.0000000000000000000, 0.0000000000000000000, 0.0000000000000000000 ) ;
#220 = ORIENTED_EDGE ( 'NONE', *, *, #295, .F. ) ;
#221 =( CONVERSION_BASED_UNIT ( 'INCH', #136 ) LENGTH_UNIT ( ) NAMED_UNIT ( #219 ) );
#222 = COLOUR_RGB ( '',0.7921568627450980005, 0.8196078431372548767, 0.9333333333333333481 ) ;
#223 = ORIENTED_EDGE ( 'NONE', *, *, #332, .T. ) ;
#224 = AXIS2_PLACEMENT_3D ( 'NONE', #238, #339, #94 ) ;
#225 = DIRECTION ( 'NONE',  ( -1.000000000000000000, 0.0000000000000000000, 0.0000000000000000000 ) ) ;
#226 = CARTESIAN_POINT ( 'NONE',  ( -0.03936999999999990507, 9.642868896486255427E-18, 0.8267719999999999514 ) ) ;
#227 = FACE_OUTER_BOUND ( 'NONE', #50, .T. ) ;
#228 = FILL_AREA_STYLE ('',( #304 ) ) ;
#229 = CARTESIAN_POINT ( 'NONE',  ( 0.0000000000000000000, 0.0000000000000000000, 2.952755999999999936 ) ) ;
#230 = EDGE_LOOP ( 'NONE', ( #244, #214, #6, #248 ) ) ;
#231 = UNCERTAINTY_MEASURE_WITH_UNIT (LENGTH_MEASURE( 1.000000000000000082E-05 ), #12, 'distance_accuracy_value', 'NONE');
#232 = DIRECTION ( 'NONE',  ( 0.0000000000000000000, 0.0000000000000000000, 1.000000000000000000 ) ) ;
#233 = PRESENTATION_STYLE_ASSIGNMENT (( #35 ) ) ;
#234 =( NAMED_UNIT ( * ) PLANE_ANGLE_UNIT ( ) SI_UNIT ( $, .RADIAN. ) );
#235 = LINE ( 'NONE', #239, #150 ) ;
#236 = PRESENTATION_LAYER_ASSIGNMENT (  '', '', ( #58 ) ) ;
#237 = ADVANCED_FACE ( 'NONE', ( #245 ), #80, .T. ) ;
#238 = CARTESIAN_POINT ( 'NONE',  ( 0.0000000000000000000, 0.0000000000000000000, 1.692912999999999890 ) ) ;
#239 = CARTESIAN_POINT ( 'NONE',  ( -0.03936999999999993977, 0.0000000000000000000, 0.0000000000000000000 ) ) ;
#240 = VERTEX_POINT ( 'NONE', #268 ) ;
#241 = DIRECTION ( 'NONE',  ( 0.0000000000000000000, 1.000000000000000000, 0.0000000000000000000 ) ) ;
#242 = AXIS2_PLACEMENT_3D ( 'NONE', #291, #21, #153 ) ;
#243 = PRODUCT_DEFINITION_FORMATION_WITH_SPECIFIED_SOURCE ( 'ANY', '', #177, .NOT_KNOWN. ) ;
#244 = ORIENTED_EDGE ( 'NONE', *, *, #308, .F. ) ;
#245 = FACE_OUTER_BOUND ( 'NONE', #45, .T. ) ;
#246 = ORIENTED_EDGE ( 'NONE', *, *, #126, .T. ) ;
#247 = CARTESIAN_POINT ( 'NONE',  ( 0.0000000000000000000, 0.0000000000000000000, 0.05905500000000000332 ) ) ;
#248 = ORIENTED_EDGE ( 'NONE', *, *, #187, .T. ) ;
#249 = CARTESIAN_POINT ( 'NONE',  ( 0.1031099999999991745, 1.262733314600825725E-17, 2.952755999999999936 ) ) ;
#250 = AXIS2_PLACEMENT_3D ( 'NONE', #283, #289, #265 ) ;
#251 = VECTOR ( 'NONE', #33, 39.37007874015748854 ) ;
#252 = CARTESIAN_POINT ( 'NONE',  ( 0.0000000000000000000, 0.0000000000000000000, 1.822834149999997377 ) ) ;
#253 = PRESENTATION_STYLE_ASSIGNMENT (( #255 ) ) ;
#254 = CARTESIAN_POINT ( 'NONE',  ( -0.1031099999999991745, 0.0000000000000000000, 2.952755999999999936 ) ) ;
#255 = SURFACE_STYLE_USAGE ( .BOTH. , #140 ) ;
#256 = LINE ( 'NONE', #180, #314 ) ;
#257 = ADVANCED_FACE ( 'NONE', ( #227 ), #24, .T. ) ;
#258 = CARTESIAN_POINT ( 'NONE',  ( 0.03936999999999993977, 4.821434448243122321E-18, 0.0000000000000000000 ) ) ;
#259 =( LENGTH_UNIT ( ) NAMED_UNIT ( * ) SI_UNIT ( $, .METRE. ) );
#260 =( GEOMETRIC_REPRESENTATION_CONTEXT ( 3 ) GLOBAL_UNCERTAINTY_ASSIGNED_CONTEXT ( ( #281 ) ) GLOBAL_UNIT_ASSIGNED_CONTEXT ( ( #221, #299, #57 ) ) REPRESENTATION_CONTEXT ( 'NONE', 'WORKASPACE' ) );
#261 = CARTESIAN_POINT ( 'NONE',  ( -0.1181100000000000344, 0.0000000000000000000, 1.692912999999999890 ) ) ;
#262 = CARTESIAN_POINT ( 'NONE',  ( 0.1181100000000000344, 1.446430334472939084E-17, 1.692912999999999890 ) ) ;
#263 = DIRECTION ( 'NONE',  ( 1.000000000000000000, 0.0000000000000000000, 0.0000000000000000000 ) ) ;
#264 = ORIENTED_EDGE ( 'NONE', *, *, #309, .T. ) ;
#265 = DIRECTION ( 'NONE',  ( 1.000000000000000000, 0.0000000000000000000, 0.0000000000000000000 ) ) ;
#266 = VECTOR ( 'NONE', #277, 39.37007874015748143 ) ;
#267 = ORIENTED_EDGE ( 'NONE', *, *, #332, .F. ) ;
#268 = CARTESIAN_POINT ( 'NONE',  ( 0.0000000000000000000, 3.616075836182346941E-18, 8.537024980200822558E-18 ) ) ;
#269 = DIRECTION ( 'NONE',  ( 1.000000000000000000, 0.0000000000000000000, 0.0000000000000000000 ) ) ;
#270 = VERTEX_POINT ( 'NONE', #196 ) ;
#271 = ADVANCED_FACE ( 'NONE', ( #51 ), #2, .T. ) ;
#272 = CARTESIAN_POINT ( 'NONE',  ( 0.0000000000000000000, 0.0000000000000000000, 0.8267719999999999514 ) ) ;
#273 = CARTESIAN_POINT ( 'NONE',  ( -0.1031099999999991745, 0.0000000000000000000, 2.952755999999999936 ) ) ;
#274 = AXIS2_PLACEMENT_3D ( 'NONE', #132, #293, #202 ) ;
#275 = DIRECTION ( 'NONE',  ( 0.0000000000000000000, 0.0000000000000000000, 1.000000000000000000 ) ) ;
#276 = ORIENTED_EDGE ( 'NONE', *, *, #14, .T. ) ;
#277 = DIRECTION ( 'NONE',  ( -0.0000000000000000000, -0.0000000000000000000, -1.000000000000000000 ) ) ;
#278 = ORIENTED_EDGE ( 'NONE', *, *, #201, .T. ) ;
#279 = ORIENTED_EDGE ( 'NONE', *, *, #88, .F. ) ;
#280 = CIRCLE ( 'NONE', #209, 0.1031099999999991745 ) ;
#281 = UNCERTAINTY_MEASURE_WITH_UNIT (LENGTH_MEASURE( 1.000000000000000082E-05 ), #221, 'distance_accuracy_value', 'NONE');
#282 = VERTEX_POINT ( 'NONE', #5 ) ;
#283 = CARTESIAN_POINT ( 'NONE',  ( 0.0000000000000000000, 0.0000000000000000000, 2.952755999999999936 ) ) ;
#284 = AXIS2_PLACEMENT_3D ( 'NONE', #15, #331, #124 ) ;
#285 = AXIS2_PLACEMENT_3D ( 'NONE', #128, #102, #17 ) ;
#286 = ADVANCED_FACE ( 'NONE', ( #326 ), #323, .T. ) ;
#287 = DIRECTION ( 'NONE',  ( -0.0000000000000000000, -0.0000000000000000000, -1.000000000000000000 ) ) ;
#288 = ORIENTED_EDGE ( 'NONE', *, *, #97, .T. ) ;
#289 = DIRECTION ( 'NONE',  ( 0.0000000000000000000, 0.0000000000000000000, 1.000000000000000000 ) ) ;
#290 = ORIENTED_EDGE ( 'NONE', *, *, #187, .F. ) ;
#291 = CARTESIAN_POINT ( 'NONE',  ( 0.0000000000000000000, 0.0000000000000000000, 0.1030719981370833843 ) ) ;
#292 = ORIENTED_EDGE ( 'NONE', *, *, #308, .T. ) ;
#293 = DIRECTION ( 'NONE',  ( -0.0000000000000000000, -0.0000000000000000000, -1.000000000000000000 ) ) ;
#294 = DIRECTION ( 'NONE',  ( 0.0000000000000000000, 0.0000000000000000000, 1.000000000000000000 ) ) ;
#295 = EDGE_CURVE ( 'NONE', #319, #117, #168, .T. ) ;
#296 = ORIENTED_EDGE ( 'NONE', *, *, #88, .T. ) ;
#297 = DIRECTION ( 'NONE',  ( -1.000000000000000000, 0.0000000000000000000, 0.0000000000000000000 ) ) ;
#298 = VERTEX_POINT ( 'NONE', #86 ) ;
#299 =( NAMED_UNIT ( * ) PLANE_ANGLE_UNIT ( ) SI_UNIT ( $, .RADIAN. ) );
#300 = AXIS2_PLACEMENT_3D ( 'NONE', #39, #318, #212 ) ;
#301 = CARTESIAN_POINT ( 'NONE',  ( 0.0000000000000000000, 0.0000000000000000000, 2.952755999999999936 ) ) ;
#302 = EDGE_LOOP ( 'NONE', ( #108, #292, #288, #22 ) ) ;
#303 = ORIENTED_EDGE ( 'NONE', *, *, #25, .T. ) ;
#304 = FILL_AREA_STYLE_COLOUR ( '', #116 ) ;
#305 = DIRECTION ( 'NONE',  ( -0.0000000000000000000, -0.0000000000000000000, -1.000000000000000000 ) ) ;
#306 = AXIS2_PLACEMENT_3D ( 'NONE', #206, #287, #77 ) ;
#307 = CYLINDRICAL_SURFACE ( 'NONE', #43, 0.03936999999999993977 ) ;
#308 = EDGE_CURVE ( 'NONE', #298, #166, #325, .T. ) ;
#309 = EDGE_CURVE ( 'NONE', #319, #91, #316, .T. ) ;
#310 = APPLICATION_PROTOCOL_DEFINITION ( 'draft international standard', 'automotive_design', 1998, #217 ) ;
#311 = AXIS2_PLACEMENT_3D ( 'NONE', #272, #30, #112 ) ;
#312 = DIRECTION ( 'NONE',  ( 0.0000000000000000000, 0.0000000000000000000, -1.000000000000000000 ) ) ;
#313 = FACE_OUTER_BOUND ( 'NONE', #9, .T. ) ;
#314 = VECTOR ( 'NONE', #305, 39.37007874015748143 ) ;
#315 = DIRECTION ( 'NONE',  ( 1.000000000000000000, 0.0000000000000000000, 0.0000000000000000000 ) ) ;
#316 = CIRCLE ( 'NONE', #311, 0.03936999999999990507 ) ;
#317 = ORIENTED_EDGE ( 'NONE', *, *, #181, .T. ) ;
#318 = DIRECTION ( 'NONE',  ( 1.000000000000000000, 0.0000000000000000000, 0.0000000000000000000 ) ) ;
#319 = VERTEX_POINT ( 'NONE', #226 ) ;
#320 = AXIS2_PLACEMENT_3D ( 'NONE', #65, #176, #330 ) ;
#321 = PRESENTATION_LAYER_ASSIGNMENT (  '', '', ( #3 ) ) ;
#322 = ORIENTED_EDGE ( 'NONE', *, *, #64, .F. ) ;
#323 = CYLINDRICAL_SURFACE ( 'NONE', #74, 0.03936999999999993977 ) ;
#324 = SURFACE_STYLE_FILL_AREA ( #137 ) ;
#325 = LINE ( 'NONE', #199, #266 ) ;
#326 = FACE_OUTER_BOUND ( 'NONE', #53, .T. ) ;
#327 = ORIENTED_EDGE ( 'NONE', *, *, #201, .F. ) ;
#328 = CONICAL_SURFACE ( 'NONE', #342, 0.1299209999999997867, 0.09065978310229558246 ) ;
#329 = ORIENTED_EDGE ( 'NONE', *, *, #19, .F. ) ;
#330 = DIRECTION ( 'NONE',  ( -1.000000000000000000, 0.0000000000000000000, 0.0000000000000000000 ) ) ;
#331 = DIRECTION ( 'NONE',  ( -0.0000000000000000000, -0.0000000000000000000, -1.000000000000000000 ) ) ;
#332 = EDGE_CURVE ( 'NONE', #203, #240, #13, .T. ) ;
#333 =( GEOMETRIC_REPRESENTATION_CONTEXT ( 3 ) GLOBAL_UNCERTAINTY_ASSIGNED_CONTEXT ( ( #145 ) ) GLOBAL_UNIT_ASSIGNED_CONTEXT ( ( #66, #234, #334 ) ) REPRESENTATION_CONTEXT ( 'NONE', 'WORKASPACE' ) );
#334 =( NAMED_UNIT ( * ) SI_UNIT ( $, .STERADIAN. ) SOLID_ANGLE_UNIT ( ) );
#335 = VECTOR ( 'NONE', #139, 39.37007874015748143 ) ;
#336 = AXIS2_PLACEMENT_3D ( 'NONE', #4, #61, #225 ) ;
#337 = PRODUCT_RELATED_PRODUCT_CATEGORY ( 'part', '', ( #177 ) ) ;
#338 = FACE_OUTER_BOUND ( 'NONE', #302, .T. ) ;
#339 = DIRECTION ( 'NONE',  ( 0.0000000000000000000, 0.0000000000000000000, 1.000000000000000000 ) ) ;
#340 = CARTESIAN_POINT ( 'NONE',  ( -0.03936999999999998140, 0.0000000000000000000, 0.1030719981370833843 ) ) ;
#341 = CARTESIAN_POINT ( 'NONE',  ( 0.0000000000000000000, 0.03936999999999998140, 0.1030719981370833843 ) ) ;
#342 = AXIS2_PLACEMENT_3D ( 'NONE', #49, #232, #185 ) ;
#343 = ORIENTED_EDGE ( 'NONE', *, *, #72, .T. ) ;
#344 = DIRECTION ( 'NONE',  ( 0.0000000000000000000, 0.0000000000000000000, -1.000000000000000000 ) ) ;
#345 = ORIENTED_EDGE ( 'NONE', *, *, #40, .T. ) ;
ENDSEC;
END-ISO-10303-21;
