ISO-10303-21;
HEADER;
FILE_DESCRIPTION (( 'STEP AP214' ),
    '1' );
FILE_NAME ('82257.STEP',
    '2023-06-23T04:22:13',
    ( '' ),
    ( '' ),
    'SwSTEP 2.0',
    'SolidWorks 2023',
    '' );
FILE_SCHEMA (( 'AUTOMOTIVE_DESIGN' ));
ENDSEC;

DATA;
#1 = PRESENTATION_LAYER_ASSIGNMENT (  '', '', ( #128 ) ) ;
#2 = SURFACE_STYLE_USAGE ( .BOTH. , #140 ) ;
#3 = COLOUR_RGB ( '',1.000000000000000000, 0.000000000000000000, 0.000000000000000000 ) ;
#4 = APPLICATION_PROTOCOL_DEFINITION ( 'draft international standard', 'automotive_design', 1998, #213 ) ;
#5 =( LENGTH_UNIT ( ) NAMED_UNIT ( * ) SI_UNIT ( $, .METRE. ) );
#6 = CARTESIAN_POINT ( 'NONE',  ( 0.000000000000000000, 0.000000000000000000, -0.1562500000000000000 ) ) ;
#7 = MECHANICAL_DESIGN_GEOMETRIC_PRESENTATION_REPRESENTATION (  '', ( #169 ), #200 ) ;
#8 = EDGE_CURVE ( 'NONE', #152, #19, #84, .T. ) ;
#9 = EDGE_LOOP ( 'NONE', ( #141, #99 ) ) ;
#10 =( LENGTH_UNIT ( ) NAMED_UNIT ( * ) SI_UNIT ( $, .METRE. ) );
#11 = LENGTH_MEASURE_WITH_UNIT ( LENGTH_MEASURE( 0.02539999999999999897 ), #139 );
#12 = PRESENTATION_LAYER_ASSIGNMENT (  '', '', ( #266 ) ) ;
#13 = DIRECTION ( 'NONE',  ( -5.024191996501959347E-17, 1.000000000000000000, -0.000000000000000000 ) ) ;
#14 = EDGE_CURVE ( 'NONE', #18, #216, #95, .T. ) ;
#15 = CARTESIAN_POINT ( 'NONE',  ( 0.000000000000000000, 1.562500000000000000, 0.000000000000000000 ) ) ;
#16 = ORIENTED_EDGE ( 'NONE', *, *, #256, .F. ) ;
#17 = FILL_AREA_STYLE_COLOUR ( '', #172 ) ;
#18 = VERTEX_POINT ( 'NONE', #77 ) ;
#19 = VERTEX_POINT ( 'NONE', #246 ) ;
#20 = DIRECTION ( 'NONE',  ( 0.000000000000000000, 0.000000000000000000, -1.000000000000000000 ) ) ;
#21 = CARTESIAN_POINT ( 'NONE',  ( 0.000000000000000000, 0.000000000000000000, 0.000000000000000000 ) ) ;
#22 =( CONVERSION_BASED_UNIT ( 'INCH', #228 ) LENGTH_UNIT ( ) NAMED_UNIT ( #76 ) );
#23 = ORIENTED_EDGE ( 'NONE', *, *, #24, .F. ) ;
#24 = EDGE_CURVE ( 'NONE', #216, #208, #302, .T. ) ;
#25 = AXIS2_PLACEMENT_3D ( 'NONE', #219, #34, #193 ) ;
#26 = SURFACE_STYLE_FILL_AREA ( #47 ) ;
#27 = EDGE_LOOP ( 'NONE', ( #131, #258 ) ) ;
#28 = DIMENSIONAL_EXPONENTS ( 1.000000000000000000, 0.000000000000000000, 0.000000000000000000, 0.000000000000000000, 0.000000000000000000, 0.000000000000000000, 0.000000000000000000 ) ;
#29 =( CONVERSION_BASED_UNIT ( 'INCH', #206 ) LENGTH_UNIT ( ) NAMED_UNIT ( #307 ) );
#30 = SURFACE_STYLE_USAGE ( .BOTH. , #240 ) ;
#31 =( GEOMETRIC_REPRESENTATION_CONTEXT ( 3 ) GLOBAL_UNCERTAINTY_ASSIGNED_CONTEXT ( ( #71 ) ) GLOBAL_UNIT_ASSIGNED_CONTEXT ( ( #147, #301, #181 ) ) REPRESENTATION_CONTEXT ( 'NONE', 'WORKASPACE' ) );
#32 = ORIENTED_EDGE ( 'NONE', *, *, #197, .T. ) ;
#33 = LINE ( 'NONE', #223, #68 ) ;
#34 = DIRECTION ( 'NONE',  ( -5.024191996501959347E-17, 1.000000000000000000, -0.000000000000000000 ) ) ;
#35 = CIRCLE ( 'NONE', #75, 0.1562500000000000000 ) ;
#36 = DIRECTION ( 'NONE',  ( -0.000000000000000000, -1.000000000000000000, -0.000000000000000000 ) ) ;
#37 = ORIENTED_EDGE ( 'NONE', *, *, #197, .F. ) ;
#38 = SURFACE_STYLE_USAGE ( .BOTH. , #174 ) ;
#39 = DIRECTION ( 'NONE',  ( -1.000000000000000000, 0.000000000000000000, 0.000000000000000000 ) ) ;
#40 = DIRECTION ( 'NONE',  ( 5.024191996501958731E-17, -1.000000000000000000, 0.000000000000000000 ) ) ;
#41 = CARTESIAN_POINT ( 'NONE',  ( 0.000000000000000000, 0.000000000000000000, 0.000000000000000000 ) ) ;
#42 = AXIS2_PLACEMENT_3D ( 'NONE', #202, #137, #66 ) ;
#43 = DIRECTION ( 'NONE',  ( -5.024191996501958731E-17, 1.000000000000000000, -0.000000000000000000 ) ) ;
#44 = CARTESIAN_POINT ( 'NONE',  ( 0.000000000000000000, 1.562500000000000000, 0.000000000000000000 ) ) ;
#45 = SURFACE_STYLE_USAGE ( .BOTH. , #280 ) ;
#46 = DIRECTION ( 'NONE',  ( 0.000000000000000000, 0.000000000000000000, -1.000000000000000000 ) ) ;
#47 = FILL_AREA_STYLE ('',( #183 ) ) ;
#48 = CARTESIAN_POINT ( 'NONE',  ( 0.000000000000000000, 0.000000000000000000, 0.000000000000000000 ) ) ;
#49 = ADVANCED_FACE ( 'NONE', ( #271 ), #220, .T. ) ;
#50 = UNCERTAINTY_MEASURE_WITH_UNIT (LENGTH_MEASURE( 1.000000000000000082E-05 ), #29, 'distance_accuracy_value', 'NONE');
#51 = ORIENTED_EDGE ( 'NONE', *, *, #230, .T. ) ;
#52 = VECTOR ( 'NONE', #43, 39.37007874015748143 ) ;
#53 = FILL_AREA_STYLE ('',( #264 ) ) ;
#54 = APPLICATION_CONTEXT ( 'automotive_design' ) ;
#55 = FACE_OUTER_BOUND ( 'NONE', #250, .T. ) ;
#56 = CLOSED_SHELL ( 'NONE', ( #175, #262, #106, #161 ) ) ;
#57 = FILL_AREA_STYLE ('',( #63 ) ) ;
#58 = ORIENTED_EDGE ( 'NONE', *, *, #14, .T. ) ;
#59 = ADVANCED_FACE ( 'NONE', ( #275 ), #225, .T. ) ;
#60 = FILL_AREA_STYLE_COLOUR ( '', #108 ) ;
#61 = EDGE_LOOP ( 'NONE', ( #23, #180, #93, #226 ) ) ;
#62 = CARTESIAN_POINT ( 'NONE',  ( 1.913510623667739463E-17, 1.562500000000000000, 0.1562500000000000000 ) ) ;
#63 = FILL_AREA_STYLE_COLOUR ( '', #287 ) ;
#64 = CARTESIAN_POINT ( 'NONE',  ( 0.000000000000000000, 1.562500000000000000, 0.000000000000000000 ) ) ;
#65 = EDGE_CURVE ( 'NONE', #18, #198, #83, .T. ) ;
#66 = DIRECTION ( 'NONE',  ( 0.000000000000000000, 0.000000000000000000, -1.000000000000000000 ) ) ;
#67 = AXIS2_PLACEMENT_3D ( 'NONE', #44, #148, #72 ) ;
#68 = VECTOR ( 'NONE', #78, 39.37007874015748143 ) ;
#69 = EDGE_LOOP ( 'NONE', ( #58, #276, #221, #156 ) ) ;
#70 = FILL_AREA_STYLE ('',( #295 ) ) ;
#71 = UNCERTAINTY_MEASURE_WITH_UNIT (LENGTH_MEASURE( 1.000000000000000082E-05 ), #147, 'distance_accuracy_value', 'NONE');
#72 = DIRECTION ( 'NONE',  ( 0.000000000000000000, 0.000000000000000000, -1.000000000000000000 ) ) ;
#73 = VERTEX_POINT ( 'NONE', #234 ) ;
#74 =( NAMED_UNIT ( * ) PLANE_ANGLE_UNIT ( ) SI_UNIT ( $, .RADIAN. ) );
#75 = AXIS2_PLACEMENT_3D ( 'NONE', #203, #255, #20 ) ;
#76 = DIMENSIONAL_EXPONENTS ( 1.000000000000000000, 0.000000000000000000, 0.000000000000000000, 0.000000000000000000, 0.000000000000000000, 0.000000000000000000, 0.000000000000000000 ) ;
#77 = CARTESIAN_POINT ( 'NONE',  ( 0.000000000000000000, 1.562500000000000000, -0.1562500000000000000 ) ) ;
#78 = DIRECTION ( 'NONE',  ( -5.024191996501958731E-17, 1.000000000000000000, -0.000000000000000000 ) ) ;
#79 =( GEOMETRIC_REPRESENTATION_CONTEXT ( 3 ) GLOBAL_UNCERTAINTY_ASSIGNED_CONTEXT ( ( #215 ) ) GLOBAL_UNIT_ASSIGNED_CONTEXT ( ( #244, #89, #122 ) ) REPRESENTATION_CONTEXT ( 'NONE', 'WORKASPACE' ) );
#80 = PRESENTATION_STYLE_ASSIGNMENT (( #45 ) ) ;
#81 = AXIS2_PLACEMENT_3D ( 'NONE', #210, #164, #143 ) ;
#82 = DIRECTION ( 'NONE',  ( 1.000000000000000000, 0.000000000000000000, 0.000000000000000000 ) ) ;
#83 = LINE ( 'NONE', #6, #142 ) ;
#84 = CIRCLE ( 'NONE', #272, 0.1562500000000000000 ) ;
#85 = APPLICATION_PROTOCOL_DEFINITION ( 'draft international standard', 'automotive_design', 1998, #54 ) ;
#86 = FACE_OUTER_BOUND ( 'NONE', #229, .T. ) ;
#87 =( CONVERSION_BASED_UNIT ( 'INCH', #114 ) LENGTH_UNIT ( ) NAMED_UNIT ( #243 ) );
#88 = DIRECTION ( 'NONE',  ( 0.000000000000000000, 1.000000000000000000, 0.000000000000000000 ) ) ;
#89 =( NAMED_UNIT ( * ) PLANE_ANGLE_UNIT ( ) SI_UNIT ( $, .RADIAN. ) );
#90 = ORIENTED_EDGE ( 'NONE', *, *, #8, .F. ) ;
#91 = CYLINDRICAL_SURFACE ( 'NONE', #129, 0.1562500000000000833 ) ;
#92 = SURFACE_STYLE_USAGE ( .BOTH. , #121 ) ;
#93 = ORIENTED_EDGE ( 'NONE', *, *, #65, .T. ) ;
#94 = DIRECTION ( 'NONE',  ( 1.000000000000000000, 5.024191996501958731E-17, 0.000000000000000000 ) ) ;
#95 = CIRCLE ( 'NONE', #67, 0.1562500000000000000 ) ;
#96 = DIRECTION ( 'NONE',  ( -1.000000000000000000, 0.000000000000000000, 0.000000000000000000 ) ) ;
#97 = ADVANCED_FACE ( 'NONE', ( #86 ), #170, .T. ) ;
#98 = FACE_OUTER_BOUND ( 'NONE', #282, .T. ) ;
#99 = ORIENTED_EDGE ( 'NONE', *, *, #185, .T. ) ;
#100 = DIRECTION ( 'NONE',  ( -0.000000000000000000, -1.000000000000000000, -0.000000000000000000 ) ) ;
#101 = PRODUCT_CONTEXT ( 'NONE', #54, 'mechanical' ) ;
#102 =( NAMED_UNIT ( * ) PLANE_ANGLE_UNIT ( ) SI_UNIT ( $, .RADIAN. ) );
#103 = ORIENTED_EDGE ( 'NONE', *, *, #117, .F. ) ;
#104 =( NAMED_UNIT ( * ) SI_UNIT ( $, .STERADIAN. ) SOLID_ANGLE_UNIT ( ) );
#105 = CARTESIAN_POINT ( 'NONE',  ( 0.000000000000000000, 0.000000000000000000, 0.000000000000000000 ) ) ;
#106 = ADVANCED_FACE ( 'NONE', ( #55 ), #91, .T. ) ;
#107 =( NAMED_UNIT ( * ) PLANE_ANGLE_UNIT ( ) SI_UNIT ( $, .RADIAN. ) );
#108 = COLOUR_RGB ( '',1.000000000000000000, 0.000000000000000000, 0.000000000000000000 ) ;
#109 = AXIS2_PLACEMENT_3D ( 'NONE', #267, #88, #195 ) ;
#110 = PRESENTATION_STYLE_ASSIGNMENT (( #30 ) ) ;
#111 = AXIS2_PLACEMENT_3D ( 'NONE', #48, #259, #82 ) ;
#112 = EDGE_CURVE ( 'NONE', #73, #126, #281, .T. ) ;
#113 = UNCERTAINTY_MEASURE_WITH_UNIT (LENGTH_MEASURE( 1.000000000000000082E-05 ), #22, 'distance_accuracy_value', 'NONE');
#114 = LENGTH_MEASURE_WITH_UNIT ( LENGTH_MEASURE( 0.02539999999999999897 ), #118 );
#115 = MANIFOLD_SOLID_BREP ( 'Revolve - Cutting Edge', #232 ) ;
#116 = MANIFOLD_SOLID_BREP ( 'Revolve - Tool Body (Straight Shanked)', #56 ) ;
#117 = EDGE_CURVE ( 'NONE', #19, #126, #33, .T. ) ;
#118 =( LENGTH_UNIT ( ) NAMED_UNIT ( * ) SI_UNIT ( $, .METRE. ) );
#119 = STYLED_ITEM ( 'NONE', ( #155 ), #49 ) ;
#120 = PRESENTATION_LAYER_ASSIGNMENT (  '', '', ( #236 ) ) ;
#121 = SURFACE_SIDE_STYLE ('',( #150 ) ) ;
#122 =( NAMED_UNIT ( * ) SI_UNIT ( $, .STERADIAN. ) SOLID_ANGLE_UNIT ( ) );
#123 = ADVANCED_BREP_SHAPE_REPRESENTATION ( '82257', ( #115, #116, #111 ), #293 ) ;
#124 = PRESENTATION_STYLE_ASSIGNMENT (( #38 ) ) ;
#125 = SURFACE_STYLE_FILL_AREA ( #248 ) ;
#126 = VERTEX_POINT ( 'NONE', #274 ) ;
#127 = DIRECTION ( 'NONE',  ( -5.024191996501959347E-17, 1.000000000000000000, -0.000000000000000000 ) ) ;
#128 = STYLED_ITEM ( 'NONE', ( #289 ), #59 ) ;
#129 = AXIS2_PLACEMENT_3D ( 'NONE', #178, #13, #146 ) ;
#130 = PRODUCT_DEFINITION_FORMATION_WITH_SPECIFIED_SOURCE ( 'ANY', '', #209, .NOT_KNOWN. ) ;
#131 = ORIENTED_EDGE ( 'NONE', *, *, #256, .T. ) ;
#132 = CARTESIAN_POINT ( 'NONE',  ( 1.972070720133933243E-34, 1.562500000000000000, 0.000000000000000000 ) ) ;
#133 =( LENGTH_UNIT ( ) NAMED_UNIT ( * ) SI_UNIT ( $, .METRE. ) );
#134 = CARTESIAN_POINT ( 'NONE',  ( 0.1562499999999999445, 4.000000000000000000, 1.913510623667740080E-17 ) ) ;
#135 = DIRECTION ( 'NONE',  ( -5.024191996501958731E-17, 1.000000000000000000, 0.000000000000000000 ) ) ;
#136 = AXIS2_PLACEMENT_3D ( 'NONE', #251, #153, #309 ) ;
#137 = DIRECTION ( 'NONE',  ( -0.000000000000000000, -1.000000000000000000, -0.000000000000000000 ) ) ;
#138 = SHAPE_DEFINITION_REPRESENTATION ( #308, #123 ) ;
#139 =( LENGTH_UNIT ( ) NAMED_UNIT ( * ) SI_UNIT ( $, .METRE. ) );
#140 = SURFACE_SIDE_STYLE ('',( #125 ) ) ;
#141 = ORIENTED_EDGE ( 'NONE', *, *, #154, .T. ) ;
#142 = VECTOR ( 'NONE', #290, 39.37007874015748143 ) ;
#143 = DIRECTION ( 'NONE',  ( 0.000000000000000000, 0.000000000000000000, -1.000000000000000000 ) ) ;
#144 = SURFACE_STYLE_FILL_AREA ( #53 ) ;
#145 = PRESENTATION_LAYER_ASSIGNMENT (  '', '', ( #190 ) ) ;
#146 = DIRECTION ( 'NONE',  ( -1.000000000000000000, 0.000000000000000000, 0.000000000000000000 ) ) ;
#147 =( CONVERSION_BASED_UNIT ( 'INCH', #173 ) LENGTH_UNIT ( ) NAMED_UNIT ( #284 ) );
#148 = DIRECTION ( 'NONE',  ( -0.000000000000000000, -1.000000000000000000, -0.000000000000000000 ) ) ;
#149 = PRODUCT_DEFINITION ( 'UNKNOWN', '', #130, #268 ) ;
#150 = SURFACE_STYLE_FILL_AREA ( #57 ) ;
#151 = SURFACE_STYLE_FILL_AREA ( #265 ) ;
#152 = VERTEX_POINT ( 'NONE', #187 ) ;
#153 = DIRECTION ( 'NONE',  ( -5.024191996501959347E-17, 1.000000000000000000, -0.000000000000000000 ) ) ;
#154 = EDGE_CURVE ( 'NONE', #198, #208, #179, .T. ) ;
#155 = PRESENTATION_STYLE_ASSIGNMENT (( #92 ) ) ;
#156 = ORIENTED_EDGE ( 'NONE', *, *, #65, .F. ) ;
#157 = DIRECTION ( 'NONE',  ( -5.024191996501959347E-17, 1.000000000000000000, -0.000000000000000000 ) ) ;
#158 = ORIENTED_EDGE ( 'NONE', *, *, #112, .F. ) ;
#159 = FACE_OUTER_BOUND ( 'NONE', #27, .T. ) ;
#160 = ORIENTED_EDGE ( 'NONE', *, *, #230, .F. ) ;
#161 = ADVANCED_FACE ( 'NONE', ( #159 ), #205, .F. ) ;
#162 = PLANE ( 'NONE',  #207 ) ;
#163 = CIRCLE ( 'NONE', #136, 0.1562500000000001388 ) ;
#164 = DIRECTION ( 'NONE',  ( 0.000000000000000000, -1.000000000000000000, -0.000000000000000000 ) ) ;
#165 = DIRECTION ( 'NONE',  ( 0.000000000000000000, 0.000000000000000000, -1.000000000000000000 ) ) ;
#166 = PRODUCT_RELATED_PRODUCT_CATEGORY ( 'part', '', ( #209 ) ) ;
#167 = MECHANICAL_DESIGN_GEOMETRIC_PRESENTATION_REPRESENTATION (  '', ( #119 ), #177 ) ;
#168 = AXIS2_PLACEMENT_3D ( 'NONE', #233, #40, #94 ) ;
#169 = STYLED_ITEM ( 'NONE', ( #80 ), #300 ) ;
#170 = PLANE ( 'NONE',  #109 ) ;
#171 = MECHANICAL_DESIGN_GEOMETRIC_PRESENTATION_REPRESENTATION (  '', ( #128 ), #291 ) ;
#172 = COLOUR_RGB ( '',0.7921568627450980005, 0.8196078431372548767, 0.9333333333333333481 ) ;
#173 = LENGTH_MEASURE_WITH_UNIT ( LENGTH_MEASURE( 0.02539999999999999897 ), #10 );
#174 = SURFACE_SIDE_STYLE ('',( #151 ) ) ;
#175 = ADVANCED_FACE ( 'NONE', ( #98 ), #186, .T. ) ;
#176 = ORIENTED_EDGE ( 'NONE', *, *, #211, .F. ) ;
#177 =( GEOMETRIC_REPRESENTATION_CONTEXT ( 3 ) GLOBAL_UNCERTAINTY_ASSIGNED_CONTEXT ( ( #113 ) ) GLOBAL_UNIT_ASSIGNED_CONTEXT ( ( #22, #247, #196 ) ) REPRESENTATION_CONTEXT ( 'NONE', 'WORKASPACE' ) );
#178 = CARTESIAN_POINT ( 'NONE',  ( -1.224646799147352714E-16, 4.000000000000000000, 0.000000000000000000 ) ) ;
#179 = CIRCLE ( 'NONE', #184, 0.1562500000000000000 ) ;
#180 = ORIENTED_EDGE ( 'NONE', *, *, #211, .T. ) ;
#181 =( NAMED_UNIT ( * ) SI_UNIT ( $, .STERADIAN. ) SOLID_ANGLE_UNIT ( ) );
#182 = DIMENSIONAL_EXPONENTS ( 1.000000000000000000, 0.000000000000000000, 0.000000000000000000, 0.000000000000000000, 0.000000000000000000, 0.000000000000000000, 0.000000000000000000 ) ;
#183 = FILL_AREA_STYLE_COLOUR ( '', #257 ) ;
#184 = AXIS2_PLACEMENT_3D ( 'NONE', #21, #100, #46 ) ;
#185 = EDGE_CURVE ( 'NONE', #208, #198, #35, .T. ) ;
#186 = CYLINDRICAL_SURFACE ( 'NONE', #298, 0.1562500000000000833 ) ;
#187 = CARTESIAN_POINT ( 'NONE',  ( 0.1562500000000000000, 1.562500000000000000, 1.913510623667740388E-17 ) ) ;
#188 =( LENGTH_UNIT ( ) NAMED_UNIT ( * ) SI_UNIT ( $, .METRE. ) );
#189 = AXIS2_PLACEMENT_3D ( 'NONE', #41, #297, #222 ) ;
#190 = STYLED_ITEM ( 'NONE', ( #110 ), #97 ) ;
#191 = LENGTH_MEASURE_WITH_UNIT ( LENGTH_MEASURE( 0.02539999999999999897 ), #5 );
#192 =( GEOMETRIC_REPRESENTATION_CONTEXT ( 3 ) GLOBAL_UNCERTAINTY_ASSIGNED_CONTEXT ( ( #286 ) ) GLOBAL_UNIT_ASSIGNED_CONTEXT ( ( #87, #74, #269 ) ) REPRESENTATION_CONTEXT ( 'NONE', 'WORKASPACE' ) );
#193 = DIRECTION ( 'NONE',  ( -1.000000000000000000, 0.000000000000000000, 0.000000000000000000 ) ) ;
#194 = ORIENTED_EDGE ( 'NONE', *, *, #8, .T. ) ;
#195 = DIRECTION ( 'NONE',  ( 0.000000000000000000, -0.000000000000000000, 1.000000000000000000 ) ) ;
#196 =( NAMED_UNIT ( * ) SI_UNIT ( $, .STERADIAN. ) SOLID_ANGLE_UNIT ( ) );
#197 = EDGE_CURVE ( 'NONE', #152, #73, #254, .T. ) ;
#198 = VERTEX_POINT ( 'NONE', #277 ) ;
#199 = LENGTH_MEASURE_WITH_UNIT ( LENGTH_MEASURE( 0.02539999999999999897 ), #285 );
#200 =( GEOMETRIC_REPRESENTATION_CONTEXT ( 3 ) GLOBAL_UNCERTAINTY_ASSIGNED_CONTEXT ( ( #270 ) ) GLOBAL_UNIT_ASSIGNED_CONTEXT ( ( #299, #102, #263 ) ) REPRESENTATION_CONTEXT ( 'NONE', 'WORKASPACE' ) );
#201 = ORIENTED_EDGE ( 'NONE', *, *, #117, .T. ) ;
#202 = CARTESIAN_POINT ( 'NONE',  ( 0.000000000000000000, 1.562500000000000000, 0.000000000000000000 ) ) ;
#203 = CARTESIAN_POINT ( 'NONE',  ( 0.000000000000000000, 0.000000000000000000, 0.000000000000000000 ) ) ;
#204 = PRESENTATION_LAYER_ASSIGNMENT (  '', '', ( #169 ) ) ;
#205 = PLANE ( 'NONE',  #168 ) ;
#206 = LENGTH_MEASURE_WITH_UNIT ( LENGTH_MEASURE( 0.02539999999999999897 ), #188 );
#207 = AXIS2_PLACEMENT_3D ( 'NONE', #132, #135, #227 ) ;
#208 = VERTEX_POINT ( 'NONE', #278 ) ;
#209 = PRODUCT ( '82257', '82257', '', ( #101 ) ) ;
#210 = CARTESIAN_POINT ( 'NONE',  ( 0.000000000000000000, 0.000000000000000000, 0.000000000000000000 ) ) ;
#211 = EDGE_CURVE ( 'NONE', #216, #18, #218, .T. ) ;
#212 = DIMENSIONAL_EXPONENTS ( 1.000000000000000000, 0.000000000000000000, 0.000000000000000000, 0.000000000000000000, 0.000000000000000000, 0.000000000000000000, 0.000000000000000000 ) ;
#213 = APPLICATION_CONTEXT ( 'automotive_design' ) ;
#214 = MECHANICAL_DESIGN_GEOMETRIC_PRESENTATION_REPRESENTATION (  '', ( #190 ), #79 ) ;
#215 = UNCERTAINTY_MEASURE_WITH_UNIT (LENGTH_MEASURE( 1.000000000000000082E-05 ), #244, 'distance_accuracy_value', 'NONE');
#216 = VERTEX_POINT ( 'NONE', #62 ) ;
#217 = PRESENTATION_STYLE_ASSIGNMENT (( #294 ) ) ;
#218 = CIRCLE ( 'NONE', #42, 0.1562500000000000000 ) ;
#219 = CARTESIAN_POINT ( 'NONE',  ( -1.224646799147352714E-16, 4.000000000000000000, 0.000000000000000000 ) ) ;
#220 = CYLINDRICAL_SURFACE ( 'NONE', #189, 0.1562500000000000000 ) ;
#221 = ORIENTED_EDGE ( 'NONE', *, *, #154, .F. ) ;
#222 = DIRECTION ( 'NONE',  ( 0.000000000000000000, 0.000000000000000000, -1.000000000000000000 ) ) ;
#223 = CARTESIAN_POINT ( 'NONE',  ( -0.1562500000000002220, 4.000000000000000000, 0.000000000000000000 ) ) ;
#224 = AXIS2_PLACEMENT_3D ( 'NONE', #105, #235, #165 ) ;
#225 = PLANE ( 'NONE',  #81 ) ;
#226 = ORIENTED_EDGE ( 'NONE', *, *, #185, .F. ) ;
#227 = DIRECTION ( 'NONE',  ( -1.000000000000000000, -5.024191996501958731E-17, 0.000000000000000000 ) ) ;
#228 = LENGTH_MEASURE_WITH_UNIT ( LENGTH_MEASURE( 0.02539999999999999897 ), #133 );
#229 = EDGE_LOOP ( 'NONE', ( #296, #176 ) ) ;
#230 = EDGE_CURVE ( 'NONE', #19, #152, #273, .T. ) ;
#231 = CYLINDRICAL_SURFACE ( 'NONE', #224, 0.1562500000000000000 ) ;
#232 = CLOSED_SHELL ( 'NONE', ( #49, #97, #300, #59 ) ) ;
#233 = CARTESIAN_POINT ( 'NONE',  ( 0.1562500000000000000, 4.000000000000000000, 0.000000000000000000 ) ) ;
#234 = CARTESIAN_POINT ( 'NONE',  ( 0.1562500000000000000, 4.000000000000000000, 1.913510623667740388E-17 ) ) ;
#235 = DIRECTION ( 'NONE',  ( -0.000000000000000000, -1.000000000000000000, -0.000000000000000000 ) ) ;
#236 = STYLED_ITEM ( 'NONE', ( #217 ), #115 ) ;
#237 =( NAMED_UNIT ( * ) SI_UNIT ( $, .STERADIAN. ) SOLID_ANGLE_UNIT ( ) );
#238 =( NAMED_UNIT ( * ) PLANE_ANGLE_UNIT ( ) SI_UNIT ( $, .RADIAN. ) );
#239 = UNCERTAINTY_MEASURE_WITH_UNIT (LENGTH_MEASURE( 1.000000000000000082E-05 ), #260, 'distance_accuracy_value', 'NONE');
#240 = SURFACE_SIDE_STYLE ('',( #144 ) ) ;
#241 = EDGE_LOOP ( 'NONE', ( #160, #90 ) ) ;
#242 = SURFACE_SIDE_STYLE ('',( #245 ) ) ;
#243 = DIMENSIONAL_EXPONENTS ( 1.000000000000000000, 0.000000000000000000, 0.000000000000000000, 0.000000000000000000, 0.000000000000000000, 0.000000000000000000, 0.000000000000000000 ) ;
#244 =( CONVERSION_BASED_UNIT ( 'INCH', #11 ) LENGTH_UNIT ( ) NAMED_UNIT ( #212 ) );
#245 = SURFACE_STYLE_FILL_AREA ( #70 ) ;
#246 = CARTESIAN_POINT ( 'NONE',  ( -0.1562500000000000000, 1.562500000000000000, 0.000000000000000000 ) ) ;
#247 =( NAMED_UNIT ( * ) PLANE_ANGLE_UNIT ( ) SI_UNIT ( $, .RADIAN. ) );
#248 = FILL_AREA_STYLE ('',( #60 ) ) ;
#249 = FACE_OUTER_BOUND ( 'NONE', #241, .T. ) ;
#250 = EDGE_LOOP ( 'NONE', ( #37, #194, #201, #158 ) ) ;
#251 = CARTESIAN_POINT ( 'NONE',  ( -1.224646799147352714E-16, 4.000000000000000000, 0.000000000000000000 ) ) ;
#252 = DIRECTION ( 'NONE',  ( -5.024191996501959347E-17, 1.000000000000000000, -0.000000000000000000 ) ) ;
#253 = CARTESIAN_POINT ( 'NONE',  ( -1.224646799147352714E-16, 4.000000000000000000, 0.000000000000000000 ) ) ;
#254 = LINE ( 'NONE', #134, #52 ) ;
#255 = DIRECTION ( 'NONE',  ( -0.000000000000000000, -1.000000000000000000, -0.000000000000000000 ) ) ;
#256 = EDGE_CURVE ( 'NONE', #126, #73, #163, .T. ) ;
#257 = COLOUR_RGB ( '',1.000000000000000000, 0.000000000000000000, 0.000000000000000000 ) ;
#258 = ORIENTED_EDGE ( 'NONE', *, *, #112, .T. ) ;
#259 = DIRECTION ( 'NONE',  ( 0.000000000000000000, 0.000000000000000000, 1.000000000000000000 ) ) ;
#260 =( CONVERSION_BASED_UNIT ( 'INCH', #191 ) LENGTH_UNIT ( ) NAMED_UNIT ( #182 ) );
#261 = COLOUR_RGB ( '',0.7921568627450980005, 0.8196078431372548767, 0.9333333333333333481 ) ;
#262 = ADVANCED_FACE ( 'NONE', ( #249 ), #162, .F. ) ;
#263 =( NAMED_UNIT ( * ) SI_UNIT ( $, .STERADIAN. ) SOLID_ANGLE_UNIT ( ) );
#264 = FILL_AREA_STYLE_COLOUR ( '', #3 ) ;
#265 = FILL_AREA_STYLE ('',( #17 ) ) ;
#266 = STYLED_ITEM ( 'NONE', ( #124 ), #116 ) ;
#267 = CARTESIAN_POINT ( 'NONE',  ( 0.000000000000000000, 1.562500000000000000, 0.000000000000000000 ) ) ;
#268 = PRODUCT_DEFINITION_CONTEXT ( 'detailed design', #213, 'design' ) ;
#269 =( NAMED_UNIT ( * ) SI_UNIT ( $, .STERADIAN. ) SOLID_ANGLE_UNIT ( ) );
#270 = UNCERTAINTY_MEASURE_WITH_UNIT (LENGTH_MEASURE( 1.000000000000000082E-05 ), #299, 'distance_accuracy_value', 'NONE');
#271 = FACE_OUTER_BOUND ( 'NONE', #69, .T. ) ;
#272 = AXIS2_PLACEMENT_3D ( 'NONE', #15, #252, #39 ) ;
#273 = CIRCLE ( 'NONE', #306, 0.1562500000000000000 ) ;
#274 = CARTESIAN_POINT ( 'NONE',  ( -0.1562500000000002776, 4.000000000000000000, 0.000000000000000000 ) ) ;
#275 = FACE_OUTER_BOUND ( 'NONE', #9, .T. ) ;
#276 = ORIENTED_EDGE ( 'NONE', *, *, #24, .T. ) ;
#277 = CARTESIAN_POINT ( 'NONE',  ( 0.000000000000000000, 0.000000000000000000, -0.1562500000000000000 ) ) ;
#278 = CARTESIAN_POINT ( 'NONE',  ( 1.913510623667739463E-17, 0.000000000000000000, 0.1562500000000000000 ) ) ;
#279 = CARTESIAN_POINT ( 'NONE',  ( 1.913510623667739463E-17, 0.000000000000000000, 0.1562500000000000000 ) ) ;
#280 = SURFACE_SIDE_STYLE ('',( #26 ) ) ;
#281 = CIRCLE ( 'NONE', #25, 0.1562500000000001388 ) ;
#282 = EDGE_LOOP ( 'NONE', ( #51, #32, #16, #103 ) ) ;
#283 = DIRECTION ( 'NONE',  ( -1.000000000000000000, 0.000000000000000000, 0.000000000000000000 ) ) ;
#284 = DIMENSIONAL_EXPONENTS ( 1.000000000000000000, 0.000000000000000000, 0.000000000000000000, 0.000000000000000000, 0.000000000000000000, 0.000000000000000000, 0.000000000000000000 ) ;
#285 =( LENGTH_UNIT ( ) NAMED_UNIT ( * ) SI_UNIT ( $, .METRE. ) );
#286 = UNCERTAINTY_MEASURE_WITH_UNIT (LENGTH_MEASURE( 1.000000000000000082E-05 ), #87, 'distance_accuracy_value', 'NONE');
#287 = COLOUR_RGB ( '',1.000000000000000000, 0.000000000000000000, 0.000000000000000000 ) ;
#288 = MECHANICAL_DESIGN_GEOMETRIC_PRESENTATION_REPRESENTATION (  '', ( #236 ), #192 ) ;
#289 = PRESENTATION_STYLE_ASSIGNMENT (( #2 ) ) ;
#290 = DIRECTION ( 'NONE',  ( -0.000000000000000000, -1.000000000000000000, -0.000000000000000000 ) ) ;
#291 =( GEOMETRIC_REPRESENTATION_CONTEXT ( 3 ) GLOBAL_UNCERTAINTY_ASSIGNED_CONTEXT ( ( #239 ) ) GLOBAL_UNIT_ASSIGNED_CONTEXT ( ( #260, #107, #237 ) ) REPRESENTATION_CONTEXT ( 'NONE', 'WORKASPACE' ) );
#292 = VECTOR ( 'NONE', #36, 39.37007874015748143 ) ;
#293 =( GEOMETRIC_REPRESENTATION_CONTEXT ( 3 ) GLOBAL_UNCERTAINTY_ASSIGNED_CONTEXT ( ( #50 ) ) GLOBAL_UNIT_ASSIGNED_CONTEXT ( ( #29, #238, #104 ) ) REPRESENTATION_CONTEXT ( 'NONE', 'WORKASPACE' ) );
#294 = SURFACE_STYLE_USAGE ( .BOTH. , #242 ) ;
#295 = FILL_AREA_STYLE_COLOUR ( '', #261 ) ;
#296 = ORIENTED_EDGE ( 'NONE', *, *, #14, .F. ) ;
#297 = DIRECTION ( 'NONE',  ( -0.000000000000000000, -1.000000000000000000, -0.000000000000000000 ) ) ;
#298 = AXIS2_PLACEMENT_3D ( 'NONE', #253, #157, #283 ) ;
#299 =( CONVERSION_BASED_UNIT ( 'INCH', #199 ) LENGTH_UNIT ( ) NAMED_UNIT ( #28 ) );
#300 = ADVANCED_FACE ( 'NONE', ( #303 ), #231, .T. ) ;
#301 =( NAMED_UNIT ( * ) PLANE_ANGLE_UNIT ( ) SI_UNIT ( $, .RADIAN. ) );
#302 = LINE ( 'NONE', #279, #292 ) ;
#303 = FACE_OUTER_BOUND ( 'NONE', #61, .T. ) ;
#304 = PRESENTATION_LAYER_ASSIGNMENT (  '', '', ( #119 ) ) ;
#305 = MECHANICAL_DESIGN_GEOMETRIC_PRESENTATION_REPRESENTATION (  '', ( #266 ), #31 ) ;
#306 = AXIS2_PLACEMENT_3D ( 'NONE', #64, #127, #96 ) ;
#307 = DIMENSIONAL_EXPONENTS ( 1.000000000000000000, 0.000000000000000000, 0.000000000000000000, 0.000000000000000000, 0.000000000000000000, 0.000000000000000000, 0.000000000000000000 ) ;
#308 = PRODUCT_DEFINITION_SHAPE ( 'NONE', 'NONE',  #149 ) ;
#309 = DIRECTION ( 'NONE',  ( -1.000000000000000000, 0.000000000000000000, 0.000000000000000000 ) ) ;
ENDSEC;
END-ISO-10303-21;
