ISO-10303-21;
HEADER;
FILE_DESCRIPTION (( 'STEP AP214' ),
    '1' );
FILE_NAME ('59603.STEP',
    '2023-07-24T15:14:34',
    ( '' ),
    ( '' ),
    'SwSTEP 2.0',
    'SolidWorks 2023',
    '' );
FILE_SCHEMA (( 'AUTOMOTIVE_DESIGN' ));
ENDSEC;

DATA;
#1 = CIRCLE ( 'NONE', #49, 6.000000000000001776 ) ;
#2 = TOROIDAL_SURFACE ( 'NONE', #128, 5.000000000000000000, 0.9999999999999995559 ) ;
#3 = DIRECTION ( 'NONE',  ( -1.223542297630008506E-16, 1.000000000000000000, -0.000000000000000000 ) ) ;
#4 = CLOSED_SHELL ( 'NONE', ( #109, #117, #258, #315 ) ) ;
#5 = SURFACE_STYLE_FILL_AREA ( #291 ) ;
#6 = AXIS2_PLACEMENT_3D ( 'NONE', #337, #111, #229 ) ;
#7 =( NAMED_UNIT ( * ) SI_UNIT ( $, .STERADIAN. ) SOLID_ANGLE_UNIT ( ) );
#8 = EDGE_CURVE ( 'NONE', #244, #242, #1, .T. ) ;
#9 = DIRECTION ( 'NONE',  ( 1.000000000000000000, 0.000000000000000000, -1.224646799147353207E-16 ) ) ;
#10 = CYLINDRICAL_SURFACE ( 'NONE', #202, 5.999999999999998224 ) ;
#11 = ADVANCED_FACE ( 'NONE', ( #259 ), #25, .T. ) ;
#12 =( GEOMETRIC_REPRESENTATION_CONTEXT ( 3 ) GLOBAL_UNCERTAINTY_ASSIGNED_CONTEXT ( ( #366 ) ) GLOBAL_UNIT_ASSIGNED_CONTEXT ( ( #92, #170, #56 ) ) REPRESENTATION_CONTEXT ( 'NONE', 'WORKASPACE' ) );
#13 = PRESENTATION_LAYER_ASSIGNMENT (  '', '', ( #350 ) ) ;
#14 = SHAPE_DEFINITION_REPRESENTATION ( #340, #113 ) ;
#15 = EDGE_LOOP ( 'NONE', ( #59, #247, #163, #81 ) ) ;
#16 = DIRECTION ( 'NONE',  ( -1.223542297630008506E-16, 1.000000000000000000, -0.000000000000000000 ) ) ;
#17 = EDGE_CURVE ( 'NONE', #319, #218, #292, .T. ) ;
#18 = ORIENTED_EDGE ( 'NONE', *, *, #152, .F. ) ;
#19 =( GEOMETRIC_REPRESENTATION_CONTEXT ( 3 ) GLOBAL_UNCERTAINTY_ASSIGNED_CONTEXT ( ( #164 ) ) GLOBAL_UNIT_ASSIGNED_CONTEXT ( ( #260, #230, #263 ) ) REPRESENTATION_CONTEXT ( 'NONE', 'WORKASPACE' ) );
#20 = AXIS2_PLACEMENT_3D ( 'NONE', #362, #151, #297 ) ;
#21 = ORIENTED_EDGE ( 'NONE', *, *, #17, .F. ) ;
#22 = PRODUCT_DEFINITION_CONTEXT ( 'detailed design', #257, 'design' ) ;
#23 = LINE ( 'NONE', #365, #209 ) ;
#24 = CARTESIAN_POINT ( 'NONE',  ( 0.000000000000000000, 1.000000000000000000, 0.000000000000000000 ) ) ;
#25 = CYLINDRICAL_SURFACE ( 'NONE', #262, 6.000000000000000000 ) ;
#26 = PRESENTATION_STYLE_ASSIGNMENT (( #205 ) ) ;
#27 = EDGE_CURVE ( 'NONE', #84, #244, #189, .T. ) ;
#28 = DIRECTION ( 'NONE',  ( 0.000000000000000000, 0.000000000000000000, -1.000000000000000000 ) ) ;
#29 = DIRECTION ( 'NONE',  ( 0.000000000000000000, 0.000000000000000000, -1.000000000000000000 ) ) ;
#30 = FACE_OUTER_BOUND ( 'NONE', #69, .T. ) ;
#31 = STYLED_ITEM ( 'NONE', ( #255 ), #338 ) ;
#32 =( NAMED_UNIT ( * ) PLANE_ANGLE_UNIT ( ) SI_UNIT ( $, .RADIAN. ) );
#33 = CARTESIAN_POINT ( 'NONE',  ( 0.000000000000000000, 1.000000000000000000, -6.000000000000000000 ) ) ;
#34 = APPLICATION_PROTOCOL_DEFINITION ( 'draft international standard', 'automotive_design', 1998, #237 ) ;
#35 = EDGE_CURVE ( 'NONE', #46, #218, #23, .T. ) ;
#36 = PRESENTATION_LAYER_ASSIGNMENT (  '', '', ( #31 ) ) ;
#37 =( NAMED_UNIT ( * ) PLANE_ANGLE_UNIT ( ) SI_UNIT ( $, .RADIAN. ) );
#38 = CYLINDRICAL_SURFACE ( 'NONE', #246, 5.999999999999998224 ) ;
#39 = CARTESIAN_POINT ( 'NONE',  ( -6.000000000000003553, 75.00000000000000000, 0.000000000000000000 ) ) ;
#40 =( NAMED_UNIT ( * ) PLANE_ANGLE_UNIT ( ) SI_UNIT ( $, .RADIAN. ) );
#41 = DIRECTION ( 'NONE',  ( 0.000000000000000000, 0.000000000000000000, -1.000000000000000000 ) ) ;
#42 = FILL_AREA_STYLE_COLOUR ( '', #254 ) ;
#43 =( GEOMETRIC_REPRESENTATION_CONTEXT ( 3 ) GLOBAL_UNCERTAINTY_ASSIGNED_CONTEXT ( ( #169 ) ) GLOBAL_UNIT_ASSIGNED_CONTEXT ( ( #125, #40, #180 ) ) REPRESENTATION_CONTEXT ( 'NONE', 'WORKASPACE' ) );
#44 = LINE ( 'NONE', #144, #86 ) ;
#45 = CARTESIAN_POINT ( 'NONE',  ( -1.469576158976823750E-15, 75.00000000000000000, 0.000000000000000000 ) ) ;
#46 = VERTEX_POINT ( 'NONE', #272 ) ;
#47 = DIRECTION ( 'NONE',  ( 0.000000000000000000, 0.000000000000000000, 1.000000000000000000 ) ) ;
#48 = ORIENTED_EDGE ( 'NONE', *, *, #71, .T. ) ;
#49 = AXIS2_PLACEMENT_3D ( 'NONE', #317, #131, #256 ) ;
#50 = CARTESIAN_POINT ( 'NONE',  ( 0.000000000000000000, 0.000000000000000000, 0.000000000000000000 ) ) ;
#51 = ORIENTED_EDGE ( 'NONE', *, *, #143, .T. ) ;
#52 = VERTEX_POINT ( 'NONE', #356 ) ;
#53 = CARTESIAN_POINT ( 'NONE',  ( -1.469576158976823750E-15, 75.00000000000000000, 0.000000000000000000 ) ) ;
#54 = PLANE ( 'NONE',  #300 ) ;
#55 = ORIENTED_EDGE ( 'NONE', *, *, #143, .F. ) ;
#56 =( NAMED_UNIT ( * ) SI_UNIT ( $, .STERADIAN. ) SOLID_ANGLE_UNIT ( ) );
#57 = PRESENTATION_STYLE_ASSIGNMENT (( #304 ) ) ;
#58 = EDGE_LOOP ( 'NONE', ( #182, #121, #191, #55 ) ) ;
#59 = ORIENTED_EDGE ( 'NONE', *, *, #267, .T. ) ;
#60 = SURFACE_STYLE_FILL_AREA ( #320 ) ;
#61 = UNCERTAINTY_MEASURE_WITH_UNIT (LENGTH_MEASURE( 1.000000000000000082E-05 ), #305, 'distance_accuracy_value', 'NONE');
#62 = AXIS2_PLACEMENT_3D ( 'NONE', #238, #355, #90 ) ;
#63 = FILL_AREA_STYLE_COLOUR ( '', #342 ) ;
#64 = SURFACE_STYLE_FILL_AREA ( #324 ) ;
#65 =( NAMED_UNIT ( * ) SI_UNIT ( $, .STERADIAN. ) SOLID_ANGLE_UNIT ( ) );
#66 = DIRECTION ( 'NONE',  ( 0.000000000000000000, -1.000000000000000000, -0.000000000000000000 ) ) ;
#67 = DIRECTION ( 'NONE',  ( 0.000000000000000000, 0.000000000000000000, -1.000000000000000000 ) ) ;
#68 = AXIS2_PLACEMENT_3D ( 'NONE', #214, #76, #72 ) ;
#69 = EDGE_LOOP ( 'NONE', ( #301, #285, #102, #282 ) ) ;
#70 = ORIENTED_EDGE ( 'NONE', *, *, #152, .T. ) ;
#71 = EDGE_CURVE ( 'NONE', #101, #319, #44, .T. ) ;
#72 = DIRECTION ( 'NONE',  ( -1.000000000000000000, 0.000000000000000000, 0.000000000000000000 ) ) ;
#73 = ORIENTED_EDGE ( 'NONE', *, *, #275, .F. ) ;
#74 = EDGE_CURVE ( 'NONE', #84, #52, #75, .T. ) ;
#75 = CIRCLE ( 'NONE', #227, 5.999999999999996447 ) ;
#76 = DIRECTION ( 'NONE',  ( -1.223542297630008506E-16, 1.000000000000000000, -0.000000000000000000 ) ) ;
#77 = EDGE_LOOP ( 'NONE', ( #222, #369 ) ) ;
#78 =( LENGTH_UNIT ( ) NAMED_UNIT ( * ) SI_UNIT ( .MILLI., .METRE. ) );
#79 =( GEOMETRIC_REPRESENTATION_CONTEXT ( 3 ) GLOBAL_UNCERTAINTY_ASSIGNED_CONTEXT ( ( #312 ) ) GLOBAL_UNIT_ASSIGNED_CONTEXT ( ( #78, #225, #162 ) ) REPRESENTATION_CONTEXT ( 'NONE', 'WORKASPACE' ) );
#80 = DIRECTION ( 'NONE',  ( 0.000000000000000000, -0.000000000000000000, 1.000000000000000000 ) ) ;
#81 = ORIENTED_EDGE ( 'NONE', *, *, #268, .F. ) ;
#82 = FILL_AREA_STYLE_COLOUR ( '', #314 ) ;
#83 = SURFACE_SIDE_STYLE ('',( #64 ) ) ;
#84 = VERTEX_POINT ( 'NONE', #116 ) ;
#85 = CARTESIAN_POINT ( 'NONE',  ( 0.000000000000000000, 1.000000000000000000, 0.000000000000000000 ) ) ;
#86 = VECTOR ( 'NONE', #173, 1000.000000000000000 ) ;
#87 = TOROIDAL_SURFACE ( 'NONE', #308, 5.000000000000000000, 0.9999999999999995559 ) ;
#88 = FILL_AREA_STYLE_COLOUR ( '', #273 ) ;
#89 = MECHANICAL_DESIGN_GEOMETRIC_PRESENTATION_REPRESENTATION (  '', ( #31 ), #235 ) ;
#90 = DIRECTION ( 'NONE',  ( -1.000000000000000000, -1.223542297630008506E-16, 0.000000000000000000 ) ) ;
#91 = CARTESIAN_POINT ( 'NONE',  ( 4.770489558936219510E-15, 24.00000000000000000, 0.000000000000000000 ) ) ;
#92 =( LENGTH_UNIT ( ) NAMED_UNIT ( * ) SI_UNIT ( .MILLI., .METRE. ) );
#93 = PLANE ( 'NONE',  #95 ) ;
#94 = CARTESIAN_POINT ( 'NONE',  ( -6.000000000000000000, 75.00000000000000000, 0.000000000000000000 ) ) ;
#95 = AXIS2_PLACEMENT_3D ( 'NONE', #207, #66, #28 ) ;
#96 = PRODUCT_DEFINITION ( 'UNKNOWN', '', #184, #22 ) ;
#97 = CARTESIAN_POINT ( 'NONE',  ( 7.347880794884118750E-16, 1.000000000000000000, 6.000000000000000000 ) ) ;
#98 = MECHANICAL_DESIGN_GEOMETRIC_PRESENTATION_REPRESENTATION (  '', ( #137 ), #79 ) ;
#99 = CIRCLE ( 'NONE', #228, 6.000000000000000000 ) ;
#100 = SURFACE_SIDE_STYLE ('',( #330 ) ) ;
#101 = VERTEX_POINT ( 'NONE', #208 ) ;
#102 = ORIENTED_EDGE ( 'NONE', *, *, #268, .T. ) ;
#103 = CIRCLE ( 'NONE', #215, 5.000000000000000000 ) ;
#104 = FACE_OUTER_BOUND ( 'NONE', #153, .T. ) ;
#105 = CIRCLE ( 'NONE', #68, 5.999999999999996447 ) ;
#106 = ORIENTED_EDGE ( 'NONE', *, *, #35, .T. ) ;
#107 = ORIENTED_EDGE ( 'NONE', *, *, #74, .T. ) ;
#108 = CARTESIAN_POINT ( 'NONE',  ( 6.000000000000000000, 75.00000000000000000, 7.347880794884119736E-16 ) ) ;
#109 = ADVANCED_FACE ( 'NONE', ( #293 ), #38, .T. ) ;
#110 =( NAMED_UNIT ( * ) SI_UNIT ( $, .STERADIAN. ) SOLID_ANGLE_UNIT ( ) );
#111 = DIRECTION ( 'NONE',  ( -0.000000000000000000, -1.000000000000000000, -0.000000000000000000 ) ) ;
#112 = DIRECTION ( 'NONE',  ( 0.000000000000000000, 0.000000000000000000, -1.000000000000000000 ) ) ;
#113 = ADVANCED_BREP_SHAPE_REPRESENTATION ( '59603', ( #181, #179, #351 ), #43 ) ;
#114 = AXIS2_PLACEMENT_3D ( 'NONE', #147, #270, #67 ) ;
#115 = FILL_AREA_STYLE_COLOUR ( '', #160 ) ;
#116 = CARTESIAN_POINT ( 'NONE',  ( 6.000000000000000000, 24.00000000000000000, 7.347880794884120722E-16 ) ) ;
#117 = ADVANCED_FACE ( 'NONE', ( #213 ), #349, .F. ) ;
#118 = SURFACE_STYLE_FILL_AREA ( #344 ) ;
#119 = DIRECTION ( 'NONE',  ( -1.000000000000000000, 0.000000000000000000, 0.000000000000000000 ) ) ;
#120 = CIRCLE ( 'NONE', #154, 6.000000000000000000 ) ;
#121 = ORIENTED_EDGE ( 'NONE', *, *, #27, .T. ) ;
#122 = CARTESIAN_POINT ( 'NONE',  ( 6.000000000000000000, 75.00000000000000000, 0.000000000000000000 ) ) ;
#123 = EDGE_LOOP ( 'NONE', ( #18, #73 ) ) ;
#124 = STYLED_ITEM ( 'NONE', ( #26 ), #190 ) ;
#125 =( LENGTH_UNIT ( ) NAMED_UNIT ( * ) SI_UNIT ( .MILLI., .METRE. ) );
#126 = ORIENTED_EDGE ( 'NONE', *, *, #275, .T. ) ;
#127 =( NAMED_UNIT ( * ) SI_UNIT ( $, .STERADIAN. ) SOLID_ANGLE_UNIT ( ) );
#128 = AXIS2_PLACEMENT_3D ( 'NONE', #85, #199, #112 ) ;
#129 = PRESENTATION_LAYER_ASSIGNMENT (  '', '', ( #290 ) ) ;
#130 = COLOUR_RGB ( '',1.000000000000000000, 0.000000000000000000, 0.000000000000000000 ) ;
#131 = DIRECTION ( 'NONE',  ( -1.223542297630008506E-16, 1.000000000000000000, -0.000000000000000000 ) ) ;
#132 = SURFACE_STYLE_FILL_AREA ( #201 ) ;
#133 = EDGE_LOOP ( 'NONE', ( #185, #303 ) ) ;
#134 =( LENGTH_UNIT ( ) NAMED_UNIT ( * ) SI_UNIT ( .MILLI., .METRE. ) );
#135 = ORIENTED_EDGE ( 'NONE', *, *, #27, .F. ) ;
#136 = DIRECTION ( 'NONE',  ( 0.000000000000000000, 0.000000000000000000, -1.000000000000000000 ) ) ;
#137 = STYLED_ITEM ( 'NONE', ( #339 ), #11 ) ;
#138 = MECHANICAL_DESIGN_GEOMETRIC_PRESENTATION_REPRESENTATION (  '', ( #277 ), #364 ) ;
#139 = CIRCLE ( 'NONE', #168, 1.000000000000000000 ) ;
#140 = EDGE_CURVE ( 'NONE', #319, #194, #183, .T. ) ;
#141 = SURFACE_STYLE_FILL_AREA ( #321 ) ;
#142 = SURFACE_STYLE_USAGE ( .BOTH. , #357 ) ;
#143 = EDGE_CURVE ( 'NONE', #52, #242, #203, .T. ) ;
#144 = CARTESIAN_POINT ( 'NONE',  ( 7.347880794884119736E-16, 0.000000000000000000, 6.000000000000000000 ) ) ;
#145 = MECHANICAL_DESIGN_GEOMETRIC_PRESENTATION_REPRESENTATION (  '', ( #350 ), #274 ) ;
#146 = CARTESIAN_POINT ( 'NONE',  ( 6.735557395310443009E-16, 0.000000000000000000, 5.000000000000000000 ) ) ;
#147 = CARTESIAN_POINT ( 'NONE',  ( 0.000000000000000000, 0.000000000000000000, 0.000000000000000000 ) ) ;
#148 = CARTESIAN_POINT ( 'NONE',  ( -1.469576158976823750E-15, 75.00000000000000000, 0.000000000000000000 ) ) ;
#149 = FILL_AREA_STYLE ('',( #42 ) ) ;
#150 = PRESENTATION_LAYER_ASSIGNMENT (  '', '', ( #277 ) ) ;
#151 = DIRECTION ( 'NONE',  ( -0.000000000000000000, -1.000000000000000000, -0.000000000000000000 ) ) ;
#152 = EDGE_CURVE ( 'NONE', #46, #101, #120, .T. ) ;
#153 = EDGE_LOOP ( 'NONE', ( #313, #157 ) ) ;
#154 = AXIS2_PLACEMENT_3D ( 'NONE', #165, #322, #136 ) ;
#155 = DIRECTION ( 'NONE',  ( 0.000000000000000000, 0.000000000000000000, -1.000000000000000000 ) ) ;
#156 = ORIENTED_EDGE ( 'NONE', *, *, #35, .F. ) ;
#157 = ORIENTED_EDGE ( 'NONE', *, *, #8, .T. ) ;
#158 = EDGE_CURVE ( 'NONE', #194, #361, #103, .T. ) ;
#159 = CLOSED_SHELL ( 'NONE', ( #281, #190, #245, #193, #11, #338 ) ) ;
#160 = COLOUR_RGB ( '',0.7921568627450980005, 0.8196078431372548767, 0.9333333333333333481 ) ;
#161 = DIRECTION ( 'NONE',  ( -1.000000000000000000, 0.000000000000000000, 0.000000000000000000 ) ) ;
#162 =( NAMED_UNIT ( * ) SI_UNIT ( $, .STERADIAN. ) SOLID_ANGLE_UNIT ( ) );
#163 = ORIENTED_EDGE ( 'NONE', *, *, #172, .F. ) ;
#164 = UNCERTAINTY_MEASURE_WITH_UNIT (LENGTH_MEASURE( 1.000000000000000082E-05 ), #260, 'distance_accuracy_value', 'NONE');
#165 = CARTESIAN_POINT ( 'NONE',  ( 0.000000000000000000, 24.00000000000000000, 0.000000000000000000 ) ) ;
#166 = FILL_AREA_STYLE_COLOUR ( '', #187 ) ;
#167 = SURFACE_SIDE_STYLE ('',( #345 ) ) ;
#168 = AXIS2_PLACEMENT_3D ( 'NONE', #333, #250, #47 ) ;
#169 = UNCERTAINTY_MEASURE_WITH_UNIT (LENGTH_MEASURE( 1.000000000000000082E-05 ), #125, 'distance_accuracy_value', 'NONE');
#170 =( NAMED_UNIT ( * ) PLANE_ANGLE_UNIT ( ) SI_UNIT ( $, .RADIAN. ) );
#171 =( LENGTH_UNIT ( ) NAMED_UNIT ( * ) SI_UNIT ( .MILLI., .METRE. ) );
#172 = EDGE_CURVE ( 'NONE', #361, #194, #299, .T. ) ;
#173 = DIRECTION ( 'NONE',  ( -0.000000000000000000, -1.000000000000000000, -0.000000000000000000 ) ) ;
#174 = PRESENTATION_LAYER_ASSIGNMENT (  '', '', ( #124 ) ) ;
#175 = MECHANICAL_DESIGN_GEOMETRIC_PRESENTATION_REPRESENTATION (  '', ( #290 ), #278 ) ;
#176 = FACE_OUTER_BOUND ( 'NONE', #77, .T. ) ;
#177 = CARTESIAN_POINT ( 'NONE',  ( 0.000000000000000000, 0.000000000000000000, 0.000000000000000000 ) ) ;
#178 = CARTESIAN_POINT ( 'NONE',  ( 0.000000000000000000, 0.000000000000000000, -5.000000000000000000 ) ) ;
#179 = MANIFOLD_SOLID_BREP ( 'Revolve - Tool Body (Straight Shanked)', #4 ) ;
#180 =( NAMED_UNIT ( * ) SI_UNIT ( $, .STERADIAN. ) SOLID_ANGLE_UNIT ( ) );
#181 = MANIFOLD_SOLID_BREP ( 'Revolve - Cutting Edge', #159 ) ;
#182 = ORIENTED_EDGE ( 'NONE', *, *, #325, .T. ) ;
#183 = CIRCLE ( 'NONE', #286, 1.000000000000000000 ) ;
#184 = PRODUCT_DEFINITION_FORMATION_WITH_SPECIFIED_SOURCE ( 'ANY', '', #328, .NOT_KNOWN. ) ;
#185 = ORIENTED_EDGE ( 'NONE', *, *, #325, .F. ) ;
#186 = ORIENTED_EDGE ( 'NONE', *, *, #71, .F. ) ;
#187 = COLOUR_RGB ( '',1.000000000000000000, 0.000000000000000000, 0.000000000000000000 ) ;
#188 = CYLINDRICAL_SURFACE ( 'NONE', #329, 6.000000000000000000 ) ;
#189 = LINE ( 'NONE', #310, #327 ) ;
#190 = ADVANCED_FACE ( 'NONE', ( #343 ), #2, .T. ) ;
#191 = ORIENTED_EDGE ( 'NONE', *, *, #211, .F. ) ;
#192 = PRESENTATION_STYLE_ASSIGNMENT (( #142 ) ) ;
#193 = ADVANCED_FACE ( 'NONE', ( #30 ), #87, .T. ) ;
#194 = VERTEX_POINT ( 'NONE', #146 ) ;
#195 =( LENGTH_UNIT ( ) NAMED_UNIT ( * ) SI_UNIT ( .MILLI., .METRE. ) );
#196 = DIRECTION ( 'NONE',  ( -0.000000000000000000, -1.000000000000000000, -0.000000000000000000 ) ) ;
#197 = ORIENTED_EDGE ( 'NONE', *, *, #8, .F. ) ;
#198 = UNCERTAINTY_MEASURE_WITH_UNIT (LENGTH_MEASURE( 1.000000000000000082E-05 ), #134, 'distance_accuracy_value', 'NONE');
#199 = DIRECTION ( 'NONE',  ( -0.000000000000000000, -1.000000000000000000, -0.000000000000000000 ) ) ;
#200 = DIRECTION ( 'NONE',  ( -1.224646799147352468E-16, 0.000000000000000000, -1.000000000000000000 ) ) ;
#201 = FILL_AREA_STYLE ('',( #166 ) ) ;
#202 = AXIS2_PLACEMENT_3D ( 'NONE', #45, #16, #283 ) ;
#203 = LINE ( 'NONE', #94, #253 ) ;
#204 = DIRECTION ( 'NONE',  ( -1.223542297630008506E-16, 1.000000000000000000, -0.000000000000000000 ) ) ;
#205 = SURFACE_STYLE_USAGE ( .BOTH. , #288 ) ;
#206 = DIRECTION ( 'NONE',  ( 0.000000000000000000, 0.000000000000000000, 1.000000000000000000 ) ) ;
#207 = CARTESIAN_POINT ( 'NONE',  ( 0.000000000000000000, 0.000000000000000000, 0.000000000000000000 ) ) ;
#208 = CARTESIAN_POINT ( 'NONE',  ( 7.347880794884119736E-16, 24.00000000000000000, 6.000000000000000000 ) ) ;
#209 = VECTOR ( 'NONE', #294, 1000.000000000000000 ) ;
#210 = DIRECTION ( 'NONE',  ( 0.000000000000000000, 0.000000000000000000, -1.000000000000000000 ) ) ;
#211 = EDGE_CURVE ( 'NONE', #242, #244, #358, .T. ) ;
#212 = DIRECTION ( 'NONE',  ( 1.000000000000000000, 0.000000000000000000, 0.000000000000000000 ) ) ;
#213 = FACE_OUTER_BOUND ( 'NONE', #133, .T. ) ;
#214 = CARTESIAN_POINT ( 'NONE',  ( 4.770489558936219510E-15, 24.00000000000000000, 0.000000000000000000 ) ) ;
#215 = AXIS2_PLACEMENT_3D ( 'NONE', #177, #296, #41 ) ;
#216 = AXIS2_PLACEMENT_3D ( 'NONE', #122, #334, #359 ) ;
#217 = DIRECTION ( 'NONE',  ( -0.000000000000000000, -1.000000000000000000, -0.000000000000000000 ) ) ;
#218 = VERTEX_POINT ( 'NONE', #33 ) ;
#219 = DIRECTION ( 'NONE',  ( -0.000000000000000000, -1.000000000000000000, -0.000000000000000000 ) ) ;
#220 = PRODUCT_RELATED_PRODUCT_CATEGORY ( 'part', '', ( #328 ) ) ;
#221 =( NAMED_UNIT ( * ) PLANE_ANGLE_UNIT ( ) SI_UNIT ( $, .RADIAN. ) );
#222 = ORIENTED_EDGE ( 'NONE', *, *, #172, .T. ) ;
#223 = SURFACE_STYLE_USAGE ( .BOTH. , #167 ) ;
#224 = SURFACE_STYLE_USAGE ( .BOTH. , #368 ) ;
#225 =( NAMED_UNIT ( * ) PLANE_ANGLE_UNIT ( ) SI_UNIT ( $, .RADIAN. ) );
#226 = PRESENTATION_STYLE_ASSIGNMENT (( #352 ) ) ;
#227 = AXIS2_PLACEMENT_3D ( 'NONE', #91, #204, #119 ) ;
#228 = AXIS2_PLACEMENT_3D ( 'NONE', #249, #217, #243 ) ;
#229 = DIRECTION ( 'NONE',  ( 0.000000000000000000, 0.000000000000000000, -1.000000000000000000 ) ) ;
#230 =( NAMED_UNIT ( * ) PLANE_ANGLE_UNIT ( ) SI_UNIT ( $, .RADIAN. ) );
#231 = CARTESIAN_POINT ( 'NONE',  ( 0.000000000000000000, 24.00000000000000000, 0.000000000000000000 ) ) ;
#232 = SURFACE_STYLE_USAGE ( .BOTH. , #264 ) ;
#233 = DIRECTION ( 'NONE',  ( 0.000000000000000000, 1.000000000000000000, 0.000000000000000000 ) ) ;
#234 = MECHANICAL_DESIGN_GEOMETRIC_PRESENTATION_REPRESENTATION (  '', ( #323 ), #331 ) ;
#235 =( GEOMETRIC_REPRESENTATION_CONTEXT ( 3 ) GLOBAL_UNCERTAINTY_ASSIGNED_CONTEXT ( ( #248 ) ) GLOBAL_UNIT_ASSIGNED_CONTEXT ( ( #307, #37, #7 ) ) REPRESENTATION_CONTEXT ( 'NONE', 'WORKASPACE' ) );
#236 =( NAMED_UNIT ( * ) PLANE_ANGLE_UNIT ( ) SI_UNIT ( $, .RADIAN. ) );
#237 = APPLICATION_CONTEXT ( 'automotive_design' ) ;
#238 = CARTESIAN_POINT ( 'NONE',  ( 4.770489558936219510E-15, 24.00000000000000000, 0.000000000000000000 ) ) ;
#239 = PRODUCT_CONTEXT ( 'NONE', #237, 'mechanical' ) ;
#240 = DIRECTION ( 'NONE',  ( -1.000000000000000000, 0.000000000000000000, 0.000000000000000000 ) ) ;
#241 = AXIS2_PLACEMENT_3D ( 'NONE', #53, #370, #161 ) ;
#242 = VERTEX_POINT ( 'NONE', #39 ) ;
#243 = DIRECTION ( 'NONE',  ( 0.000000000000000000, 0.000000000000000000, -1.000000000000000000 ) ) ;
#244 = VERTEX_POINT ( 'NONE', #108 ) ;
#245 = ADVANCED_FACE ( 'NONE', ( #176 ), #93, .T. ) ;
#246 = AXIS2_PLACEMENT_3D ( 'NONE', #148, #271, #240 ) ;
#247 = ORIENTED_EDGE ( 'NONE', *, *, #140, .T. ) ;
#248 = UNCERTAINTY_MEASURE_WITH_UNIT (LENGTH_MEASURE( 1.000000000000000082E-05 ), #307, 'distance_accuracy_value', 'NONE');
#249 = CARTESIAN_POINT ( 'NONE',  ( 0.000000000000000000, 1.000000000000000000, 0.000000000000000000 ) ) ;
#250 = DIRECTION ( 'NONE',  ( -1.000000000000000000, 0.000000000000000000, 0.000000000000000000 ) ) ;
#251 = DIRECTION ( 'NONE',  ( -0.000000000000000000, -1.000000000000000000, -0.000000000000000000 ) ) ;
#252 = EDGE_LOOP ( 'NONE', ( #70, #48, #341, #156 ) ) ;
#253 = VECTOR ( 'NONE', #3, 1000.000000000000000 ) ;
#254 = COLOUR_RGB ( '',1.000000000000000000, 0.000000000000000000, 0.000000000000000000 ) ;
#255 = PRESENTATION_STYLE_ASSIGNMENT (( #224 ) ) ;
#256 = DIRECTION ( 'NONE',  ( -1.000000000000000000, 0.000000000000000000, 0.000000000000000000 ) ) ;
#257 = APPLICATION_CONTEXT ( 'automotive_design' ) ;
#258 = ADVANCED_FACE ( 'NONE', ( #269 ), #10, .T. ) ;
#259 = FACE_OUTER_BOUND ( 'NONE', #335, .T. ) ;
#260 =( LENGTH_UNIT ( ) NAMED_UNIT ( * ) SI_UNIT ( .MILLI., .METRE. ) );
#261 = FILL_AREA_STYLE_COLOUR ( '', #306 ) ;
#262 = AXIS2_PLACEMENT_3D ( 'NONE', #363, #219, #29 ) ;
#263 =( NAMED_UNIT ( * ) SI_UNIT ( $, .STERADIAN. ) SOLID_ANGLE_UNIT ( ) );
#264 = SURFACE_SIDE_STYLE ('',( #5 ) ) ;
#265 =( NAMED_UNIT ( * ) PLANE_ANGLE_UNIT ( ) SI_UNIT ( $, .RADIAN. ) );
#266 = MECHANICAL_DESIGN_GEOMETRIC_PRESENTATION_REPRESENTATION (  '', ( #348 ), #12 ) ;
#267 = EDGE_CURVE ( 'NONE', #218, #319, #99, .T. ) ;
#268 = EDGE_CURVE ( 'NONE', #218, #361, #139, .T. ) ;
#269 = FACE_OUTER_BOUND ( 'NONE', #311, .T. ) ;
#270 = DIRECTION ( 'NONE',  ( -0.000000000000000000, -1.000000000000000000, -0.000000000000000000 ) ) ;
#271 = DIRECTION ( 'NONE',  ( -1.223542297630008506E-16, 1.000000000000000000, -0.000000000000000000 ) ) ;
#272 = CARTESIAN_POINT ( 'NONE',  ( 0.000000000000000000, 24.00000000000000000, -6.000000000000000000 ) ) ;
#273 = COLOUR_RGB ( '',1.000000000000000000, 0.000000000000000000, 0.000000000000000000 ) ;
#274 =( GEOMETRIC_REPRESENTATION_CONTEXT ( 3 ) GLOBAL_UNCERTAINTY_ASSIGNED_CONTEXT ( ( #61 ) ) GLOBAL_UNIT_ASSIGNED_CONTEXT ( ( #305, #221, #127 ) ) REPRESENTATION_CONTEXT ( 'NONE', 'WORKASPACE' ) );
#275 = EDGE_CURVE ( 'NONE', #101, #46, #309, .T. ) ;
#276 = FACE_OUTER_BOUND ( 'NONE', #252, .T. ) ;
#277 = STYLED_ITEM ( 'NONE', ( #287 ), #193 ) ;
#278 =( GEOMETRIC_REPRESENTATION_CONTEXT ( 3 ) GLOBAL_UNCERTAINTY_ASSIGNED_CONTEXT ( ( #302 ) ) GLOBAL_UNIT_ASSIGNED_CONTEXT ( ( #171, #265, #353 ) ) REPRESENTATION_CONTEXT ( 'NONE', 'WORKASPACE' ) );
#279 = UNCERTAINTY_MEASURE_WITH_UNIT (LENGTH_MEASURE( 1.000000000000000082E-05 ), #195, 'distance_accuracy_value', 'NONE');
#280 = PLANE ( 'NONE',  #216 ) ;
#281 = ADVANCED_FACE ( 'NONE', ( #276 ), #188, .T. ) ;
#282 = ORIENTED_EDGE ( 'NONE', *, *, #158, .F. ) ;
#283 = DIRECTION ( 'NONE',  ( -1.000000000000000000, 0.000000000000000000, 0.000000000000000000 ) ) ;
#284 = DIRECTION ( 'NONE',  ( -1.223542297630008506E-16, 1.000000000000000000, -0.000000000000000000 ) ) ;
#285 = ORIENTED_EDGE ( 'NONE', *, *, #17, .T. ) ;
#286 = AXIS2_PLACEMENT_3D ( 'NONE', #326, #9, #200 ) ;
#287 = PRESENTATION_STYLE_ASSIGNMENT (( #316 ) ) ;
#288 = SURFACE_SIDE_STYLE ('',( #141 ) ) ;
#289 = PRESENTATION_LAYER_ASSIGNMENT (  '', '', ( #137 ) ) ;
#290 = STYLED_ITEM ( 'NONE', ( #192 ), #245 ) ;
#291 = FILL_AREA_STYLE ('',( #63 ) ) ;
#292 = CIRCLE ( 'NONE', #6, 6.000000000000000000 ) ;
#293 = FACE_OUTER_BOUND ( 'NONE', #58, .T. ) ;
#294 = DIRECTION ( 'NONE',  ( -0.000000000000000000, -1.000000000000000000, -0.000000000000000000 ) ) ;
#295 = FILL_AREA_STYLE_COLOUR ( '', #130 ) ;
#296 = DIRECTION ( 'NONE',  ( -0.000000000000000000, -1.000000000000000000, -0.000000000000000000 ) ) ;
#297 = DIRECTION ( 'NONE',  ( 0.000000000000000000, 0.000000000000000000, -1.000000000000000000 ) ) ;
#298 = PRESENTATION_LAYER_ASSIGNMENT (  '', '', ( #348 ) ) ;
#299 = CIRCLE ( 'NONE', #114, 5.000000000000000000 ) ;
#300 = AXIS2_PLACEMENT_3D ( 'NONE', #231, #233, #80 ) ;
#301 = ORIENTED_EDGE ( 'NONE', *, *, #140, .F. ) ;
#302 = UNCERTAINTY_MEASURE_WITH_UNIT (LENGTH_MEASURE( 1.000000000000000082E-05 ), #171, 'distance_accuracy_value', 'NONE');
#303 = ORIENTED_EDGE ( 'NONE', *, *, #74, .F. ) ;
#304 = SURFACE_STYLE_USAGE ( .BOTH. , #100 ) ;
#305 =( LENGTH_UNIT ( ) NAMED_UNIT ( * ) SI_UNIT ( .MILLI., .METRE. ) );
#306 = COLOUR_RGB ( '',1.000000000000000000, 0.000000000000000000, 0.000000000000000000 ) ;
#307 =( LENGTH_UNIT ( ) NAMED_UNIT ( * ) SI_UNIT ( .MILLI., .METRE. ) );
#308 = AXIS2_PLACEMENT_3D ( 'NONE', #24, #196, #210 ) ;
#309 = CIRCLE ( 'NONE', #20, 6.000000000000000000 ) ;
#310 = CARTESIAN_POINT ( 'NONE',  ( 5.999999999999996447, 75.00000000000000000, 7.347880794884117764E-16 ) ) ;
#311 = EDGE_LOOP ( 'NONE', ( #135, #107, #51, #197 ) ) ;
#312 = UNCERTAINTY_MEASURE_WITH_UNIT (LENGTH_MEASURE( 1.000000000000000082E-05 ), #78, 'distance_accuracy_value', 'NONE');
#313 = ORIENTED_EDGE ( 'NONE', *, *, #211, .T. ) ;
#314 = COLOUR_RGB ( '',1.000000000000000000, 0.000000000000000000, 0.000000000000000000 ) ;
#315 = ADVANCED_FACE ( 'NONE', ( #104 ), #280, .F. ) ;
#316 = SURFACE_STYLE_USAGE ( .BOTH. , #83 ) ;
#317 = CARTESIAN_POINT ( 'NONE',  ( -1.469576158976823750E-15, 75.00000000000000000, 0.000000000000000000 ) ) ;
#318 = SURFACE_SIDE_STYLE ('',( #60 ) ) ;
#319 = VERTEX_POINT ( 'NONE', #97 ) ;
#320 = FILL_AREA_STYLE ('',( #115 ) ) ;
#321 = FILL_AREA_STYLE ('',( #82 ) ) ;
#322 = DIRECTION ( 'NONE',  ( -0.000000000000000000, -1.000000000000000000, -0.000000000000000000 ) ) ;
#323 = STYLED_ITEM ( 'NONE', ( #346 ), #179 ) ;
#324 = FILL_AREA_STYLE ('',( #88 ) ) ;
#325 = EDGE_CURVE ( 'NONE', #52, #84, #105, .T. ) ;
#326 = CARTESIAN_POINT ( 'NONE',  ( 6.123233995736766282E-16, 1.000000000000000000, 5.000000000000000000 ) ) ;
#327 = VECTOR ( 'NONE', #284, 1000.000000000000000 ) ;
#328 = PRODUCT ( '59603', '59603', '', ( #239 ) ) ;
#329 = AXIS2_PLACEMENT_3D ( 'NONE', #50, #251, #155 ) ;
#330 = SURFACE_STYLE_FILL_AREA ( #149 ) ;
#331 =( GEOMETRIC_REPRESENTATION_CONTEXT ( 3 ) GLOBAL_UNCERTAINTY_ASSIGNED_CONTEXT ( ( #279 ) ) GLOBAL_UNIT_ASSIGNED_CONTEXT ( ( #195, #32, #110 ) ) REPRESENTATION_CONTEXT ( 'NONE', 'WORKASPACE' ) );
#332 = FACE_OUTER_BOUND ( 'NONE', #123, .T. ) ;
#333 = CARTESIAN_POINT ( 'NONE',  ( 0.000000000000000000, 1.000000000000000000, -5.000000000000000000 ) ) ;
#334 = DIRECTION ( 'NONE',  ( 1.223542297630008506E-16, -1.000000000000000000, 0.000000000000000000 ) ) ;
#335 = EDGE_LOOP ( 'NONE', ( #186, #126, #106, #21 ) ) ;
#336 = PRESENTATION_LAYER_ASSIGNMENT (  '', '', ( #323 ) ) ;
#337 = CARTESIAN_POINT ( 'NONE',  ( 0.000000000000000000, 1.000000000000000000, 0.000000000000000000 ) ) ;
#338 = ADVANCED_FACE ( 'NONE', ( #332 ), #54, .T. ) ;
#339 = PRESENTATION_STYLE_ASSIGNMENT (( #223 ) ) ;
#340 = PRODUCT_DEFINITION_SHAPE ( 'NONE', 'NONE',  #96 ) ;
#341 = ORIENTED_EDGE ( 'NONE', *, *, #267, .F. ) ;
#342 = COLOUR_RGB ( '',0.7921568627450980005, 0.8196078431372548767, 0.9333333333333333481 ) ;
#343 = FACE_OUTER_BOUND ( 'NONE', #15, .T. ) ;
#344 = FILL_AREA_STYLE ('',( #295 ) ) ;
#345 = SURFACE_STYLE_FILL_AREA ( #367 ) ;
#346 = PRESENTATION_STYLE_ASSIGNMENT (( #232 ) ) ;
#347 = APPLICATION_PROTOCOL_DEFINITION ( 'draft international standard', 'automotive_design', 1998, #257 ) ;
#348 = STYLED_ITEM ( 'NONE', ( #226 ), #181 ) ;
#349 = PLANE ( 'NONE',  #62 ) ;
#350 = STYLED_ITEM ( 'NONE', ( #57 ), #281 ) ;
#351 = AXIS2_PLACEMENT_3D ( 'NONE', #354, #206, #212 ) ;
#352 = SURFACE_STYLE_USAGE ( .BOTH. , #318 ) ;
#353 =( NAMED_UNIT ( * ) SI_UNIT ( $, .STERADIAN. ) SOLID_ANGLE_UNIT ( ) );
#354 = CARTESIAN_POINT ( 'NONE',  ( 0.000000000000000000, 0.000000000000000000, 0.000000000000000000 ) ) ;
#355 = DIRECTION ( 'NONE',  ( -1.223542297630008506E-16, 1.000000000000000000, 0.000000000000000000 ) ) ;
#356 = CARTESIAN_POINT ( 'NONE',  ( -5.999999999999991118, 24.00000000000000000, 0.000000000000000000 ) ) ;
#357 = SURFACE_SIDE_STYLE ('',( #118 ) ) ;
#358 = CIRCLE ( 'NONE', #241, 6.000000000000001776 ) ;
#359 = DIRECTION ( 'NONE',  ( 1.000000000000000000, 1.223542297630008506E-16, 0.000000000000000000 ) ) ;
#360 = MECHANICAL_DESIGN_GEOMETRIC_PRESENTATION_REPRESENTATION (  '', ( #124 ), #19 ) ;
#361 = VERTEX_POINT ( 'NONE', #178 ) ;
#362 = CARTESIAN_POINT ( 'NONE',  ( 0.000000000000000000, 24.00000000000000000, 0.000000000000000000 ) ) ;
#363 = CARTESIAN_POINT ( 'NONE',  ( 0.000000000000000000, 0.000000000000000000, 0.000000000000000000 ) ) ;
#364 =( GEOMETRIC_REPRESENTATION_CONTEXT ( 3 ) GLOBAL_UNCERTAINTY_ASSIGNED_CONTEXT ( ( #198 ) ) GLOBAL_UNIT_ASSIGNED_CONTEXT ( ( #134, #236, #65 ) ) REPRESENTATION_CONTEXT ( 'NONE', 'WORKASPACE' ) );
#365 = CARTESIAN_POINT ( 'NONE',  ( 0.000000000000000000, 0.000000000000000000, -6.000000000000000000 ) ) ;
#366 = UNCERTAINTY_MEASURE_WITH_UNIT (LENGTH_MEASURE( 1.000000000000000082E-05 ), #92, 'distance_accuracy_value', 'NONE');
#367 = FILL_AREA_STYLE ('',( #261 ) ) ;
#368 = SURFACE_SIDE_STYLE ('',( #132 ) ) ;
#369 = ORIENTED_EDGE ( 'NONE', *, *, #158, .T. ) ;
#370 = DIRECTION ( 'NONE',  ( -1.223542297630008506E-16, 1.000000000000000000, -0.000000000000000000 ) ) ;
ENDSEC;
END-ISO-10303-21;
