ISO-10303-21;
HEADER;
FILE_DESCRIPTION (( 'STEP AP214' ),
    '1' );
FILE_NAME ('30062.STEP',
    '2023-06-22T17:53:04',
    ( '' ),
    ( '' ),
    'SwSTEP 2.0',
    'SolidWorks 2023',
    '' );
FILE_SCHEMA (( 'AUTOMOTIVE_DESIGN' ));
ENDSEC;

DATA;
#1 = ORIENTED_EDGE ( 'NONE', *, *, #166, .F. ) ;
#2 = SURFACE_STYLE_USAGE ( .BOTH. , #36 ) ;
#3 = PRESENTATION_LAYER_ASSIGNMENT (  '', '', ( #73 ) ) ;
#4 = ORIENTED_EDGE ( 'NONE', *, *, #105, .F. ) ;
#5 = CARTESIAN_POINT ( 'NONE',  ( 0.000000000000000000, 0.000000000000000000, 0.000000000000000000 ) ) ;
#6 = DIRECTION ( 'NONE',  ( -0.000000000000000000, -1.000000000000000000, -0.000000000000000000 ) ) ;
#7 = EDGE_CURVE ( 'NONE', #54, #334, #11, .T. ) ;
#8 = CYLINDRICAL_SURFACE ( 'NONE', #13, 0.07809999999999997500 ) ;
#9 = SURFACE_STYLE_USAGE ( .BOTH. , #292 ) ;
#10 =( LENGTH_UNIT ( ) NAMED_UNIT ( * ) SI_UNIT ( $, .METRE. ) );
#11 = CIRCLE ( 'NONE', #55, 0.09375000000000001388 ) ;
#12 = DIRECTION ( 'NONE',  ( -2.968840725205704707E-17, 1.000000000000000000, -0.000000000000000000 ) ) ;
#13 = AXIS2_PLACEMENT_3D ( 'NONE', #306, #6, #34 ) ;
#14 = EDGE_CURVE ( 'NONE', #160, #334, #93, .T. ) ;
#15 =( CONVERSION_BASED_UNIT ( 'INCH', #324 ) LENGTH_UNIT ( ) NAMED_UNIT ( #347 ) );
#16 = DIRECTION ( 'NONE',  ( -2.968840725205704707E-17, 1.000000000000000000, -0.000000000000000000 ) ) ;
#17 =( GEOMETRIC_REPRESENTATION_CONTEXT ( 3 ) GLOBAL_UNCERTAINTY_ASSIGNED_CONTEXT ( ( #288 ) ) GLOBAL_UNIT_ASSIGNED_CONTEXT ( ( #181, #295, #217 ) ) REPRESENTATION_CONTEXT ( 'NONE', 'WORKASPACE' ) );
#18 = CARTESIAN_POINT ( 'NONE',  ( -0.07809999999999997500, 0.4374999999999998890, 0.000000000000000000 ) ) ;
#19 = STYLED_ITEM ( 'NONE', ( #344 ), #28 ) ;
#20 = UNCERTAINTY_MEASURE_WITH_UNIT (LENGTH_MEASURE( 1.000000000000000082E-05 ), #165, 'distance_accuracy_value', 'NONE');
#21 = FILL_AREA_STYLE_COLOUR ( '', #289 ) ;
#22 = CARTESIAN_POINT ( 'NONE',  ( 0.000000000000000000, 0.000000000000000000, 0.000000000000000000 ) ) ;
#23 = LENGTH_MEASURE_WITH_UNIT ( LENGTH_MEASURE( 0.02539999999999999897 ), #263 );
#24 = ADVANCED_FACE ( 'NONE', ( #117 ), #264, .T. ) ;
#25 = SHAPE_DEFINITION_REPRESENTATION ( #186, #189 ) ;
#26 = MECHANICAL_DESIGN_GEOMETRIC_PRESENTATION_REPRESENTATION (  '', ( #19 ), #101 ) ;
#27 =( LENGTH_UNIT ( ) NAMED_UNIT ( * ) SI_UNIT ( $, .METRE. ) );
#28 = ADVANCED_FACE ( 'NONE', ( #282 ), #8, .T. ) ;
#29 = EDGE_LOOP ( 'NONE', ( #270, #60, #131, #286 ) ) ;
#30 = PRODUCT ( '30062', '30062', '', ( #48 ) ) ;
#31 = EDGE_LOOP ( 'NONE', ( #195, #85 ) ) ;
#32 = CLOSED_SHELL ( 'NONE', ( #354, #176, #28, #241 ) ) ;
#33 = FILL_AREA_STYLE_COLOUR ( '', #141 ) ;
#34 = DIRECTION ( 'NONE',  ( 0.000000000000000000, 0.000000000000000000, -1.000000000000000000 ) ) ;
#35 = ORIENTED_EDGE ( 'NONE', *, *, #75, .F. ) ;
#36 = SURFACE_SIDE_STYLE ('',( #167 ) ) ;
#37 = AXIS2_PLACEMENT_3D ( 'NONE', #247, #229, #199 ) ;
#38 =( NAMED_UNIT ( * ) SI_UNIT ( $, .STERADIAN. ) SOLID_ANGLE_UNIT ( ) );
#39 = DIRECTION ( 'NONE',  ( -2.968840725205704707E-17, 1.000000000000000000, -0.000000000000000000 ) ) ;
#40 = SURFACE_SIDE_STYLE ('',( #235 ) ) ;
#41 = CARTESIAN_POINT ( 'NONE',  ( 9.564491501340828324E-18, 0.000000000000000000, 0.07810000000000000275 ) ) ;
#42 = VECTOR ( 'NONE', #284, 39.37007874015748143 ) ;
#43 = CARTESIAN_POINT ( 'NONE',  ( -0.07809999999999997500, 0.4374999999999998890, 0.000000000000000000 ) ) ;
#44 = DIMENSIONAL_EXPONENTS ( 1.000000000000000000, 0.000000000000000000, 0.000000000000000000, 0.000000000000000000, 0.000000000000000000, 0.000000000000000000, 0.000000000000000000 ) ;
#45 = PRESENTATION_STYLE_ASSIGNMENT (( #293 ) ) ;
#46 = CARTESIAN_POINT ( 'NONE',  ( 7.582401355855259480E-33, 0.4374999999999998890, 0.000000000000000000 ) ) ;
#47 = FACE_OUTER_BOUND ( 'NONE', #191, .T. ) ;
#48 = PRODUCT_CONTEXT ( 'NONE', #52, 'mechanical' ) ;
#49 = CARTESIAN_POINT ( 'NONE',  ( 0.000000000000000000, 0.000000000000000000, 0.000000000000000000 ) ) ;
#50 = EDGE_CURVE ( 'NONE', #198, #160, #76, .T. ) ;
#51 = ORIENTED_EDGE ( 'NONE', *, *, #269, .T. ) ;
#52 = APPLICATION_CONTEXT ( 'automotive_design' ) ;
#53 = CARTESIAN_POINT ( 'NONE',  ( 0.07809999999999997500, 0.4374999999999998890, 1.052277762167362731E-17 ) ) ;
#54 = VERTEX_POINT ( 'NONE', #133 ) ;
#55 = AXIS2_PLACEMENT_3D ( 'NONE', #317, #12, #200 ) ;
#56 = PRESENTATION_LAYER_ASSIGNMENT (  '', '', ( #234 ) ) ;
#57 = ORIENTED_EDGE ( 'NONE', *, *, #326, .T. ) ;
#58 =( NAMED_UNIT ( * ) SI_UNIT ( $, .STERADIAN. ) SOLID_ANGLE_UNIT ( ) );
#59 =( LENGTH_UNIT ( ) NAMED_UNIT ( * ) SI_UNIT ( $, .METRE. ) );
#60 = ORIENTED_EDGE ( 'NONE', *, *, #50, .T. ) ;
#61 = LENGTH_MEASURE_WITH_UNIT ( LENGTH_MEASURE( 0.02539999999999999897 ), #59 );
#62 = ADVANCED_FACE ( 'NONE', ( #304 ), #132, .T. ) ;
#63 = DIMENSIONAL_EXPONENTS ( 1.000000000000000000, 0.000000000000000000, 0.000000000000000000, 0.000000000000000000, 0.000000000000000000, 0.000000000000000000, 0.000000000000000000 ) ;
#64 = DIRECTION ( 'NONE',  ( -1.000000000000000000, 0.000000000000000000, 0.000000000000000000 ) ) ;
#65 = AXIS2_PLACEMENT_3D ( 'NONE', #222, #255, #279 ) ;
#66 = FILL_AREA_STYLE_COLOUR ( '', #158 ) ;
#67 =( NAMED_UNIT ( * ) PLANE_ANGLE_UNIT ( ) SI_UNIT ( $, .RADIAN. ) );
#68 = CARTESIAN_POINT ( 'NONE',  ( 0.000000000000000000, 0.000000000000000000, -0.07809999999999997500 ) ) ;
#69 = ORIENTED_EDGE ( 'NONE', *, *, #210, .T. ) ;
#70 =( LENGTH_UNIT ( ) NAMED_UNIT ( * ) SI_UNIT ( $, .METRE. ) );
#71 = DIRECTION ( 'NONE',  ( -2.968840725205704707E-17, 1.000000000000000000, -0.000000000000000000 ) ) ;
#72 = LENGTH_MEASURE_WITH_UNIT ( LENGTH_MEASURE( 0.02539999999999999897 ), #70 );
#73 = STYLED_ITEM ( 'NONE', ( #346 ), #207 ) ;
#74 = SURFACE_STYLE_FILL_AREA ( #325 ) ;
#75 = EDGE_CURVE ( 'NONE', #160, #198, #273, .T. ) ;
#76 = CIRCLE ( 'NONE', #260, 0.09374999999999994449 ) ;
#77 = CARTESIAN_POINT ( 'NONE',  ( 0.000000000000000000, 0.000000000000000000, 0.000000000000000000 ) ) ;
#78 =( GEOMETRIC_REPRESENTATION_CONTEXT ( 3 ) GLOBAL_UNCERTAINTY_ASSIGNED_CONTEXT ( ( #110 ) ) GLOBAL_UNIT_ASSIGNED_CONTEXT ( ( #329, #180, #58 ) ) REPRESENTATION_CONTEXT ( 'NONE', 'WORKASPACE' ) );
#79 = MECHANICAL_DESIGN_GEOMETRIC_PRESENTATION_REPRESENTATION (  '', ( #240 ), #315 ) ;
#80 = ORIENTED_EDGE ( 'NONE', *, *, #269, .F. ) ;
#81 = DIRECTION ( 'NONE',  ( 0.000000000000000000, 0.000000000000000000, -1.000000000000000000 ) ) ;
#82 = EDGE_LOOP ( 'NONE', ( #310, #337, #35, #303 ) ) ;
#83 = PRESENTATION_LAYER_ASSIGNMENT (  '', '', ( #96 ) ) ;
#84 = CARTESIAN_POINT ( 'NONE',  ( 0.000000000000000000, 0.000000000000000000, 0.000000000000000000 ) ) ;
#85 = ORIENTED_EDGE ( 'NONE', *, *, #326, .F. ) ;
#86 = FACE_OUTER_BOUND ( 'NONE', #127, .T. ) ;
#87 =( LENGTH_UNIT ( ) NAMED_UNIT ( * ) SI_UNIT ( $, .METRE. ) );
#88 = MANIFOLD_SOLID_BREP ( 'Revolve - Tool Body (Reduced Cut Diameter)', #157 ) ;
#89 = FILL_AREA_STYLE ('',( #327 ) ) ;
#90 = PRESENTATION_LAYER_ASSIGNMENT (  '', '', ( #240 ) ) ;
#91 = LENGTH_MEASURE_WITH_UNIT ( LENGTH_MEASURE( 0.02539999999999999897 ), #87 );
#92 = VECTOR ( 'NONE', #290, 39.37007874015748143 ) ;
#93 = LINE ( 'NONE', #314, #100 ) ;
#94 = CARTESIAN_POINT ( 'NONE',  ( 0.09374999999999990286, 2.500000000000000000, 1.148106374200643247E-17 ) ) ;
#95 = EDGE_CURVE ( 'NONE', #339, #305, #159, .T. ) ;
#96 = STYLED_ITEM ( 'NONE', ( #45 ), #354 ) ;
#97 = FILL_AREA_STYLE_COLOUR ( '', #237 ) ;
#98 = DIRECTION ( 'NONE',  ( 0.000000000000000000, 0.000000000000000000, -1.000000000000000000 ) ) ;
#99 = APPLICATION_PROTOCOL_DEFINITION ( 'draft international standard', 'automotive_design', 1998, #52 ) ;
#100 = VECTOR ( 'NONE', #203, 39.37007874015748143 ) ;
#101 =( GEOMETRIC_REPRESENTATION_CONTEXT ( 3 ) GLOBAL_UNCERTAINTY_ASSIGNED_CONTEXT ( ( #196 ) ) GLOBAL_UNIT_ASSIGNED_CONTEXT ( ( #116, #233, #38 ) ) REPRESENTATION_CONTEXT ( 'NONE', 'WORKASPACE' ) );
#102 = DIRECTION ( 'NONE',  ( 1.000000000000000000, 0.000000000000000000, 0.000000000000000000 ) ) ;
#103 = DIRECTION ( 'NONE',  ( 1.000000000000000000, 2.968840725205704707E-17, 0.000000000000000000 ) ) ;
#104 = CIRCLE ( 'NONE', #356, 0.07810000000000000275 ) ;
#105 = EDGE_CURVE ( 'NONE', #246, #305, #104, .T. ) ;
#106 = ORIENTED_EDGE ( 'NONE', *, *, #248, .T. ) ;
#107 = VERTEX_POINT ( 'NONE', #53 ) ;
#108 = CARTESIAN_POINT ( 'NONE',  ( -1.276542776722972501E-18, 0.4804980216144646987, 0.000000000000000000 ) ) ;
#109 = ORIENTED_EDGE ( 'NONE', *, *, #166, .T. ) ;
#110 = UNCERTAINTY_MEASURE_WITH_UNIT (LENGTH_MEASURE( 1.000000000000000082E-05 ), #329, 'distance_accuracy_value', 'NONE');
#111 = AXIS2_PLACEMENT_3D ( 'NONE', #296, #145, #103 ) ;
#112 = DIRECTION ( 'NONE',  ( -2.968840725205704707E-17, 1.000000000000000000, 0.000000000000000000 ) ) ;
#113 =( NAMED_UNIT ( * ) SI_UNIT ( $, .STERADIAN. ) SOLID_ANGLE_UNIT ( ) );
#114 = CARTESIAN_POINT ( 'NONE',  ( 0.000000000000000000, 0.4375000000000000000, 0.000000000000000000 ) ) ;
#115 = DIMENSIONAL_EXPONENTS ( 1.000000000000000000, 0.000000000000000000, 0.000000000000000000, 0.000000000000000000, 0.000000000000000000, 0.000000000000000000, 0.000000000000000000 ) ;
#116 =( CONVERSION_BASED_UNIT ( 'INCH', #91 ) LENGTH_UNIT ( ) NAMED_UNIT ( #115 ) );
#117 = FACE_OUTER_BOUND ( 'NONE', #268, .T. ) ;
#118 = DIRECTION ( 'NONE',  ( -1.000000000000000000, 0.000000000000000000, 0.000000000000000000 ) ) ;
#119 = PRODUCT_DEFINITION_FORMATION_WITH_SPECIFIED_SOURCE ( 'ANY', '', #30, .NOT_KNOWN. ) ;
#120 = SURFACE_STYLE_FILL_AREA ( #89 ) ;
#121 = DIRECTION ( 'NONE',  ( -0.000000000000000000, -1.000000000000000000, -0.000000000000000000 ) ) ;
#122 = SURFACE_SIDE_STYLE ('',( #214 ) ) ;
#123 = DIRECTION ( 'NONE',  ( 0.000000000000000000, 0.000000000000000000, -1.000000000000000000 ) ) ;
#124 = AXIS2_PLACEMENT_3D ( 'NONE', #46, #205, #138 ) ;
#125 = STYLED_ITEM ( 'NONE', ( #244 ), #241 ) ;
#126 = PLANE ( 'NONE',  #201 ) ;
#127 = EDGE_LOOP ( 'NONE', ( #1, #164 ) ) ;
#128 = AXIS2_PLACEMENT_3D ( 'NONE', #256, #137, #168 ) ;
#129 = CIRCLE ( 'NONE', #291, 0.07809999999999997500 ) ;
#130 = PRESENTATION_STYLE_ASSIGNMENT (( #249 ) ) ;
#131 = ORIENTED_EDGE ( 'NONE', *, *, #14, .T. ) ;
#132 = CYLINDRICAL_SURFACE ( 'NONE', #65, 0.09374999999999997224 ) ;
#133 = CARTESIAN_POINT ( 'NONE',  ( 0.09374999999999994449, 2.500000000000000000, 1.148106374200643401E-17 ) ) ;
#134 = MECHANICAL_DESIGN_GEOMETRIC_PRESENTATION_REPRESENTATION (  '', ( #234 ), #212 ) ;
#135 = FACE_OUTER_BOUND ( 'NONE', #31, .T. ) ;
#136 = DIRECTION ( 'NONE',  ( -1.000000000000000000, 0.000000000000000000, 0.000000000000000000 ) ) ;
#137 = DIRECTION ( 'NONE',  ( -2.968840725205704707E-17, 1.000000000000000000, -0.000000000000000000 ) ) ;
#138 = DIRECTION ( 'NONE',  ( -1.000000000000000000, 0.000000000000000000, 0.000000000000000000 ) ) ;
#139 = ORIENTED_EDGE ( 'NONE', *, *, #14, .F. ) ;
#140 =( NAMED_UNIT ( * ) PLANE_ANGLE_UNIT ( ) SI_UNIT ( $, .RADIAN. ) );
#141 = COLOUR_RGB ( '',1.000000000000000000, 0.000000000000000000, 0.000000000000000000 ) ;
#142 = PRODUCT_DEFINITION_CONTEXT ( 'detailed design', #332, 'design' ) ;
#143 =( CONVERSION_BASED_UNIT ( 'INCH', #72 ) LENGTH_UNIT ( ) NAMED_UNIT ( #231 ) );
#144 = UNCERTAINTY_MEASURE_WITH_UNIT (LENGTH_MEASURE( 1.000000000000000082E-05 ), #15, 'distance_accuracy_value', 'NONE');
#145 = DIRECTION ( 'NONE',  ( 2.968840725205704707E-17, -1.000000000000000000, 0.000000000000000000 ) ) ;
#146 = COLOUR_RGB ( '',0.7921568627450980005, 0.8196078431372548767, 0.9333333333333333481 ) ;
#147 = CARTESIAN_POINT ( 'NONE',  ( -6.123233995736766036E-17, 2.500000000000000000, 0.000000000000000000 ) ) ;
#148 = AXIS2_PLACEMENT_3D ( 'NONE', #170, #71, #118 ) ;
#149 = CIRCLE ( 'NONE', #124, 0.07809999999999997500 ) ;
#150 = APPLICATION_PROTOCOL_DEFINITION ( 'draft international standard', 'automotive_design', 1998, #332 ) ;
#151 = FILL_AREA_STYLE ('',( #21 ) ) ;
#152 = PLANE ( 'NONE',  #111 ) ;
#153 = ADVANCED_FACE ( 'NONE', ( #135 ), #126, .F. ) ;
#154 = ORIENTED_EDGE ( 'NONE', *, *, #210, .F. ) ;
#155 = FILL_AREA_STYLE_COLOUR ( '', #187 ) ;
#156 = EDGE_LOOP ( 'NONE', ( #69, #355 ) ) ;
#157 = CLOSED_SHELL ( 'NONE', ( #62, #300, #153, #24, #215, #230 ) ) ;
#158 = COLOUR_RGB ( '',1.000000000000000000, 0.000000000000000000, 0.000000000000000000 ) ;
#159 = LINE ( 'NONE', #335, #330 ) ;
#160 = VERTEX_POINT ( 'NONE', #194 ) ;
#161 = DIRECTION ( 'NONE',  ( 0.000000000000000000, -1.000000000000000000, -0.000000000000000000 ) ) ;
#162 = DIRECTION ( 'NONE',  ( -2.968840725205704707E-17, 1.000000000000000000, -0.000000000000000000 ) ) ;
#163 = CIRCLE ( 'NONE', #331, 0.07810000000000000275 ) ;
#164 = ORIENTED_EDGE ( 'NONE', *, *, #248, .F. ) ;
#165 =( CONVERSION_BASED_UNIT ( 'INCH', #61 ) LENGTH_UNIT ( ) NAMED_UNIT ( #63 ) );
#166 = EDGE_CURVE ( 'NONE', #221, #339, #267, .T. ) ;
#167 = SURFACE_STYLE_FILL_AREA ( #313 ) ;
#168 = DIRECTION ( 'NONE',  ( -1.000000000000000000, 0.000000000000000000, 0.000000000000000000 ) ) ;
#169 = DIRECTION ( 'NONE',  ( 0.000000000000000000, 1.000000000000000000, 0.000000000000000000 ) ) ;
#170 = CARTESIAN_POINT ( 'NONE',  ( 7.582401355855259480E-33, 0.4374999999999998890, 0.000000000000000000 ) ) ;
#171 = SURFACE_STYLE_USAGE ( .BOTH. , #40 ) ;
#172 =( NAMED_UNIT ( * ) SI_UNIT ( $, .STERADIAN. ) SOLID_ANGLE_UNIT ( ) );
#173 = DIMENSIONAL_EXPONENTS ( 1.000000000000000000, 0.000000000000000000, 0.000000000000000000, 0.000000000000000000, 0.000000000000000000, 0.000000000000000000, 0.000000000000000000 ) ;
#174 = LINE ( 'NONE', #68, #92 ) ;
#175 = MECHANICAL_DESIGN_GEOMETRIC_PRESENTATION_REPRESENTATION (  '', ( #73 ), #351 ) ;
#176 = ADVANCED_FACE ( 'NONE', ( #86 ), #190, .T. ) ;
#177 = SURFACE_SIDE_STYLE ('',( #74 ) ) ;
#178 = AXIS2_PLACEMENT_3D ( 'NONE', #77, #183, #102 ) ;
#179 = CARTESIAN_POINT ( 'NONE',  ( -6.123233995736766036E-17, 2.500000000000000000, 0.000000000000000000 ) ) ;
#180 =( NAMED_UNIT ( * ) PLANE_ANGLE_UNIT ( ) SI_UNIT ( $, .RADIAN. ) );
#181 =( CONVERSION_BASED_UNIT ( 'INCH', #245 ) LENGTH_UNIT ( ) NAMED_UNIT ( #44 ) );
#182 = CIRCLE ( 'NONE', #206, 0.09375000000000001388 ) ;
#183 = DIRECTION ( 'NONE',  ( 0.000000000000000000, 0.000000000000000000, 1.000000000000000000 ) ) ;
#184 =( NAMED_UNIT ( * ) SI_UNIT ( $, .STERADIAN. ) SOLID_ANGLE_UNIT ( ) );
#185 = EDGE_CURVE ( 'NONE', #107, #198, #319, .T. ) ;
#186 = PRODUCT_DEFINITION_SHAPE ( 'NONE', 'NONE',  #318 ) ;
#187 = COLOUR_RGB ( '',0.7921568627450980005, 0.8196078431372548767, 0.9333333333333333481 ) ;
#188 = ORIENTED_EDGE ( 'NONE', *, *, #254, .T. ) ;
#189 = ADVANCED_BREP_SHAPE_REPRESENTATION ( '30062', ( #207, #88, #178 ), #17 ) ;
#190 = PLANE ( 'NONE',  #308 ) ;
#191 = EDGE_LOOP ( 'NONE', ( #259, #220 ) ) ;
#192 = ORIENTED_EDGE ( 'NONE', *, *, #95, .F. ) ;
#193 = AXIS2_PLACEMENT_3D ( 'NONE', #147, #216, #243 ) ;
#194 = CARTESIAN_POINT ( 'NONE',  ( -0.09374999999999994449, 0.4804980216144646987, 0.000000000000000000 ) ) ;
#195 = ORIENTED_EDGE ( 'NONE', *, *, #272, .F. ) ;
#196 = UNCERTAINTY_MEASURE_WITH_UNIT (LENGTH_MEASURE( 1.000000000000000082E-05 ), #116, 'distance_accuracy_value', 'NONE');
#197 = DIRECTION ( 'NONE',  ( -2.968840725205704707E-17, 1.000000000000000000, -0.000000000000000000 ) ) ;
#198 = VERTEX_POINT ( 'NONE', #257 ) ;
#199 = DIRECTION ( 'NONE',  ( 0.000000000000000000, 0.000000000000000000, -1.000000000000000000 ) ) ;
#200 = DIRECTION ( 'NONE',  ( -1.000000000000000000, 0.000000000000000000, 0.000000000000000000 ) ) ;
#201 = AXIS2_PLACEMENT_3D ( 'NONE', #358, #112, #340 ) ;
#202 = CARTESIAN_POINT ( 'NONE',  ( 0.07809999999999997500, 0.4374999999999998890, 9.564491501340826783E-18 ) ) ;
#203 = DIRECTION ( 'NONE',  ( -2.968840725205704707E-17, 1.000000000000000000, -0.000000000000000000 ) ) ;
#204 = UNCERTAINTY_MEASURE_WITH_UNIT (LENGTH_MEASURE( 1.000000000000000082E-05 ), #333, 'distance_accuracy_value', 'NONE');
#205 = DIRECTION ( 'NONE',  ( -2.968840725205704707E-17, 1.000000000000000000, -0.000000000000000000 ) ) ;
#206 = AXIS2_PLACEMENT_3D ( 'NONE', #179, #39, #136 ) ;
#207 = MANIFOLD_SOLID_BREP ( 'Revolve - Cutting Edge', #32 ) ;
#208 = CARTESIAN_POINT ( 'NONE',  ( 0.000000000000000000, 0.4375000000000000000, 0.000000000000000000 ) ) ;
#209 = FACE_OUTER_BOUND ( 'NONE', #227, .T. ) ;
#210 = EDGE_CURVE ( 'NONE', #334, #54, #182, .T. ) ;
#211 = CARTESIAN_POINT ( 'NONE',  ( 0.000000000000000000, 0.4375000000000000000, -0.07809999999999997500 ) ) ;
#212 =( GEOMETRIC_REPRESENTATION_CONTEXT ( 3 ) GLOBAL_UNCERTAINTY_ASSIGNED_CONTEXT ( ( #20 ) ) GLOBAL_UNIT_ASSIGNED_CONTEXT ( ( #165, #252, #113 ) ) REPRESENTATION_CONTEXT ( 'NONE', 'WORKASPACE' ) );
#213 = LENGTH_MEASURE_WITH_UNIT ( LENGTH_MEASURE( 0.02539999999999999897 ), #242 );
#214 = SURFACE_STYLE_FILL_AREA ( #151 ) ;
#215 = ADVANCED_FACE ( 'NONE', ( #232 ), #352, .T. ) ;
#216 = DIRECTION ( 'NONE',  ( -2.968840725205704707E-17, 1.000000000000000000, -0.000000000000000000 ) ) ;
#217 =( NAMED_UNIT ( * ) SI_UNIT ( $, .STERADIAN. ) SOLID_ANGLE_UNIT ( ) );
#218 = DIMENSIONAL_EXPONENTS ( 1.000000000000000000, 0.000000000000000000, 0.000000000000000000, 0.000000000000000000, 0.000000000000000000, 0.000000000000000000, 0.000000000000000000 ) ;
#219 = PRESENTATION_LAYER_ASSIGNMENT (  '', '', ( #19 ) ) ;
#220 = ORIENTED_EDGE ( 'NONE', *, *, #301, .T. ) ;
#221 = VERTEX_POINT ( 'NONE', #211 ) ;
#222 = CARTESIAN_POINT ( 'NONE',  ( -6.123233995736766036E-17, 2.500000000000000000, 0.000000000000000000 ) ) ;
#223 = ORIENTED_EDGE ( 'NONE', *, *, #50, .F. ) ;
#224 = ORIENTED_EDGE ( 'NONE', *, *, #75, .T. ) ;
#225 = PRESENTATION_LAYER_ASSIGNMENT (  '', '', ( #125 ) ) ;
#226 = PRESENTATION_STYLE_ASSIGNMENT (( #2 ) ) ;
#227 = EDGE_LOOP ( 'NONE', ( #109, #250, #4, #80 ) ) ;
#228 = DIRECTION ( 'NONE',  ( 0.000000000000000000, 0.000000000000000000, -1.000000000000000000 ) ) ;
#229 = DIRECTION ( 'NONE',  ( -0.000000000000000000, -1.000000000000000000, -0.000000000000000000 ) ) ;
#230 = ADVANCED_FACE ( 'NONE', ( #266 ), #152, .F. ) ;
#231 = DIMENSIONAL_EXPONENTS ( 1.000000000000000000, 0.000000000000000000, 0.000000000000000000, 0.000000000000000000, 0.000000000000000000, 0.000000000000000000, 0.000000000000000000 ) ;
#232 = FACE_OUTER_BOUND ( 'NONE', #29, .T. ) ;
#233 =( NAMED_UNIT ( * ) PLANE_ANGLE_UNIT ( ) SI_UNIT ( $, .RADIAN. ) );
#234 = STYLED_ITEM ( 'NONE', ( #130 ), #88 ) ;
#235 = SURFACE_STYLE_FILL_AREA ( #343 ) ;
#236 = CONICAL_SURFACE ( 'NONE', #321, 0.07809999999999997500, 0.3490658503988654515 ) ;
#237 = COLOUR_RGB ( '',1.000000000000000000, 0.000000000000000000, 0.000000000000000000 ) ;
#238 = DIRECTION ( 'NONE',  ( 0.000000000000000000, -0.000000000000000000, 1.000000000000000000 ) ) ;
#239 = CARTESIAN_POINT ( 'NONE',  ( -0.09375000000000006939, 2.500000000000000000, 0.000000000000000000 ) ) ;
#240 = STYLED_ITEM ( 'NONE', ( #226 ), #176 ) ;
#241 = ADVANCED_FACE ( 'NONE', ( #47 ), #298, .T. ) ;
#242 =( LENGTH_UNIT ( ) NAMED_UNIT ( * ) SI_UNIT ( $, .METRE. ) );
#243 = DIRECTION ( 'NONE',  ( -1.000000000000000000, 0.000000000000000000, 0.000000000000000000 ) ) ;
#244 = PRESENTATION_STYLE_ASSIGNMENT (( #265 ) ) ;
#245 = LENGTH_MEASURE_WITH_UNIT ( LENGTH_MEASURE( 0.02539999999999999897 ), #27 );
#246 = VERTEX_POINT ( 'NONE', #341 ) ;
#247 = CARTESIAN_POINT ( 'NONE',  ( 0.000000000000000000, 0.4375000000000000000, 0.000000000000000000 ) ) ;
#248 = EDGE_CURVE ( 'NONE', #339, #221, #129, .T. ) ;
#249 = SURFACE_STYLE_USAGE ( .BOTH. , #357 ) ;
#250 = ORIENTED_EDGE ( 'NONE', *, *, #95, .T. ) ;
#251 = CARTESIAN_POINT ( 'NONE',  ( -1.276542776722972501E-18, 0.4804980216144646987, 0.000000000000000000 ) ) ;
#252 =( NAMED_UNIT ( * ) PLANE_ANGLE_UNIT ( ) SI_UNIT ( $, .RADIAN. ) );
#253 = ORIENTED_EDGE ( 'NONE', *, *, #294, .T. ) ;
#254 = EDGE_CURVE ( 'NONE', #198, #54, #345, .T. ) ;
#255 = DIRECTION ( 'NONE',  ( -2.968840725205704707E-17, 1.000000000000000000, -0.000000000000000000 ) ) ;
#256 = CARTESIAN_POINT ( 'NONE',  ( 7.582401355855259480E-33, 0.4374999999999998890, 0.000000000000000000 ) ) ;
#257 = CARTESIAN_POINT ( 'NONE',  ( 0.09374999999999994449, 0.4804980216144646987, 1.148106374200642938E-17 ) ) ;
#258 = FACE_OUTER_BOUND ( 'NONE', #82, .T. ) ;
#259 = ORIENTED_EDGE ( 'NONE', *, *, #105, .T. ) ;
#260 = AXIS2_PLACEMENT_3D ( 'NONE', #108, #162, #64 ) ;
#261 =( NAMED_UNIT ( * ) SI_UNIT ( $, .STERADIAN. ) SOLID_ANGLE_UNIT ( ) );
#262 = DIRECTION ( 'NONE',  ( -0.3420201433256683798, 0.9396926207859085389, 0.000000000000000000 ) ) ;
#263 =( LENGTH_UNIT ( ) NAMED_UNIT ( * ) SI_UNIT ( $, .METRE. ) );
#264 = CONICAL_SURFACE ( 'NONE', #128, 0.07809999999999997500, 0.3490658503988654515 ) ;
#265 = SURFACE_STYLE_USAGE ( .BOTH. , #122 ) ;
#266 = FACE_OUTER_BOUND ( 'NONE', #156, .T. ) ;
#267 = CIRCLE ( 'NONE', #37, 0.07809999999999997500 ) ;
#268 = EDGE_LOOP ( 'NONE', ( #359, #57, #253, #223 ) ) ;
#269 = EDGE_CURVE ( 'NONE', #221, #246, #174, .T. ) ;
#270 = ORIENTED_EDGE ( 'NONE', *, *, #254, .F. ) ;
#271 = MECHANICAL_DESIGN_GEOMETRIC_PRESENTATION_REPRESENTATION (  '', ( #96 ), #307 ) ;
#272 = EDGE_CURVE ( 'NONE', #278, #107, #275, .T. ) ;
#273 = CIRCLE ( 'NONE', #349, 0.09374999999999994449 ) ;
#274 = DIRECTION ( 'NONE',  ( -0.000000000000000000, -1.000000000000000000, -0.000000000000000000 ) ) ;
#275 = CIRCLE ( 'NONE', #148, 0.07809999999999997500 ) ;
#276 = EDGE_LOOP ( 'NONE', ( #192, #106, #51, #342 ) ) ;
#277 = DIRECTION ( 'NONE',  ( -0.000000000000000000, -1.000000000000000000, -0.000000000000000000 ) ) ;
#278 = VERTEX_POINT ( 'NONE', #18 ) ;
#279 = DIRECTION ( 'NONE',  ( -1.000000000000000000, 0.000000000000000000, 0.000000000000000000 ) ) ;
#280 = AXIS2_PLACEMENT_3D ( 'NONE', #5, #161, #228 ) ;
#281 = SURFACE_STYLE_FILL_AREA ( #312 ) ;
#282 = FACE_OUTER_BOUND ( 'NONE', #276, .T. ) ;
#283 = UNCERTAINTY_MEASURE_WITH_UNIT (LENGTH_MEASURE( 1.000000000000000082E-05 ), #143, 'distance_accuracy_value', 'NONE');
#284 = DIRECTION ( 'NONE',  ( 0.3420201433256682688, 0.9396926207859085389, 4.188538737676986835E-17 ) ) ;
#285 = LINE ( 'NONE', #43, #336 ) ;
#286 = ORIENTED_EDGE ( 'NONE', *, *, #7, .F. ) ;
#287 = PRODUCT_RELATED_PRODUCT_CATEGORY ( 'part', '', ( #30 ) ) ;
#288 = UNCERTAINTY_MEASURE_WITH_UNIT (LENGTH_MEASURE( 1.000000000000000082E-05 ), #181, 'distance_accuracy_value', 'NONE');
#289 = COLOUR_RGB ( '',1.000000000000000000, 0.000000000000000000, 0.000000000000000000 ) ;
#290 = DIRECTION ( 'NONE',  ( -0.000000000000000000, -1.000000000000000000, -0.000000000000000000 ) ) ;
#291 = AXIS2_PLACEMENT_3D ( 'NONE', #114, #322, #123 ) ;
#292 = SURFACE_SIDE_STYLE ('',( #120 ) ) ;
#293 = SURFACE_STYLE_USAGE ( .BOTH. , #177 ) ;
#294 = EDGE_CURVE ( 'NONE', #278, #160, #285, .T. ) ;
#295 =( NAMED_UNIT ( * ) PLANE_ANGLE_UNIT ( ) SI_UNIT ( $, .RADIAN. ) );
#296 = CARTESIAN_POINT ( 'NONE',  ( 0.09374999999999994449, 2.500000000000000000, 0.000000000000000000 ) ) ;
#297 = DIRECTION ( 'NONE',  ( 0.000000000000000000, 0.000000000000000000, -1.000000000000000000 ) ) ;
#298 = PLANE ( 'NONE',  #280 ) ;
#299 =( NAMED_UNIT ( * ) PLANE_ANGLE_UNIT ( ) SI_UNIT ( $, .RADIAN. ) );
#300 = ADVANCED_FACE ( 'NONE', ( #258 ), #236, .T. ) ;
#301 = EDGE_CURVE ( 'NONE', #305, #246, #163, .T. ) ;
#302 = VECTOR ( 'NONE', #320, 39.37007874015748143 ) ;
#303 = ORIENTED_EDGE ( 'NONE', *, *, #294, .F. ) ;
#304 = FACE_OUTER_BOUND ( 'NONE', #309, .T. ) ;
#305 = VERTEX_POINT ( 'NONE', #41 ) ;
#306 = CARTESIAN_POINT ( 'NONE',  ( 0.000000000000000000, 0.000000000000000000, 0.000000000000000000 ) ) ;
#307 =( GEOMETRIC_REPRESENTATION_CONTEXT ( 3 ) GLOBAL_UNCERTAINTY_ASSIGNED_CONTEXT ( ( #204 ) ) GLOBAL_UNIT_ASSIGNED_CONTEXT ( ( #333, #299, #184 ) ) REPRESENTATION_CONTEXT ( 'NONE', 'WORKASPACE' ) );
#308 = AXIS2_PLACEMENT_3D ( 'NONE', #208, #169, #238 ) ;
#309 = EDGE_LOOP ( 'NONE', ( #224, #188, #154, #139 ) ) ;
#310 = ORIENTED_EDGE ( 'NONE', *, *, #272, .T. ) ;
#311 = AXIS2_PLACEMENT_3D ( 'NONE', #49, #353, #297 ) ;
#312 = FILL_AREA_STYLE ('',( #155 ) ) ;
#313 = FILL_AREA_STYLE ('',( #33 ) ) ;
#314 = CARTESIAN_POINT ( 'NONE',  ( -0.09375000000000004163, 2.500000000000000000, 0.000000000000000000 ) ) ;
#315 =( GEOMETRIC_REPRESENTATION_CONTEXT ( 3 ) GLOBAL_UNCERTAINTY_ASSIGNED_CONTEXT ( ( #144 ) ) GLOBAL_UNIT_ASSIGNED_CONTEXT ( ( #15, #67, #172 ) ) REPRESENTATION_CONTEXT ( 'NONE', 'WORKASPACE' ) );
#316 = CARTESIAN_POINT ( 'NONE',  ( 7.582401355855259480E-33, 0.4374999999999998890, 0.000000000000000000 ) ) ;
#317 = CARTESIAN_POINT ( 'NONE',  ( -6.123233995736766036E-17, 2.500000000000000000, 0.000000000000000000 ) ) ;
#318 = PRODUCT_DEFINITION ( 'UNKNOWN', '', #119, #142 ) ;
#319 = LINE ( 'NONE', #202, #42 ) ;
#320 = DIRECTION ( 'NONE',  ( -2.968840725205704707E-17, 1.000000000000000000, -0.000000000000000000 ) ) ;
#321 = AXIS2_PLACEMENT_3D ( 'NONE', #316, #16, #350 ) ;
#322 = DIRECTION ( 'NONE',  ( -0.000000000000000000, -1.000000000000000000, -0.000000000000000000 ) ) ;
#323 = MECHANICAL_DESIGN_GEOMETRIC_PRESENTATION_REPRESENTATION (  '', ( #125 ), #78 ) ;
#324 = LENGTH_MEASURE_WITH_UNIT ( LENGTH_MEASURE( 0.02539999999999999897 ), #10 );
#325 = FILL_AREA_STYLE ('',( #97 ) ) ;
#326 = EDGE_CURVE ( 'NONE', #107, #278, #149, .T. ) ;
#327 = FILL_AREA_STYLE_COLOUR ( '', #146 ) ;
#328 = CYLINDRICAL_SURFACE ( 'NONE', #311, 0.07809999999999997500 ) ;
#329 =( CONVERSION_BASED_UNIT ( 'INCH', #213 ) LENGTH_UNIT ( ) NAMED_UNIT ( #173 ) );
#330 = VECTOR ( 'NONE', #274, 39.37007874015748143 ) ;
#331 = AXIS2_PLACEMENT_3D ( 'NONE', #22, #121, #98 ) ;
#332 = APPLICATION_CONTEXT ( 'automotive_design' ) ;
#333 =( CONVERSION_BASED_UNIT ( 'INCH', #23 ) LENGTH_UNIT ( ) NAMED_UNIT ( #218 ) );
#334 = VERTEX_POINT ( 'NONE', #239 ) ;
#335 = CARTESIAN_POINT ( 'NONE',  ( 9.564491501340826783E-18, 0.000000000000000000, 0.07809999999999997500 ) ) ;
#336 = VECTOR ( 'NONE', #262, 39.37007874015748143 ) ;
#337 = ORIENTED_EDGE ( 'NONE', *, *, #185, .T. ) ;
#338 = DIRECTION ( 'NONE',  ( -1.000000000000000000, 0.000000000000000000, 0.000000000000000000 ) ) ;
#339 = VERTEX_POINT ( 'NONE', #348 ) ;
#340 = DIRECTION ( 'NONE',  ( -1.000000000000000000, -2.968840725205704707E-17, 0.000000000000000000 ) ) ;
#341 = CARTESIAN_POINT ( 'NONE',  ( 0.000000000000000000, 0.000000000000000000, -0.07810000000000000275 ) ) ;
#342 = ORIENTED_EDGE ( 'NONE', *, *, #301, .F. ) ;
#343 = FILL_AREA_STYLE ('',( #66 ) ) ;
#344 = PRESENTATION_STYLE_ASSIGNMENT (( #171 ) ) ;
#345 = LINE ( 'NONE', #94, #302 ) ;
#346 = PRESENTATION_STYLE_ASSIGNMENT (( #9 ) ) ;
#347 = DIMENSIONAL_EXPONENTS ( 1.000000000000000000, 0.000000000000000000, 0.000000000000000000, 0.000000000000000000, 0.000000000000000000, 0.000000000000000000, 0.000000000000000000 ) ;
#348 = CARTESIAN_POINT ( 'NONE',  ( 9.564491501340826783E-18, 0.4375000000000000000, 0.07809999999999997500 ) ) ;
#349 = AXIS2_PLACEMENT_3D ( 'NONE', #251, #197, #338 ) ;
#350 = DIRECTION ( 'NONE',  ( -1.000000000000000000, 0.000000000000000000, 0.000000000000000000 ) ) ;
#351 =( GEOMETRIC_REPRESENTATION_CONTEXT ( 3 ) GLOBAL_UNCERTAINTY_ASSIGNED_CONTEXT ( ( #283 ) ) GLOBAL_UNIT_ASSIGNED_CONTEXT ( ( #143, #140, #261 ) ) REPRESENTATION_CONTEXT ( 'NONE', 'WORKASPACE' ) );
#352 = CYLINDRICAL_SURFACE ( 'NONE', #193, 0.09374999999999997224 ) ;
#353 = DIRECTION ( 'NONE',  ( -0.000000000000000000, -1.000000000000000000, -0.000000000000000000 ) ) ;
#354 = ADVANCED_FACE ( 'NONE', ( #209 ), #328, .T. ) ;
#355 = ORIENTED_EDGE ( 'NONE', *, *, #7, .T. ) ;
#356 = AXIS2_PLACEMENT_3D ( 'NONE', #84, #277, #81 ) ;
#357 = SURFACE_SIDE_STYLE ('',( #281 ) ) ;
#358 = CARTESIAN_POINT ( 'NONE',  ( 3.441872955765393740E-35, 0.4375000000000000000, 0.000000000000000000 ) ) ;
#359 = ORIENTED_EDGE ( 'NONE', *, *, #185, .F. ) ;
ENDSEC;
END-ISO-10303-21;
