ISO-10303-21;
HEADER;
FILE_DESCRIPTION (( 'STEP AP214' ),
    '1' );
FILE_NAME ('Micro_DM-750-490.STEP',
    '2021-09-02T16:12:56',
    ( '' ),
    ( '' ),
    'SwSTEP 2.0',
    'SolidWorks 2020',
    '' );
FILE_SCHEMA (( 'AUTOMOTIVE_DESIGN' ));
ENDSEC;

DATA;
#1 = ORIENTED_EDGE ( 'NONE', *, *, #121, .F. ) ;
#2 = PRODUCT_DEFINITION_CONTEXT ( 'detailed design', #257, 'design' ) ;
#3 = CYLINDRICAL_SURFACE ( 'NONE', #69, 0.3750000000000000555 ) ;
#4 = CIRCLE ( 'NONE', #110, 0.3750000000000000555 ) ;
#5 = ORIENTED_EDGE ( 'NONE', *, *, #318, .T. ) ;
#6 = DIRECTION ( 'NONE',  ( 1.000000000000000000, 0.0000000000000000000, 0.0000000000000000000 ) ) ;
#7 = DIRECTION ( 'NONE',  ( -0.0000000000000000000, -0.0000000000000000000, -1.000000000000000000 ) ) ;
#8 = CARTESIAN_POINT ( 'NONE',  ( 0.0000000000000000000, 0.0000000000000000000, 0.3674499999999986111 ) ) ;
#9 = DIRECTION ( 'NONE',  ( -1.000000000000000000, 0.0000000000000000000, 0.0000000000000000000 ) ) ;
#10 = ORIENTED_EDGE ( 'NONE', *, *, #245, .T. ) ;
#11 = DIRECTION ( 'NONE',  ( -1.000000000000000000, 0.0000000000000000000, 0.0000000000000000000 ) ) ;
#12 = DIRECTION ( 'NONE',  ( 0.0000000000000000000, 0.0000000000000000000, 1.000000000000000000 ) ) ;
#13 = ORIENTED_EDGE ( 'NONE', *, *, #318, .F. ) ;
#14 =( GEOMETRIC_REPRESENTATION_CONTEXT ( 3 ) GLOBAL_UNCERTAINTY_ASSIGNED_CONTEXT ( ( #319 ) ) GLOBAL_UNIT_ASSIGNED_CONTEXT ( ( #263, #115, #98 ) ) REPRESENTATION_CONTEXT ( 'NONE', 'WORKASPACE' ) );
#15 = EDGE_CURVE ( 'NONE', #237, #287, #230, .T. ) ;
#16 = FACE_OUTER_BOUND ( 'NONE', #208, .T. ) ;
#17 = EDGE_CURVE ( 'NONE', #287, #237, #92, .T. ) ;
#18 = DIRECTION ( 'NONE',  ( -1.000000000000000000, 0.0000000000000000000, 0.0000000000000000000 ) ) ;
#19 = SURFACE_STYLE_USAGE ( .BOTH. , #46 ) ;
#20 = EDGE_CURVE ( 'NONE', #236, #147, #191, .T. ) ;
#21 = AXIS2_PLACEMENT_3D ( 'NONE', #195, #26, #299 ) ;
#22 = AXIS2_PLACEMENT_3D ( 'NONE', #146, #173, #171 ) ;
#23 = CARTESIAN_POINT ( 'NONE',  ( -0.3750000000000000555, 0.0000000000000000000, 1.499999999999999778 ) ) ;
#24 = EDGE_CURVE ( 'NONE', #147, #114, #141, .T. ) ;
#25 = LINE ( 'NONE', #124, #74 ) ;
#26 = DIRECTION ( 'NONE',  ( -0.0000000000000000000, -0.0000000000000000000, -1.000000000000000000 ) ) ;
#27 = CIRCLE ( 'NONE', #271, 0.3750000000000000555 ) ;
#28 = DIRECTION ( 'NONE',  ( -1.000000000000000000, 0.0000000000000000000, 0.0000000000000000000 ) ) ;
#29 = ORIENTED_EDGE ( 'NONE', *, *, #49, .F. ) ;
#30 = LINE ( 'NONE', #222, #202 ) ;
#31 = UNCERTAINTY_MEASURE_WITH_UNIT (LENGTH_MEASURE( 1.000000000000000082E-05 ), #205, 'distance_accuracy_value', 'NONE');
#32 = CARTESIAN_POINT ( 'NONE',  ( -0.3749500000000000610, 4.591813173403001961E-17, 0.3674499999999986111 ) ) ;
#33 = ORIENTED_EDGE ( 'NONE', *, *, #150, .T. ) ;
#34 = DIRECTION ( 'NONE',  ( -0.0000000000000000000, -0.0000000000000000000, -1.000000000000000000 ) ) ;
#35 = EDGE_LOOP ( 'NONE', ( #129, #13, #261, #29 ) ) ;
#36 = CARTESIAN_POINT ( 'NONE',  ( 0.0000000000000000000, 0.0000000000000000000, 1.707404996040164512E-17 ) ) ;
#37 = LENGTH_MEASURE_WITH_UNIT ( LENGTH_MEASURE( 0.02539999999999999897 ), #86 );
#38 = ORIENTED_EDGE ( 'NONE', *, *, #286, .F. ) ;
#39 = DIRECTION ( 'NONE',  ( 0.0000000000000000000, 0.0000000000000000000, 1.000000000000000000 ) ) ;
#40 = ADVANCED_FACE ( 'NONE', ( #97 ), #170, .T. ) ;
#41 = PRESENTATION_STYLE_ASSIGNMENT (( #264 ) ) ;
#42 = AXIS2_PLACEMENT_3D ( 'NONE', #215, #235, #279 ) ;
#43 =( NAMED_UNIT ( * ) PLANE_ANGLE_UNIT ( ) SI_UNIT ( $, .RADIAN. ) );
#44 = LINE ( 'NONE', #139, #102 ) ;
#45 = DIRECTION ( 'NONE',  ( 1.000000000000000000, 0.0000000000000000000, 0.0000000000000000000 ) ) ;
#46 = SURFACE_SIDE_STYLE ('',( #217 ) ) ;
#47 = CIRCLE ( 'NONE', #189, 0.3749500000000001720 ) ;
#48 = DIRECTION ( 'NONE',  ( -0.0000000000000000000, -0.0000000000000000000, -1.000000000000000000 ) ) ;
#49 = EDGE_CURVE ( 'NONE', #236, #315, #238, .T. ) ;
#50 = EDGE_LOOP ( 'NONE', ( #259, #158, #87, #199 ) ) ;
#51 = DIRECTION ( 'NONE',  ( -0.0000000000000000000, -0.0000000000000000000, -1.000000000000000000 ) ) ;
#52 = DIRECTION ( 'NONE',  ( 1.000000000000000000, 0.0000000000000000000, 0.0000000000000000000 ) ) ;
#53 = EDGE_LOOP ( 'NONE', ( #178, #184, #303, #156 ) ) ;
#54 = CARTESIAN_POINT ( 'NONE',  ( 0.0000000000000000000, 0.0000000000000000000, 1.707404996040164512E-17 ) ) ;
#55 = LINE ( 'NONE', #169, #252 ) ;
#56 = ADVANCED_FACE ( 'NONE', ( #65 ), #84, .T. ) ;
#57 = CARTESIAN_POINT ( 'NONE',  ( -0.3599999999999994316, 0.0000000000000000000, 4.000000000000000000 ) ) ;
#58 = ORIENTED_EDGE ( 'NONE', *, *, #286, .T. ) ;
#59 = CARTESIAN_POINT ( 'NONE',  ( 0.0000000000000000000, 0.0000000000000000000, 4.000000000000000000 ) ) ;
#60 = FACE_BOUND ( 'NONE', #123, .T. ) ;
#61 = ORIENTED_EDGE ( 'NONE', *, *, #143, .T. ) ;
#62 = ADVANCED_FACE ( 'NONE', ( #316 ), #306, .T. ) ;
#63 = ORIENTED_EDGE ( 'NONE', *, *, #49, .T. ) ;
#64 = ORIENTED_EDGE ( 'NONE', *, *, #258, .T. ) ;
#65 = FACE_OUTER_BOUND ( 'NONE', #50, .T. ) ;
#66 = VERTEX_POINT ( 'NONE', #267 ) ;
#67 = CARTESIAN_POINT ( 'NONE',  ( 0.0000000000000000000, 0.0000000000000000000, 1.500000000000000222 ) ) ;
#68 = CLOSED_SHELL ( 'NONE', ( #75, #40, #187, #246, #101, #207, #62, #323, #56, #88, #295 ) ) ;
#69 = AXIS2_PLACEMENT_3D ( 'NONE', #109, #270, #28 ) ;
#70 = FACE_OUTER_BOUND ( 'NONE', #95, .T. ) ;
#71 = FILL_AREA_STYLE ('',( #192 ) ) ;
#72 = EDGE_CURVE ( 'NONE', #289, #287, #44, .T. ) ;
#73 = AXIS2_PLACEMENT_3D ( 'NONE', #8, #134, #9 ) ;
#74 = VECTOR ( 'NONE', #326, 39.37007874015748143 ) ;
#75 = ADVANCED_FACE ( 'NONE', ( #70 ), #165, .T. ) ;
#76 = DIMENSIONAL_EXPONENTS ( 1.000000000000000000, 0.0000000000000000000, 0.0000000000000000000, 0.0000000000000000000, 0.0000000000000000000, 0.0000000000000000000, 0.0000000000000000000 ) ;
#77 = EDGE_LOOP ( 'NONE', ( #61, #233, #255, #136 ) ) ;
#78 = PRODUCT_DEFINITION_FORMATION_WITH_SPECIFIED_SOURCE ( 'ANY', '', #298, .NOT_KNOWN. ) ;
#79 = FACE_OUTER_BOUND ( 'NONE', #280, .T. ) ;
#80 = PLANE ( 'NONE',  #22 ) ;
#81 = LINE ( 'NONE', #301, #322 ) ;
#82 = DIRECTION ( 'NONE',  ( -0.0000000000000000000, -0.0000000000000000000, -1.000000000000000000 ) ) ;
#83 = DIRECTION ( 'NONE',  ( 0.7071067811865426878, 8.659560562354873694E-17, -0.7071067811865523467 ) ) ;
#84 = CONICAL_SURFACE ( 'NONE', #300, 0.007499999999999999722, 0.7853981633974502774 ) ;
#85 = ORIENTED_EDGE ( 'NONE', *, *, #220, .T. ) ;
#86 =( LENGTH_UNIT ( ) NAMED_UNIT ( * ) SI_UNIT ( $, .METRE. ) );
#87 = ORIENTED_EDGE ( 'NONE', *, *, #278, .T. ) ;
#88 = ADVANCED_FACE ( 'NONE', ( #293 ), #329, .T. ) ;
#89 = CARTESIAN_POINT ( 'NONE',  ( 0.0000000000000000000, 0.0000000000000000000, 0.0000000000000000000 ) ) ;
#90 = VERTEX_POINT ( 'NONE', #304 ) ;
#91 = FILL_AREA_STYLE ('',( #214 ) ) ;
#92 = CIRCLE ( 'NONE', #283, 0.3749500000000000610 ) ;
#93 = ORIENTED_EDGE ( 'NONE', *, *, #245, .F. ) ;
#94 = COLOUR_RGB ( '',0.7921568627450980005, 0.8196078431372548767, 0.9333333333333333481 ) ;
#95 = EDGE_LOOP ( 'NONE', ( #85, #182, #201, #1 ) ) ;
#96 = DIRECTION ( 'NONE',  ( -1.000000000000000000, 0.0000000000000000000, 0.0000000000000000000 ) ) ;
#97 = FACE_OUTER_BOUND ( 'NONE', #154, .T. ) ;
#98 =( NAMED_UNIT ( * ) SI_UNIT ( $, .STERADIAN. ) SOLID_ANGLE_UNIT ( ) );
#99 = AXIS2_PLACEMENT_3D ( 'NONE', #225, #285, #11 ) ;
#100 = CONICAL_SURFACE ( 'NONE', #284, 0.3599999999999994316, 0.7853981633974415066 ) ;
#101 = ADVANCED_FACE ( 'NONE', ( #107 ), #276, .T. ) ;
#102 = VECTOR ( 'NONE', #118, 39.37007874015748143 ) ;
#103 = AXIS2_PLACEMENT_3D ( 'NONE', #135, #131, #157 ) ;
#104 = CARTESIAN_POINT ( 'NONE',  ( 0.0000000000000000000, 0.0000000000000000000, 3.984999999999998987 ) ) ;
#105 = AXIS2_PLACEMENT_3D ( 'NONE', #89, #180, #183 ) ;
#106 = CARTESIAN_POINT ( 'NONE',  ( 0.0000000000000000000, 0.0000000000000000000, 4.000000000000000000 ) ) ;
#107 = FACE_OUTER_BOUND ( 'NONE', #310, .T. ) ;
#108 = CARTESIAN_POINT ( 'NONE',  ( 0.0000000000000000000, 0.0000000000000000000, 0.0000000000000000000 ) ) ;
#109 = CARTESIAN_POINT ( 'NONE',  ( 0.0000000000000000000, 0.0000000000000000000, 4.000000000000000000 ) ) ;
#110 = AXIS2_PLACEMENT_3D ( 'NONE', #104, #253, #52 ) ;
#111 = AXIS2_PLACEMENT_3D ( 'NONE', #254, #274, #149 ) ;
#112 = VERTEX_POINT ( 'NONE', #251 ) ;
#113 =( LENGTH_UNIT ( ) NAMED_UNIT ( * ) SI_UNIT ( $, .METRE. ) );
#114 = VERTEX_POINT ( 'NONE', #23 ) ;
#115 =( NAMED_UNIT ( * ) PLANE_ANGLE_UNIT ( ) SI_UNIT ( $, .RADIAN. ) );
#116 = CARTESIAN_POINT ( 'NONE',  ( 0.0000000000000000000, 0.0000000000000000000, 3.984999999999998987 ) ) ;
#117 = EDGE_LOOP ( 'NONE', ( #38, #33, #159, #212 ) ) ;
#118 = DIRECTION ( 'NONE',  ( -0.7071067811865489050, 8.659560562354950115E-17, 0.7071067811865461294 ) ) ;
#119 = AXIS2_PLACEMENT_3D ( 'NONE', #36, #231, #260 ) ;
#120 = APPLICATION_CONTEXT ( 'automotive_design' ) ;
#121 = EDGE_CURVE ( 'NONE', #66, #287, #81, .T. ) ;
#122 = STYLED_ITEM ( 'NONE', ( #41 ), #305 ) ;
#123 = EDGE_LOOP ( 'NONE', ( #312, #307 ) ) ;
#124 = CARTESIAN_POINT ( 'NONE',  ( 0.007499999999999999722, 0.0000000000000000000, 1.707404996040164512E-17 ) ) ;
#125 = MECHANICAL_DESIGN_GEOMETRIC_PRESENTATION_REPRESENTATION (  '', ( #196 ), #14 ) ;
#126 = DIRECTION ( 'NONE',  ( -0.0000000000000000000, -0.0000000000000000000, -1.000000000000000000 ) ) ;
#127 = CARTESIAN_POINT ( 'NONE',  ( 0.0000000000000000000, 0.0000000000000000000, 1.707404996040164512E-17 ) ) ;
#128 = DIRECTION ( 'NONE',  ( -1.000000000000000000, 0.0000000000000000000, 0.0000000000000000000 ) ) ;
#129 = ORIENTED_EDGE ( 'NONE', *, *, #150, .F. ) ;
#130 = DIRECTION ( 'NONE',  ( -0.0000000000000000000, -0.0000000000000000000, -1.000000000000000000 ) ) ;
#131 = DIRECTION ( 'NONE',  ( -0.0000000000000000000, 0.0000000000000000000, -1.000000000000000000 ) ) ;
#132 = AXIS2_PLACEMENT_3D ( 'NONE', #106, #273, #241 ) ;
#133 = ORIENTED_EDGE ( 'NONE', *, *, #24, .T. ) ;
#134 = DIRECTION ( 'NONE',  ( -0.0000000000000000000, -0.0000000000000000000, -1.000000000000000000 ) ) ;
#135 = CARTESIAN_POINT ( 'NONE',  ( 0.3749500000000001720, 0.0000000000000000000, 1.500000000000000222 ) ) ;
#136 = ORIENTED_EDGE ( 'NONE', *, *, #194, .F. ) ;
#137 = LENGTH_MEASURE_WITH_UNIT ( LENGTH_MEASURE( 0.02539999999999999897 ), #113 );
#138 = CARTESIAN_POINT ( 'NONE',  ( -0.007499999999999999722, 2.341830841669527240E-17, 1.707404996040164512E-17 ) ) ;
#139 = CARTESIAN_POINT ( 'NONE',  ( -0.007499999999999999722, 9.184850993605147975E-19, 1.707404996040164512E-17 ) ) ;
#140 = APPLICATION_PROTOCOL_DEFINITION ( 'draft international standard', 'automotive_design', 1998, #257 ) ;
#141 = CIRCLE ( 'NONE', #99, 0.3750000000000000555 ) ;
#142 = AXIS2_PLACEMENT_3D ( 'NONE', #127, #51, #249 ) ;
#143 = EDGE_CURVE ( 'NONE', #315, #236, #4, .T. ) ;
#144 = PRODUCT_DEFINITION_SHAPE ( 'NONE', 'NONE',  #290 ) ;
#145 = DIRECTION ( 'NONE',  ( -1.000000000000000000, 0.0000000000000000000, 0.0000000000000000000 ) ) ;
#146 = CARTESIAN_POINT ( 'NONE',  ( 0.0000000000000000000, 0.0000000000000000000, 4.000000000000000000 ) ) ;
#147 = VERTEX_POINT ( 'NONE', #203 ) ;
#148 = DIMENSIONAL_EXPONENTS ( 1.000000000000000000, 0.0000000000000000000, 0.0000000000000000000, 0.0000000000000000000, 0.0000000000000000000, 0.0000000000000000000, 0.0000000000000000000 ) ;
#149 = DIRECTION ( 'NONE',  ( -1.000000000000000000, 0.0000000000000000000, 0.0000000000000000000 ) ) ;
#150 = EDGE_CURVE ( 'NONE', #162, #236, #55, .T. ) ;
#151 = VECTOR ( 'NONE', #48, 39.37007874015748143 ) ;
#152 = PRESENTATION_LAYER_ASSIGNMENT (  '', '', ( #122 ) ) ;
#153 = CARTESIAN_POINT ( 'NONE',  ( 0.3750000000000000555, 4.592425496802575451E-17, 3.984999999999998987 ) ) ;
#154 = EDGE_LOOP ( 'NONE', ( #93, #204, #227, #282 ) ) ;
#155 = DIRECTION ( 'NONE',  ( -0.0000000000000000000, -0.0000000000000000000, -1.000000000000000000 ) ) ;
#156 = ORIENTED_EDGE ( 'NONE', *, *, #15, .F. ) ;
#157 = DIRECTION ( 'NONE',  ( -1.000000000000000000, 0.0000000000000000000, 0.0000000000000000000 ) ) ;
#158 = ORIENTED_EDGE ( 'NONE', *, *, #258, .F. ) ;
#159 = ORIENTED_EDGE ( 'NONE', *, *, #143, .F. ) ;
#160 = PLANE ( 'NONE',  #105 ) ;
#161 = CARTESIAN_POINT ( 'NONE',  ( 0.0000000000000000000, 0.0000000000000000000, 1.707404996040164512E-17 ) ) ;
#162 = VERTEX_POINT ( 'NONE', #221 ) ;
#163 = CARTESIAN_POINT ( 'NONE',  ( -0.3750000000000000555, 0.0000000000000000000, 3.984999999999998987 ) ) ;
#164 = SHAPE_DEFINITION_REPRESENTATION ( #144, #262 ) ;
#165 = CYLINDRICAL_SURFACE ( 'NONE', #176, 0.3749500000000001165 ) ;
#166 = CARTESIAN_POINT ( 'NONE',  ( 0.3750000000000000555, 4.592425496802575451E-17, 4.000000000000000000 ) ) ;
#167 = LENGTH_MEASURE_WITH_UNIT ( LENGTH_MEASURE( 0.02539999999999999897 ), #186 );
#168 = AXIS2_PLACEMENT_3D ( 'NONE', #54, #130, #197 ) ;
#169 = CARTESIAN_POINT ( 'NONE',  ( 0.3599999999999994316, 4.408728476930464865E-17, 4.000000000000000000 ) ) ;
#170 = CONICAL_SURFACE ( 'NONE', #119, 0.007499999999999999722, 0.7853981633974502774 ) ;
#171 = DIRECTION ( 'NONE',  ( 1.000000000000000000, 0.0000000000000000000, -0.0000000000000000000 ) ) ;
#172 = DIRECTION ( 'NONE',  ( -0.7071067811865426878, 0.0000000000000000000, -0.7071067811865523467 ) ) ;
#173 = DIRECTION ( 'NONE',  ( 0.0000000000000000000, 0.0000000000000000000, 1.000000000000000000 ) ) ;
#174 = CARTESIAN_POINT ( 'NONE',  ( 0.0000000000000000000, 0.0000000000000000000, 0.3674499999999986111 ) ) ;
#175 = ORIENTED_EDGE ( 'NONE', *, *, #265, .T. ) ;
#176 = AXIS2_PLACEMENT_3D ( 'NONE', #216, #320, #188 ) ;
#177 = DIRECTION ( 'NONE',  ( -0.0000000000000000000, -0.0000000000000000000, -1.000000000000000000 ) ) ;
#178 = ORIENTED_EDGE ( 'NONE', *, *, #325, .F. ) ;
#179 = VERTEX_POINT ( 'NONE', #57 ) ;
#180 = DIRECTION ( 'NONE',  ( 0.0000000000000000000, 0.0000000000000000000, 1.000000000000000000 ) ) ;
#181 = CIRCLE ( 'NONE', #111, 0.3749500000000001720 ) ;
#182 = ORIENTED_EDGE ( 'NONE', *, *, #325, .T. ) ;
#183 = DIRECTION ( 'NONE',  ( 1.000000000000000000, 0.0000000000000000000, -0.0000000000000000000 ) ) ;
#184 = ORIENTED_EDGE ( 'NONE', *, *, #308, .T. ) ;
#185 = FACE_OUTER_BOUND ( 'NONE', #248, .T. ) ;
#186 =( LENGTH_UNIT ( ) NAMED_UNIT ( * ) SI_UNIT ( $, .METRE. ) );
#187 = ADVANCED_FACE ( 'NONE', ( #224 ), #100, .T. ) ;
#188 = DIRECTION ( 'NONE',  ( -1.000000000000000000, 0.0000000000000000000, 0.0000000000000000000 ) ) ;
#189 = AXIS2_PLACEMENT_3D ( 'NONE', #67, #34, #96 ) ;
#190 = CARTESIAN_POINT ( 'NONE',  ( 0.0000000000000000000, 0.0000000000000000000, 0.0000000000000000000 ) ) ;
#191 = LINE ( 'NONE', #166, #151 ) ;
#192 = FILL_AREA_STYLE_COLOUR ( '', #94 ) ;
#193 = VECTOR ( 'NONE', #155, 39.37007874015748143 ) ;
#194 = EDGE_CURVE ( 'NONE', #315, #114, #198, .T. ) ;
#195 = CARTESIAN_POINT ( 'NONE',  ( 0.0000000000000000000, 0.0000000000000000000, 4.000000000000000000 ) ) ;
#196 = STYLED_ITEM ( 'NONE', ( #268 ), #262 ) ;
#197 = DIRECTION ( 'NONE',  ( -1.000000000000000000, 0.0000000000000000000, 0.0000000000000000000 ) ) ;
#198 = LINE ( 'NONE', #302, #193 ) ;
#199 = ORIENTED_EDGE ( 'NONE', *, *, #15, .T. ) ;
#200 = DIRECTION ( 'NONE',  ( -1.000000000000000000, 0.0000000000000000000, 0.0000000000000000000 ) ) ;
#201 = ORIENTED_EDGE ( 'NONE', *, *, #17, .F. ) ;
#202 = VECTOR ( 'NONE', #172, 39.37007874015748143 ) ;
#203 = CARTESIAN_POINT ( 'NONE',  ( 0.3750000000000000555, 4.592425496802575451E-17, 1.499999999999999778 ) ) ;
#204 = ORIENTED_EDGE ( 'NONE', *, *, #72, .T. ) ;
#205 =( CONVERSION_BASED_UNIT ( 'INCH', #137 ) LENGTH_UNIT ( ) NAMED_UNIT ( #219 ) );
#206 = ORIENTED_EDGE ( 'NONE', *, *, #194, .T. ) ;
#207 = ADVANCED_FACE ( 'NONE', ( #79 ), #80, .T. ) ;
#208 = EDGE_LOOP ( 'NONE', ( #64, #10 ) ) ;
#209 = PRODUCT_CONTEXT ( 'NONE', #120, 'mechanical' ) ;
#210 = DIRECTION ( 'NONE',  ( 0.0000000000000000000, 0.0000000000000000000, -1.000000000000000000 ) ) ;
#211 = CIRCLE ( 'NONE', #142, 0.007499999999999999722 ) ;
#212 = ORIENTED_EDGE ( 'NONE', *, *, #244, .F. ) ;
#213 = DIRECTION ( 'NONE',  ( 1.000000000000000000, 0.0000000000000000000, 0.0000000000000000000 ) ) ;
#214 = FILL_AREA_STYLE_COLOUR ( '', #247 ) ;
#215 = CARTESIAN_POINT ( 'NONE',  ( 0.0000000000000000000, 0.0000000000000000000, 4.000000000000000000 ) ) ;
#216 = CARTESIAN_POINT ( 'NONE',  ( 0.0000000000000000000, 0.0000000000000000000, 0.0000000000000000000 ) ) ;
#217 = SURFACE_STYLE_FILL_AREA ( #71 ) ;
#218 = AXIS2_PLACEMENT_3D ( 'NONE', #190, #12, #45 ) ;
#219 = DIMENSIONAL_EXPONENTS ( 1.000000000000000000, 0.0000000000000000000, 0.0000000000000000000, 0.0000000000000000000, 0.0000000000000000000, 0.0000000000000000000, 0.0000000000000000000 ) ;
#220 = EDGE_CURVE ( 'NONE', #66, #112, #181, .T. ) ;
#221 = CARTESIAN_POINT ( 'NONE',  ( 0.3599999999999994316, 4.500576986866520466E-17, 4.000000000000000000 ) ) ;
#222 = CARTESIAN_POINT ( 'NONE',  ( -0.3599999999999994316, 0.0000000000000000000, 4.000000000000000000 ) ) ;
#223 = CIRCLE ( 'NONE', #132, 0.3599999999999994316 ) ;
#224 = FACE_OUTER_BOUND ( 'NONE', #117, .T. ) ;
#225 = CARTESIAN_POINT ( 'NONE',  ( 0.0000000000000000000, 0.0000000000000000000, 1.499999999999999778 ) ) ;
#226 = CARTESIAN_POINT ( 'NONE',  ( 0.0000000000000000000, 0.0000000000000000000, 1.499999999999999778 ) ) ;
#227 = ORIENTED_EDGE ( 'NONE', *, *, #17, .T. ) ;
#228 = FACE_OUTER_BOUND ( 'NONE', #77, .T. ) ;
#229 = ORIENTED_EDGE ( 'NONE', *, *, #24, .F. ) ;
#230 = CIRCLE ( 'NONE', #73, 0.3749500000000000610 ) ;
#231 = DIRECTION ( 'NONE',  ( 0.0000000000000000000, 0.0000000000000000000, 1.000000000000000000 ) ) ;
#232 = CARTESIAN_POINT ( 'NONE',  ( 0.3749500000000001165, 4.591813173403002577E-17, 0.0000000000000000000 ) ) ;
#233 = ORIENTED_EDGE ( 'NONE', *, *, #20, .T. ) ;
#234 = PRODUCT_RELATED_PRODUCT_CATEGORY ( 'part', '', ( #298 ) ) ;
#235 = DIRECTION ( 'NONE',  ( 0.0000000000000000000, 0.0000000000000000000, 1.000000000000000000 ) ) ;
#236 = VERTEX_POINT ( 'NONE', #153 ) ;
#237 = VERTEX_POINT ( 'NONE', #272 ) ;
#238 = CIRCLE ( 'NONE', #327, 0.3750000000000000555 ) ;
#239 =( NAMED_UNIT ( * ) SI_UNIT ( $, .STERADIAN. ) SOLID_ANGLE_UNIT ( ) );
#240 =( GEOMETRIC_REPRESENTATION_CONTEXT ( 3 ) GLOBAL_UNCERTAINTY_ASSIGNED_CONTEXT ( ( #291 ) ) GLOBAL_UNIT_ASSIGNED_CONTEXT ( ( #256, #43, #239 ) ) REPRESENTATION_CONTEXT ( 'NONE', 'WORKASPACE' ) );
#241 = DIRECTION ( 'NONE',  ( 1.000000000000000000, 0.0000000000000000000, 0.0000000000000000000 ) ) ;
#242 = DIRECTION ( 'NONE',  ( 0.0000000000000000000, 0.0000000000000000000, -1.000000000000000000 ) ) ;
#243 = CIRCLE ( 'NONE', #168, 0.007499999999999999722 ) ;
#244 = EDGE_CURVE ( 'NONE', #179, #315, #30, .T. ) ;
#245 = EDGE_CURVE ( 'NONE', #289, #90, #243, .T. ) ;
#246 = ADVANCED_FACE ( 'NONE', ( #228 ), #3, .T. ) ;
#247 = COLOUR_RGB ( '',0.7921568627450980005, 0.8196078431372548767, 0.9333333333333333481 ) ;
#248 = EDGE_LOOP ( 'NONE', ( #175, #133 ) ) ;
#249 = DIRECTION ( 'NONE',  ( -1.000000000000000000, 0.0000000000000000000, 0.0000000000000000000 ) ) ;
#250 = DIRECTION ( 'NONE',  ( -0.0000000000000000000, -0.0000000000000000000, -1.000000000000000000 ) ) ;
#251 = CARTESIAN_POINT ( 'NONE',  ( 0.3749500000000001720, 4.591813173403003194E-17, 1.500000000000000222 ) ) ;
#252 = VECTOR ( 'NONE', #83, 39.37007874015748143 ) ;
#253 = DIRECTION ( 'NONE',  ( 0.0000000000000000000, 0.0000000000000000000, -1.000000000000000000 ) ) ;
#254 = CARTESIAN_POINT ( 'NONE',  ( 0.0000000000000000000, 0.0000000000000000000, 1.500000000000000222 ) ) ;
#255 = ORIENTED_EDGE ( 'NONE', *, *, #265, .F. ) ;
#256 =( CONVERSION_BASED_UNIT ( 'INCH', #37 ) LENGTH_UNIT ( ) NAMED_UNIT ( #76 ) );
#257 = APPLICATION_CONTEXT ( 'automotive_design' ) ;
#258 = EDGE_CURVE ( 'NONE', #90, #289, #211, .T. ) ;
#259 = ORIENTED_EDGE ( 'NONE', *, *, #72, .F. ) ;
#260 = DIRECTION ( 'NONE',  ( 1.000000000000000000, 0.0000000000000000000, 0.0000000000000000000 ) ) ;
#261 = ORIENTED_EDGE ( 'NONE', *, *, #244, .T. ) ;
#262 = ADVANCED_BREP_SHAPE_REPRESENTATION ( 'Micro_DM-750-490', ( #305, #218 ), #297 ) ;
#263 =( CONVERSION_BASED_UNIT ( 'INCH', #167 ) LENGTH_UNIT ( ) NAMED_UNIT ( #148 ) );
#264 = SURFACE_STYLE_USAGE ( .BOTH. , #281 ) ;
#265 = EDGE_CURVE ( 'NONE', #114, #147, #27, .T. ) ;
#266 = AXIS2_PLACEMENT_3D ( 'NONE', #108, #177, #200 ) ;
#267 = CARTESIAN_POINT ( 'NONE',  ( -0.3749500000000001720, 0.0000000000000000000, 1.500000000000000222 ) ) ;
#268 = PRESENTATION_STYLE_ASSIGNMENT (( #19 ) ) ;
#269 = PRESENTATION_LAYER_ASSIGNMENT (  '', '', ( #196 ) ) ;
#270 = DIRECTION ( 'NONE',  ( -0.0000000000000000000, -0.0000000000000000000, -1.000000000000000000 ) ) ;
#271 = AXIS2_PLACEMENT_3D ( 'NONE', #226, #250, #145 ) ;
#272 = CARTESIAN_POINT ( 'NONE',  ( 0.3749500000000000610, 0.0000000000000000000, 0.3674499999999986111 ) ) ;
#273 = DIRECTION ( 'NONE',  ( 0.0000000000000000000, 0.0000000000000000000, 1.000000000000000000 ) ) ;
#274 = DIRECTION ( 'NONE',  ( -0.0000000000000000000, -0.0000000000000000000, -1.000000000000000000 ) ) ;
#275 = AXIS2_PLACEMENT_3D ( 'NONE', #59, #242, #18 ) ;
#276 = CYLINDRICAL_SURFACE ( 'NONE', #21, 0.3750000000000000555 ) ;
#277 = ORIENTED_EDGE ( 'NONE', *, *, #20, .F. ) ;
#278 = EDGE_CURVE ( 'NONE', #90, #237, #25, .T. ) ;
#279 = DIRECTION ( 'NONE',  ( 1.000000000000000000, 0.0000000000000000000, 0.0000000000000000000 ) ) ;
#280 = EDGE_LOOP ( 'NONE', ( #5, #58 ) ) ;
#281 = SURFACE_SIDE_STYLE ('',( #317 ) ) ;
#282 = ORIENTED_EDGE ( 'NONE', *, *, #278, .F. ) ;
#283 = AXIS2_PLACEMENT_3D ( 'NONE', #174, #82, #128 ) ;
#284 = AXIS2_PLACEMENT_3D ( 'NONE', #309, #328, #324 ) ;
#285 = DIRECTION ( 'NONE',  ( -0.0000000000000000000, -0.0000000000000000000, -1.000000000000000000 ) ) ;
#286 = EDGE_CURVE ( 'NONE', #162, #179, #223, .T. ) ;
#287 = VERTEX_POINT ( 'NONE', #32 ) ;
#288 = PLANE ( 'NONE',  #103 ) ;
#289 = VERTEX_POINT ( 'NONE', #138 ) ;
#290 = PRODUCT_DEFINITION ( 'UNKNOWN', '', #78, #2 ) ;
#291 = UNCERTAINTY_MEASURE_WITH_UNIT (LENGTH_MEASURE( 1.000000000000000082E-05 ), #256, 'distance_accuracy_value', 'NONE');
#292 = LINE ( 'NONE', #232, #321 ) ;
#293 = FACE_OUTER_BOUND ( 'NONE', #53, .T. ) ;
#294 = MECHANICAL_DESIGN_GEOMETRIC_PRESENTATION_REPRESENTATION (  '', ( #122 ), #240 ) ;
#295 = ADVANCED_FACE ( 'NONE', ( #16 ), #160, .F. ) ;
#296 = APPLICATION_PROTOCOL_DEFINITION ( 'draft international standard', 'automotive_design', 1998, #120 ) ;
#297 =( GEOMETRIC_REPRESENTATION_CONTEXT ( 3 ) GLOBAL_UNCERTAINTY_ASSIGNED_CONTEXT ( ( #31 ) ) GLOBAL_UNIT_ASSIGNED_CONTEXT ( ( #205, #311, #313 ) ) REPRESENTATION_CONTEXT ( 'NONE', 'WORKASPACE' ) );
#298 = PRODUCT ( 'Micro_DM-750-490', 'Micro_DM-750-490', '', ( #209 ) ) ;
#299 = DIRECTION ( 'NONE',  ( -1.000000000000000000, 0.0000000000000000000, 0.0000000000000000000 ) ) ;
#300 = AXIS2_PLACEMENT_3D ( 'NONE', #161, #39, #213 ) ;
#301 = CARTESIAN_POINT ( 'NONE',  ( -0.3749500000000001165, 0.0000000000000000000, 0.0000000000000000000 ) ) ;
#302 = CARTESIAN_POINT ( 'NONE',  ( -0.3750000000000000555, 0.0000000000000000000, 4.000000000000000000 ) ) ;
#303 = ORIENTED_EDGE ( 'NONE', *, *, #121, .T. ) ;
#304 = CARTESIAN_POINT ( 'NONE',  ( 0.007499999999999999722, 0.0000000000000000000, 1.707404996040164512E-17 ) ) ;
#305 = MANIFOLD_SOLID_BREP ( 'Cut-Revolve4', #68 ) ;
#306 = CONICAL_SURFACE ( 'NONE', #275, 0.3599999999999994316, 0.7853981633974415066 ) ;
#307 = ORIENTED_EDGE ( 'NONE', *, *, #308, .F. ) ;
#308 = EDGE_CURVE ( 'NONE', #112, #66, #47, .T. ) ;
#309 = CARTESIAN_POINT ( 'NONE',  ( 0.0000000000000000000, 0.0000000000000000000, 4.000000000000000000 ) ) ;
#310 = EDGE_LOOP ( 'NONE', ( #277, #63, #206, #229 ) ) ;
#311 =( NAMED_UNIT ( * ) PLANE_ANGLE_UNIT ( ) SI_UNIT ( $, .RADIAN. ) );
#312 = ORIENTED_EDGE ( 'NONE', *, *, #220, .F. ) ;
#313 =( NAMED_UNIT ( * ) SI_UNIT ( $, .STERADIAN. ) SOLID_ANGLE_UNIT ( ) );
#314 = CIRCLE ( 'NONE', #42, 0.3599999999999994316 ) ;
#315 = VERTEX_POINT ( 'NONE', #163 ) ;
#316 = FACE_OUTER_BOUND ( 'NONE', #35, .T. ) ;
#317 = SURFACE_STYLE_FILL_AREA ( #91 ) ;
#318 = EDGE_CURVE ( 'NONE', #179, #162, #314, .T. ) ;
#319 = UNCERTAINTY_MEASURE_WITH_UNIT (LENGTH_MEASURE( 1.000000000000000082E-05 ), #263, 'distance_accuracy_value', 'NONE');
#320 = DIRECTION ( 'NONE',  ( -0.0000000000000000000, -0.0000000000000000000, -1.000000000000000000 ) ) ;
#321 = VECTOR ( 'NONE', #7, 39.37007874015748143 ) ;
#322 = VECTOR ( 'NONE', #126, 39.37007874015748143 ) ;
#323 = ADVANCED_FACE ( 'NONE', ( #60, #185 ), #288, .T. ) ;
#324 = DIRECTION ( 'NONE',  ( -1.000000000000000000, 0.0000000000000000000, 0.0000000000000000000 ) ) ;
#325 = EDGE_CURVE ( 'NONE', #112, #237, #292, .T. ) ;
#326 = DIRECTION ( 'NONE',  ( 0.7071067811865489050, 0.0000000000000000000, 0.7071067811865461294 ) ) ;
#327 = AXIS2_PLACEMENT_3D ( 'NONE', #116, #210, #6 ) ;
#328 = DIRECTION ( 'NONE',  ( 0.0000000000000000000, 0.0000000000000000000, -1.000000000000000000 ) ) ;
#329 = CYLINDRICAL_SURFACE ( 'NONE', #266, 0.3749500000000001165 ) ;
ENDSEC;
END-ISO-10303-21;
