ISO-10303-21;
HEADER;
FILE_DESCRIPTION (( 'STEP AP214' ),
    '1' );
FILE_NAME ('Micro_DC-5.STEP',
    '2021-08-31T17:22:40',
    ( '' ),
    ( '' ),
    'SwSTEP 2.0',
    'SolidWorks 2020',
    '' );
FILE_SCHEMA (( 'AUTOMOTIVE_DESIGN' ));
ENDSEC;

DATA;
#1 = DIRECTION ( 'NONE',  ( 1.241749088029210621E-16, 0.0000000000000000000, -1.000000000000000000 ) ) ;
#2 = ORIENTED_EDGE ( 'NONE', *, *, #262, .T. ) ;
#3 = DIRECTION ( 'NONE',  ( -1.241749088029210621E-16, -0.0000000000000000000, -1.000000000000000000 ) ) ;
#4 = ORIENTED_EDGE ( 'NONE', *, *, #120, .T. ) ;
#5 = DIRECTION ( 'NONE',  ( 0.5000000000000013323, 0.0000000000000000000, -0.8660254037844377084 ) ) ;
#6 = CARTESIAN_POINT ( 'NONE',  ( 5.722439666746794538E-17, 0.0000000000000000000, 0.4608370339799421900 ) ) ;
#7 = SURFACE_STYLE_USAGE ( .BOTH. , #189 ) ;
#8 =( CONVERSION_BASED_UNIT ( 'INCH', #310 ) LENGTH_UNIT ( ) NAMED_UNIT ( #171 ) );
#9 = EDGE_LOOP ( 'NONE', ( #383, #346, #243, #327 ) ) ;
#10 = LENGTH_MEASURE_WITH_UNIT ( LENGTH_MEASURE( 0.02539999999999999897 ), #315 );
#11 = ORIENTED_EDGE ( 'NONE', *, *, #97, .T. ) ;
#12 = CIRCLE ( 'NONE', #211, 0.2187499999999999167 ) ;
#13 = DIRECTION ( 'NONE',  ( 1.241749088029210621E-16, 0.0000000000000000000, 1.000000000000000000 ) ) ;
#14 = AXIS2_PLACEMENT_3D ( 'NONE', #176, #29, #35 ) ;
#15 = EDGE_CURVE ( 'NONE', #317, #380, #280, .T. ) ;
#16 = ORIENTED_EDGE ( 'NONE', *, *, #57, .F. ) ;
#17 = CARTESIAN_POINT ( 'NONE',  ( 0.0000000000000000000, 0.0000000000000000000, 2.750000000000000000 ) ) ;
#18 = DIRECTION ( 'NONE',  ( 1.241749088029210621E-16, 0.0000000000000000000, 1.000000000000000000 ) ) ;
#19 = VECTOR ( 'NONE', #238, 39.37007874015748854 ) ;
#20 =( GEOMETRIC_REPRESENTATION_CONTEXT ( 3 ) GLOBAL_UNCERTAINTY_ASSIGNED_CONTEXT ( ( #337 ) ) GLOBAL_UNIT_ASSIGNED_CONTEXT ( ( #193, #361, #51 ) ) REPRESENTATION_CONTEXT ( 'NONE', 'WORKASPACE' ) );
#21 = CARTESIAN_POINT ( 'NONE',  ( 0.09375000000000040246, 0.0000000000000000000, 2.693669316966166072 ) ) ;
#22 = CARTESIAN_POINT ( 'NONE',  ( 3.033974028348167851E-17, 0.0000000000000000000, 2.505669316966166349 ) ) ;
#23 = EDGE_LOOP ( 'NONE', ( #397, #246, #259, #350 ) ) ;
#24 = CARTESIAN_POINT ( 'NONE',  ( 0.09375000000000005551, 0.0000000000000000000, 0.2443306830338334568 ) ) ;
#25 = CARTESIAN_POINT ( 'NONE',  ( 0.09375000000000005551, 0.0000000000000000000, 2.505669316966166349 ) ) ;
#26 = EDGE_CURVE ( 'NONE', #103, #363, #155, .T. ) ;
#27 = ORIENTED_EDGE ( 'NONE', *, *, #15, .F. ) ;
#28 = DIRECTION ( 'NONE',  ( -0.0000000000000000000, -0.0000000000000000000, -1.000000000000000000 ) ) ;
#29 = DIRECTION ( 'NONE',  ( 1.241749088029210621E-16, 0.0000000000000000000, -1.000000000000000000 ) ) ;
#30 = VERTEX_POINT ( 'NONE', #229 ) ;
#31 = UNCERTAINTY_MEASURE_WITH_UNIT (LENGTH_MEASURE( 1.000000000000000082E-05 ), #106, 'distance_accuracy_value', 'NONE');
#32 = CONICAL_SURFACE ( 'NONE', #53, 65.52281426576882950, 1.029744258676657198 ) ;
#33 = ADVANCED_FACE ( 'NONE', ( #194 ), #188, .T. ) ;
#34 = CARTESIAN_POINT ( 'NONE',  ( -0.2187499999999998612, 0.0000000000000000000, 0.4608370339799421900 ) ) ;
#35 = DIRECTION ( 'NONE',  ( -1.000000000000000000, 0.0000000000000000000, 0.0000000000000000000 ) ) ;
#36 = CARTESIAN_POINT ( 'NONE',  ( 0.0000000000000000000, 0.0000000000000000000, 0.0000000000000000000 ) ) ;
#37 = VECTOR ( 'NONE', #357, 39.37007874015748143 ) ;
#38 = CIRCLE ( 'NONE', #14, 0.09375000000000002776 ) ;
#39 = ORIENTED_EDGE ( 'NONE', *, *, #364, .T. ) ;
#40 = PRESENTATION_STYLE_ASSIGNMENT (( #7 ) ) ;
#41 = ORIENTED_EDGE ( 'NONE', *, *, #290, .F. ) ;
#42 = ADVANCED_FACE ( 'NONE', ( #196 ), #161, .T. ) ;
#43 = APPLICATION_PROTOCOL_DEFINITION ( 'draft international standard', 'automotive_design', 1998, #204 ) ;
#44 = VERTEX_POINT ( 'NONE', #77 ) ;
#45 = EDGE_CURVE ( 'NONE', #317, #377, #318, .T. ) ;
#46 = CONICAL_SURFACE ( 'NONE', #223, 0.09375000000000002776, 0.5235987755983003700 ) ;
#47 = CARTESIAN_POINT ( 'NONE',  ( -0.09374999999999998612, -1.148106374200644017E-17, 2.505669316966166349 ) ) ;
#48 = PRESENTATION_LAYER_ASSIGNMENT (  '', '', ( #342 ) ) ;
#49 = ORIENTED_EDGE ( 'NONE', *, *, #108, .F. ) ;
#50 = FACE_OUTER_BOUND ( 'NONE', #23, .T. ) ;
#51 =( NAMED_UNIT ( * ) SI_UNIT ( $, .STERADIAN. ) SOLID_ANGLE_UNIT ( ) );
#52 = CARTESIAN_POINT ( 'NONE',  ( 0.0000000000000000000, 0.0000000000000000000, 0.0000000000000000000 ) ) ;
#53 = AXIS2_PLACEMENT_3D ( 'NONE', #362, #391, #234 ) ;
#54 = VECTOR ( 'NONE', #5, 39.37007874015748854 ) ;
#55 = ADVANCED_FACE ( 'NONE', ( #83 ), #304, .T. ) ;
#56 = LINE ( 'NONE', #231, #19 ) ;
#57 = EDGE_CURVE ( 'NONE', #103, #287, #56, .T. ) ;
#58 = CYLINDRICAL_SURFACE ( 'NONE', #71, 0.09375000000000002776 ) ;
#59 = CARTESIAN_POINT ( 'NONE',  ( 3.033974028348167851E-17, 0.0000000000000000000, 0.2443306830338334568 ) ) ;
#60 = ORIENTED_EDGE ( 'NONE', *, *, #181, .F. ) ;
#61 = LINE ( 'NONE', #128, #306 ) ;
#62 = DIMENSIONAL_EXPONENTS ( 1.000000000000000000, 0.0000000000000000000, 0.0000000000000000000, 0.0000000000000000000, 0.0000000000000000000, 0.0000000000000000000, 0.0000000000000000000 ) ;
#63 = FILL_AREA_STYLE_COLOUR ( '', #184 ) ;
#64 = DIRECTION ( 'NONE',  ( -1.241749088029210621E-16, -0.0000000000000000000, -1.000000000000000000 ) ) ;
#65 = EDGE_LOOP ( 'NONE', ( #348, #302, #175, #270 ) ) ;
#66 = AXIS2_PLACEMENT_3D ( 'NONE', #186, #303, #149 ) ;
#67 = AXIS2_PLACEMENT_3D ( 'NONE', #130, #101, #74 ) ;
#68 = DIRECTION ( 'NONE',  ( -1.000000000000000000, 0.0000000000000000000, 0.0000000000000000000 ) ) ;
#69 = LINE ( 'NONE', #36, #94 ) ;
#70 = ADVANCED_FACE ( 'NONE', ( #172 ), #58, .T. ) ;
#71 = AXIS2_PLACEMENT_3D ( 'NONE', #17, #165, #232 ) ;
#72 = CIRCLE ( 'NONE', #123, 0.09375000000000002776 ) ;
#73 = EDGE_LOOP ( 'NONE', ( #225, #98, #332 ) ) ;
#74 = DIRECTION ( 'NONE',  ( 1.000000000000000000, 0.0000000000000000000, 0.0000000000000000000 ) ) ;
#75 = CARTESIAN_POINT ( 'NONE',  ( -0.09375000000000002776, 0.0000000000000000000, 2.750000000000000000 ) ) ;
#76 = SURFACE_STYLE_USAGE ( .BOTH. , #221 ) ;
#77 = CARTESIAN_POINT ( 'NONE',  ( 0.09375000000000005551, -1.148106374200644171E-17, 2.505669316966166349 ) ) ;
#78 = EDGE_CURVE ( 'NONE', #89, #380, #241, .T. ) ;
#79 = APPLICATION_CONTEXT ( 'automotive_design' ) ;
#80 = CLOSED_SHELL ( 'NONE', ( #142, #343, #151, #112, #137, #55, #268, #351, #178, #301, #33, #42, #70, #396 ) ) ;
#81 = ORIENTED_EDGE ( 'NONE', *, *, #45, .F. ) ;
#82 = CARTESIAN_POINT ( 'NONE',  ( 6.994857428532520355E-18, 0.0000000000000000000, 0.05633068303383344244 ) ) ;
#83 = FACE_OUTER_BOUND ( 'NONE', #91, .T. ) ;
#84 = DIRECTION ( 'NONE',  ( 1.000000000000000000, 0.0000000000000000000, 0.0000000000000000000 ) ) ;
#85 = DIRECTION ( 'NONE',  ( 1.241749088029210621E-16, 0.0000000000000000000, -1.000000000000000000 ) ) ;
#86 = EDGE_LOOP ( 'NONE', ( #49, #279, #39, #334 ) ) ;
#87 = DIRECTION ( 'NONE',  ( 0.0000000000000000000, 0.0000000000000000000, 1.000000000000000000 ) ) ;
#88 = LINE ( 'NONE', #203, #37 ) ;
#89 = VERTEX_POINT ( 'NONE', #21 ) ;
#90 = DIRECTION ( 'NONE',  ( -1.241749088029210621E-16, -0.0000000000000000000, -1.000000000000000000 ) ) ;
#91 = EDGE_LOOP ( 'NONE', ( #295, #159, #11 ) ) ;
#92 = CYLINDRICAL_SURFACE ( 'NONE', #388, 0.09375000000000002776 ) ;
#93 = ORIENTED_EDGE ( 'NONE', *, *, #384, .F. ) ;
#94 = VECTOR ( 'NONE', #382, 39.37007874015748854 ) ;
#95 = CARTESIAN_POINT ( 'NONE',  ( 3.033974028348167851E-17, 0.0000000000000000000, 2.505669316966166349 ) ) ;
#96 = CARTESIAN_POINT ( 'NONE',  ( -0.09374999999999998612, 0.0000000000000000000, 2.505669316966166349 ) ) ;
#97 = EDGE_CURVE ( 'NONE', #222, #30, #277, .T. ) ;
#98 = ORIENTED_EDGE ( 'NONE', *, *, #313, .T. ) ;
#99 = DIRECTION ( 'NONE',  ( 0.8571673007021137769, 0.0000000000000000000, -0.5150380749100517130 ) ) ;
#100 = CARTESIAN_POINT ( 'NONE',  ( 0.0000000000000000000, 0.0000000000000000000, 2.750000000000000000 ) ) ;
#101 = DIRECTION ( 'NONE',  ( 1.241749088029210621E-16, 0.0000000000000000000, -1.000000000000000000 ) ) ;
#102 = CARTESIAN_POINT ( 'NONE',  ( -0.2187499999999998612, 0.0000000000000000000, 2.289162966020057866 ) ) ;
#103 = VERTEX_POINT ( 'NONE', #136 ) ;
#104 =( NAMED_UNIT ( * ) PLANE_ANGLE_UNIT ( ) SI_UNIT ( $, .RADIAN. ) );
#105 = CARTESIAN_POINT ( 'NONE',  ( 3.033974028348167851E-17, 0.0000000000000000000, 0.2443306830338334568 ) ) ;
#106 =( CONVERSION_BASED_UNIT ( 'INCH', #187 ) LENGTH_UNIT ( ) NAMED_UNIT ( #62 ) );
#107 = DIRECTION ( 'NONE',  ( 1.000000000000000000, 0.0000000000000000000, 0.0000000000000000000 ) ) ;
#108 = EDGE_CURVE ( 'NONE', #363, #30, #115, .T. ) ;
#109 = ORIENTED_EDGE ( 'NONE', *, *, #358, .T. ) ;
#110 = CIRCLE ( 'NONE', #210, 0.2187499999999999167 ) ;
#111 = CARTESIAN_POINT ( 'NONE',  ( 6.994857428532520355E-18, 0.0000000000000000000, 2.693669316966166072 ) ) ;
#112 = ADVANCED_FACE ( 'NONE', ( #260 ), #345, .T. ) ;
#113 = FACE_OUTER_BOUND ( 'NONE', #226, .T. ) ;
#114 = EDGE_CURVE ( 'NONE', #265, #212, #292, .T. ) ;
#115 = LINE ( 'NONE', #141, #250 ) ;
#116 = CARTESIAN_POINT ( 'NONE',  ( 0.0000000000000000000, 0.0000000000000000000, 0.0000000000000000000 ) ) ;
#117 = DIRECTION ( 'NONE',  ( 1.241749088029210621E-16, 0.0000000000000000000, -1.000000000000000000 ) ) ;
#118 = AXIS2_PLACEMENT_3D ( 'NONE', #293, #85, #323 ) ;
#119 = DIRECTION ( 'NONE',  ( 1.000000000000000000, 0.0000000000000000000, 1.334178587669835812E-16 ) ) ;
#120 = EDGE_CURVE ( 'NONE', #377, #265, #139, .T. ) ;
#121 = CARTESIAN_POINT ( 'NONE',  ( 0.09375000000000002776, -1.148106374200644017E-17, 2.750000000000000000 ) ) ;
#122 = DIRECTION ( 'NONE',  ( -1.000000000000000000, 0.0000000000000000000, 0.0000000000000000000 ) ) ;
#123 = AXIS2_PLACEMENT_3D ( 'NONE', #148, #1, #122 ) ;
#124 = ORIENTED_EDGE ( 'NONE', *, *, #290, .T. ) ;
#125 = CARTESIAN_POINT ( 'NONE',  ( 0.0000000000000000000, 0.0000000000000000000, 0.0000000000000000000 ) ) ;
#126 = ORIENTED_EDGE ( 'NONE', *, *, #313, .F. ) ;
#127 = DIRECTION ( 'NONE',  ( -1.241749088029210621E-16, -0.0000000000000000000, -1.000000000000000000 ) ) ;
#128 = CARTESIAN_POINT ( 'NONE',  ( 0.0000000000000000000, 0.0000000000000000000, 2.750000000000000000 ) ) ;
#129 = AXIS2_PLACEMENT_3D ( 'NONE', #257, #381, #353 ) ;
#130 = CARTESIAN_POINT ( 'NONE',  ( 3.033974028348167851E-17, 0.0000000000000000000, 2.505669316966166349 ) ) ;
#131 = ORIENTED_EDGE ( 'NONE', *, *, #202, .T. ) ;
#132 = VERTEX_POINT ( 'NONE', #322 ) ;
#133 = CIRCLE ( 'NONE', #174, 0.2187499999999999167 ) ;
#134 = ORIENTED_EDGE ( 'NONE', *, *, #120, .F. ) ;
#135 = DIRECTION ( 'NONE',  ( -1.241749088029210621E-16, -0.0000000000000000000, 1.000000000000000000 ) ) ;
#136 = CARTESIAN_POINT ( 'NONE',  ( -0.09374999999999998612, 0.0000000000000000000, 0.2443306830338334568 ) ) ;
#137 = ADVANCED_FACE ( 'NONE', ( #50 ), #328, .T. ) ;
#138 = APPLICATION_PROTOCOL_DEFINITION ( 'draft international standard', 'automotive_design', 1998, #79 ) ;
#139 = CIRCLE ( 'NONE', #118, 0.2187499999999999167 ) ;
#140 = DIRECTION ( 'NONE',  ( -1.000000000000000000, 0.0000000000000000000, 0.0000000000000000000 ) ) ;
#141 = CARTESIAN_POINT ( 'NONE',  ( 0.09375000000000002776, 1.148106374200644017E-17, -1.164139770027385188E-17 ) ) ;
#142 = ADVANCED_FACE ( 'NONE', ( #288 ), #46, .T. ) ;
#143 = DIRECTION ( 'NONE',  ( -1.241749088029210621E-16, -0.0000000000000000000, -1.000000000000000000 ) ) ;
#144 = DIRECTION ( 'NONE',  ( 0.5000000000000013323, 0.0000000000000000000, 0.8660254037844377084 ) ) ;
#145 = VECTOR ( 'NONE', #64, 39.37007874015748143 ) ;
#146 = DIRECTION ( 'NONE',  ( -1.000000000000000000, 0.0000000000000000000, 0.0000000000000000000 ) ) ;
#147 = ORIENTED_EDGE ( 'NONE', *, *, #281, .T. ) ;
#148 = CARTESIAN_POINT ( 'NONE',  ( 3.033974028348167851E-17, 0.0000000000000000000, 2.505669316966166349 ) ) ;
#149 = DIRECTION ( 'NONE',  ( -1.000000000000000000, 0.0000000000000000000, 0.0000000000000000000 ) ) ;
#150 = AXIS2_PLACEMENT_3D ( 'NONE', #95, #274, #218 ) ;
#151 = ADVANCED_FACE ( 'NONE', ( #261 ), #230, .T. ) ;
#152 = LINE ( 'NONE', #275, #199 ) ;
#153 = DIRECTION ( 'NONE',  ( -1.241749088029210621E-16, -0.0000000000000000000, -1.000000000000000000 ) ) ;
#154 = EDGE_CURVE ( 'NONE', #363, #103, #354, .T. ) ;
#155 = CIRCLE ( 'NONE', #312, 0.09375000000000002776 ) ;
#156 = CARTESIAN_POINT ( 'NONE',  ( -0.09375000000000036082, -1.148106374200648331E-17, 2.693669316966166072 ) ) ;
#157 = ORIENTED_EDGE ( 'NONE', *, *, #78, .T. ) ;
#158 =( NAMED_UNIT ( * ) PLANE_ANGLE_UNIT ( ) SI_UNIT ( $, .RADIAN. ) );
#159 = ORIENTED_EDGE ( 'NONE', *, *, #384, .T. ) ;
#160 = DIRECTION ( 'NONE',  ( -1.241749088029210621E-16, -0.0000000000000000000, -1.000000000000000000 ) ) ;
#161 = CONICAL_SURFACE ( 'NONE', #129, 65.52281426576882950, 1.029744258676657198 ) ;
#162 = MECHANICAL_DESIGN_GEOMETRIC_PRESENTATION_REPRESENTATION (  '', ( #342 ), #195 ) ;
#163 = EDGE_LOOP ( 'NONE', ( #307, #255, #372, #254 ) ) ;
#164 = ORIENTED_EDGE ( 'NONE', *, *, #252, .T. ) ;
#165 = DIRECTION ( 'NONE',  ( -1.241749088029210621E-16, -0.0000000000000000000, 1.000000000000000000 ) ) ;
#166 = AXIS2_PLACEMENT_3D ( 'NONE', #59, #264, #140 ) ;
#167 =( GEOMETRIC_REPRESENTATION_CONTEXT ( 3 ) GLOBAL_UNCERTAINTY_ASSIGNED_CONTEXT ( ( #31 ) ) GLOBAL_UNIT_ASSIGNED_CONTEXT ( ( #106, #104, #228 ) ) REPRESENTATION_CONTEXT ( 'NONE', 'WORKASPACE' ) );
#168 = DIRECTION ( 'NONE',  ( -1.241749088029210621E-16, -0.0000000000000000000, -1.000000000000000000 ) ) ;
#169 = DIRECTION ( 'NONE',  ( -1.000000000000000000, 0.0000000000000000000, 0.0000000000000000000 ) ) ;
#170 = LINE ( 'NONE', #24, #340 ) ;
#171 = DIMENSIONAL_EXPONENTS ( 1.000000000000000000, 0.0000000000000000000, 0.0000000000000000000, 0.0000000000000000000, 0.0000000000000000000, 0.0000000000000000000, 0.0000000000000000000 ) ;
#172 = FACE_OUTER_BOUND ( 'NONE', #163, .T. ) ;
#173 = VECTOR ( 'NONE', #197, 39.37007874015748143 ) ;
#174 = AXIS2_PLACEMENT_3D ( 'NONE', #395, #127, #146 ) ;
#175 = ORIENTED_EDGE ( 'NONE', *, *, #321, .T. ) ;
#176 = CARTESIAN_POINT ( 'NONE',  ( 6.994857428532520355E-18, 0.0000000000000000000, 2.693669316966166072 ) ) ;
#177 = PRODUCT_DEFINITION ( 'UNKNOWN', '', #325, #182 ) ;
#178 = ADVANCED_FACE ( 'NONE', ( #113 ), #32, .T. ) ;
#179 = FILL_AREA_STYLE ('',( #63 ) ) ;
#180 = EDGE_LOOP ( 'NONE', ( #16, #366, #131, #147 ) ) ;
#181 = EDGE_CURVE ( 'NONE', #265, #377, #110, .T. ) ;
#182 = PRODUCT_DEFINITION_CONTEXT ( 'detailed design', #79, 'design' ) ;
#183 = CARTESIAN_POINT ( 'NONE',  ( 0.2187500000000000000, 2.678914873134835064E-17, 0.4608370339799421900 ) ) ;
#184 = COLOUR_RGB ( '',0.7921568627450980005, 0.8196078431372548767, 0.9333333333333333481 ) ;
#185 = ORIENTED_EDGE ( 'NONE', *, *, #206, .T. ) ;
#186 = CARTESIAN_POINT ( 'NONE',  ( 0.0000000000000000000, 0.0000000000000000000, 2.750000000000000000 ) ) ;
#187 = LENGTH_MEASURE_WITH_UNIT ( LENGTH_MEASURE( 0.02539999999999999897 ), #347 );
#188 = CONICAL_SURFACE ( 'NONE', #387, 0.09375000000000002776, 0.5235987755983003700 ) ;
#189 = SURFACE_SIDE_STYLE ('',( #258 ) ) ;
#190 = ORIENTED_EDGE ( 'NONE', *, *, #114, .T. ) ;
#191 = EDGE_CURVE ( 'NONE', #132, #30, #88, .T. ) ;
#192 = ORIENTED_EDGE ( 'NONE', *, *, #227, .T. ) ;
#193 =( CONVERSION_BASED_UNIT ( 'INCH', #10 ) LENGTH_UNIT ( ) NAMED_UNIT ( #205 ) );
#194 = FACE_OUTER_BOUND ( 'NONE', #180, .T. ) ;
#195 =( GEOMETRIC_REPRESENTATION_CONTEXT ( 3 ) GLOBAL_UNCERTAINTY_ASSIGNED_CONTEXT ( ( #248 ) ) GLOBAL_UNIT_ASSIGNED_CONTEXT ( ( #8, #158, #352 ) ) REPRESENTATION_CONTEXT ( 'NONE', 'WORKASPACE' ) );
#196 = FACE_OUTER_BOUND ( 'NONE', #316, .T. ) ;
#197 = DIRECTION ( 'NONE',  ( -0.0000000000000000000, -0.0000000000000000000, -1.000000000000000000 ) ) ;
#198 = CARTESIAN_POINT ( 'NONE',  ( 4.888775937122876441E-15, 0.0000000000000000000, 39.37007874015748143 ) ) ;
#199 = VECTOR ( 'NONE', #99, 39.37007874015748143 ) ;
#200 = CARTESIAN_POINT ( 'NONE',  ( 5.722439666746794538E-17, 0.0000000000000000000, 2.289162966020057866 ) ) ;
#201 = ORIENTED_EDGE ( 'NONE', *, *, #309, .F. ) ;
#202 = EDGE_CURVE ( 'NONE', #363, #212, #170, .T. ) ;
#203 = CARTESIAN_POINT ( 'NONE',  ( 0.0000000000000000000, 0.0000000000000000000, 0.0000000000000000000 ) ) ;
#204 = APPLICATION_CONTEXT ( 'automotive_design' ) ;
#205 = DIMENSIONAL_EXPONENTS ( 1.000000000000000000, 0.0000000000000000000, 0.0000000000000000000, 0.0000000000000000000, 0.0000000000000000000, 0.0000000000000000000, 0.0000000000000000000 ) ;
#206 = EDGE_CURVE ( 'NONE', #30, #222, #272, .T. ) ;
#207 = DIRECTION ( 'NONE',  ( 1.241749088029210621E-16, 0.0000000000000000000, -1.000000000000000000 ) ) ;
#208 = ORIENTED_EDGE ( 'NONE', *, *, #336, .F. ) ;
#209 = CARTESIAN_POINT ( 'NONE',  ( -0.2187500000000000000, 0.0000000000000000000, 2.750000000000000000 ) ) ;
#210 = AXIS2_PLACEMENT_3D ( 'NONE', #200, #117, #237 ) ;
#211 = AXIS2_PLACEMENT_3D ( 'NONE', #6, #273, #68 ) ;
#212 = VERTEX_POINT ( 'NONE', #183 ) ;
#213 = CYLINDRICAL_SURFACE ( 'NONE', #66, 0.2187500000000000000 ) ;
#214 = PRODUCT_DEFINITION_SHAPE ( 'NONE', 'NONE',  #177 ) ;
#215 = FACE_OUTER_BOUND ( 'NONE', #9, .T. ) ;
#216 = PRODUCT_RELATED_PRODUCT_CATEGORY ( 'part', '', ( #331 ) ) ;
#217 = EDGE_LOOP ( 'NONE', ( #109, #329, #60, #41 ) ) ;
#218 = DIRECTION ( 'NONE',  ( -1.000000000000000000, 0.0000000000000000000, 0.0000000000000000000 ) ) ;
#219 = AXIS2_PLACEMENT_3D ( 'NONE', #198, #386, #355 ) ;
#220 = FACE_OUTER_BOUND ( 'NONE', #86, .T. ) ;
#221 = SURFACE_SIDE_STYLE ('',( #253 ) ) ;
#222 = VERTEX_POINT ( 'NONE', #298 ) ;
#223 = AXIS2_PLACEMENT_3D ( 'NONE', #22, #207, #390 ) ;
#224 = STYLED_ITEM ( 'NONE', ( #376 ), #244 ) ;
#225 = ORIENTED_EDGE ( 'NONE', *, *, #252, .F. ) ;
#226 = EDGE_LOOP ( 'NONE', ( #93, #299, #185 ) ) ;
#227 = EDGE_CURVE ( 'NONE', #317, #44, #324, .T. ) ;
#228 =( NAMED_UNIT ( * ) SI_UNIT ( $, .STERADIAN. ) SOLID_ANGLE_UNIT ( ) );
#229 = CARTESIAN_POINT ( 'NONE',  ( 0.09375000000000002776, 0.0000000000000000000, 0.05633068303383343550 ) ) ;
#230 = CONICAL_SURFACE ( 'NONE', #374, 65.52281426576882950, 1.029744258676657198 ) ;
#231 = CARTESIAN_POINT ( 'NONE',  ( -0.09374999999999998612, 1.148106374200644017E-17, 0.2443306830338334568 ) ) ;
#232 = DIRECTION ( 'NONE',  ( -1.000000000000000000, 0.0000000000000000000, 0.0000000000000000000 ) ) ;
#233 = PRODUCT_CONTEXT ( 'NONE', #204, 'mechanical' ) ;
#234 = DIRECTION ( 'NONE',  ( 1.000000000000000000, 0.0000000000000000000, -1.334178587669835812E-16 ) ) ;
#235 = EDGE_LOOP ( 'NONE', ( #392, #2, #157, #27 ) ) ;
#236 = AXIS2_PLACEMENT_3D ( 'NONE', #263, #18, #294 ) ;
#237 = DIRECTION ( 'NONE',  ( -1.000000000000000000, 0.0000000000000000000, 0.0000000000000000000 ) ) ;
#238 = DIRECTION ( 'NONE',  ( -0.5000000000000012212, 6.123233995736780827E-17, 0.8660254037844379305 ) ) ;
#239 = ORIENTED_EDGE ( 'NONE', *, *, #321, .F. ) ;
#240 = FACE_OUTER_BOUND ( 'NONE', #339, .T. ) ;
#241 = CIRCLE ( 'NONE', #283, 0.09375000000000002776 ) ;
#242 = CARTESIAN_POINT ( 'NONE',  ( 0.09375000000000005551, 1.148106374200644171E-17, 0.2443306830338334568 ) ) ;
#243 = ORIENTED_EDGE ( 'NONE', *, *, #309, .T. ) ;
#244 = ADVANCED_BREP_SHAPE_REPRESENTATION ( 'Micro_DC-5', ( #367, #393 ), #167 ) ;
#245 = DIRECTION ( 'NONE',  ( -0.8571673007021136659, -1.049727191138620298E-16, -0.5150380749100519351 ) ) ;
#246 = ORIENTED_EDGE ( 'NONE', *, *, #108, .T. ) ;
#247 = DIRECTION ( 'NONE',  ( -1.000000000000000000, 0.0000000000000000000, 9.106159978880874930E-17 ) ) ;
#248 = UNCERTAINTY_MEASURE_WITH_UNIT (LENGTH_MEASURE( 1.000000000000000082E-05 ), #8, 'distance_accuracy_value', 'NONE');
#249 = CARTESIAN_POINT ( 'NONE',  ( 0.0000000000000000000, 0.0000000000000000000, 2.750000000000000000 ) ) ;
#250 = VECTOR ( 'NONE', #90, 39.37007874015748143 ) ;
#251 =( LENGTH_UNIT ( ) NAMED_UNIT ( * ) SI_UNIT ( $, .METRE. ) );
#252 = EDGE_CURVE ( 'NONE', #370, #89, #152, .T. ) ;
#253 = SURFACE_STYLE_FILL_AREA ( #349 ) ;
#254 = ORIENTED_EDGE ( 'NONE', *, *, #336, .T. ) ;
#255 = ORIENTED_EDGE ( 'NONE', *, *, #227, .F. ) ;
#256 = VECTOR ( 'NONE', #305, 39.37007874015748143 ) ;
#257 = CARTESIAN_POINT ( 'NONE',  ( 4.888775937122876441E-15, 0.0000000000000000000, -36.62007874015748143 ) ) ;
#258 = SURFACE_STYLE_FILL_AREA ( #179 ) ;
#259 = ORIENTED_EDGE ( 'NONE', *, *, #97, .F. ) ;
#260 = FACE_OUTER_BOUND ( 'NONE', #65, .T. ) ;
#261 = FACE_OUTER_BOUND ( 'NONE', #73, .T. ) ;
#262 = EDGE_CURVE ( 'NONE', #44, #89, #341, .T. ) ;
#263 = CARTESIAN_POINT ( 'NONE',  ( 3.033974028348167851E-17, 0.0000000000000000000, 0.2443306830338334568 ) ) ;
#264 = DIRECTION ( 'NONE',  ( -1.241749088029210621E-16, -0.0000000000000000000, -1.000000000000000000 ) ) ;
#265 = VERTEX_POINT ( 'NONE', #338 ) ;
#266 = COLOUR_RGB ( '',0.7921568627450980005, 0.8196078431372548767, 0.9333333333333333481 ) ;
#267 = CARTESIAN_POINT ( 'NONE',  ( 6.994857428532520355E-18, 0.0000000000000000000, 0.05633068303383344244 ) ) ;
#268 = ADVANCED_FACE ( 'NONE', ( #240 ), #213, .T. ) ;
#269 = DIRECTION ( 'NONE',  ( -1.000000000000000000, 0.0000000000000000000, 0.0000000000000000000 ) ) ;
#270 = ORIENTED_EDGE ( 'NONE', *, *, #202, .F. ) ;
#271 = LINE ( 'NONE', #209, #291 ) ;
#272 = CIRCLE ( 'NONE', #311, 0.09375000000000002776 ) ;
#273 = DIRECTION ( 'NONE',  ( -1.241749088029210621E-16, -0.0000000000000000000, -1.000000000000000000 ) ) ;
#274 = DIRECTION ( 'NONE',  ( 1.241749088029210621E-16, 0.0000000000000000000, -1.000000000000000000 ) ) ;
#275 = CARTESIAN_POINT ( 'NONE',  ( 0.0000000000000000000, 0.0000000000000000000, 2.750000000000000000 ) ) ;
#276 = FILL_AREA_STYLE_COLOUR ( '', #266 ) ;
#277 = CIRCLE ( 'NONE', #319, 0.09375000000000002776 ) ;
#278 = AXIS2_PLACEMENT_3D ( 'NONE', #249, #375, #269 ) ;
#279 = ORIENTED_EDGE ( 'NONE', *, *, #154, .T. ) ;
#280 = LINE ( 'NONE', #75, #289 ) ;
#281 = EDGE_CURVE ( 'NONE', #212, #287, #12, .T. ) ;
#282 = DIRECTION ( 'NONE',  ( -1.000000000000000000, 0.0000000000000000000, 0.0000000000000000000 ) ) ;
#283 = AXIS2_PLACEMENT_3D ( 'NONE', #111, #389, #169 ) ;
#284 = CONICAL_SURFACE ( 'NONE', #67, 0.09375000000000002776, 0.5235987755983003700 ) ;
#285 = FACE_OUTER_BOUND ( 'NONE', #359, .T. ) ;
#286 = DIRECTION ( 'NONE',  ( -0.5000000000000012212, -6.123233995736780827E-17, -0.8660254037844379305 ) ) ;
#287 = VERTEX_POINT ( 'NONE', #34 ) ;
#288 = FACE_OUTER_BOUND ( 'NONE', #217, .T. ) ;
#289 = VECTOR ( 'NONE', #135, 39.37007874015748143 ) ;
#290 = EDGE_CURVE ( 'NONE', #44, #265, #368, .T. ) ;
#291 = VECTOR ( 'NONE', #308, 39.37007874015748143 ) ;
#292 = LINE ( 'NONE', #326, #173 ) ;
#293 = CARTESIAN_POINT ( 'NONE',  ( 5.722439666746794538E-17, 0.0000000000000000000, 2.289162966020057866 ) ) ;
#294 = DIRECTION ( 'NONE',  ( 1.000000000000000000, 0.0000000000000000000, 0.0000000000000000000 ) ) ;
#295 = ORIENTED_EDGE ( 'NONE', *, *, #191, .F. ) ;
#296 = VECTOR ( 'NONE', #286, 39.37007874015748854 ) ;
#297 = PRESENTATION_LAYER_ASSIGNMENT (  '', '', ( #224 ) ) ;
#298 = CARTESIAN_POINT ( 'NONE',  ( -0.09375000000000001388, 1.148106374200643863E-17, 0.05633068303383346326 ) ) ;
#299 = ORIENTED_EDGE ( 'NONE', *, *, #191, .T. ) ;
#300 = CYLINDRICAL_SURFACE ( 'NONE', #360, 0.2187500000000000000 ) ;
#301 = ADVANCED_FACE ( 'NONE', ( #220 ), #92, .T. ) ;
#302 = ORIENTED_EDGE ( 'NONE', *, *, #57, .T. ) ;
#303 = DIRECTION ( 'NONE',  ( -0.0000000000000000000, -0.0000000000000000000, -1.000000000000000000 ) ) ;
#304 = CONICAL_SURFACE ( 'NONE', #219, 65.52281426576882950, 1.029744258676657198 ) ;
#305 = DIRECTION ( 'NONE',  ( -1.241749088029210621E-16, -0.0000000000000000000, 1.000000000000000000 ) ) ;
#306 = VECTOR ( 'NONE', #245, 39.37007874015748854 ) ;
#307 = ORIENTED_EDGE ( 'NONE', *, *, #262, .F. ) ;
#308 = DIRECTION ( 'NONE',  ( -0.0000000000000000000, -0.0000000000000000000, -1.000000000000000000 ) ) ;
#309 = EDGE_CURVE ( 'NONE', #377, #287, #271, .T. ) ;
#310 = LENGTH_MEASURE_WITH_UNIT ( LENGTH_MEASURE( 0.02539999999999999897 ), #251 );
#311 = AXIS2_PLACEMENT_3D ( 'NONE', #267, #3, #247 ) ;
#312 = AXIS2_PLACEMENT_3D ( 'NONE', #105, #160, #282 ) ;
#313 = EDGE_CURVE ( 'NONE', #370, #380, #61, .T. ) ;
#314 = MECHANICAL_DESIGN_GEOMETRIC_PRESENTATION_REPRESENTATION (  '', ( #224 ), #20 ) ;
#315 =( LENGTH_UNIT ( ) NAMED_UNIT ( * ) SI_UNIT ( $, .METRE. ) );
#316 = EDGE_LOOP ( 'NONE', ( #126, #164, #208 ) ) ;
#317 = VERTEX_POINT ( 'NONE', #96 ) ;
#318 = LINE ( 'NONE', #47, #296 ) ;
#319 = AXIS2_PLACEMENT_3D ( 'NONE', #82, #143, #365 ) ;
#320 = CARTESIAN_POINT ( 'NONE',  ( 3.033974028348167851E-17, 0.0000000000000000000, 0.2443306830338334568 ) ) ;
#321 = EDGE_CURVE ( 'NONE', #287, #212, #133, .T. ) ;
#322 = CARTESIAN_POINT ( 'NONE',  ( 0.0000000000000000000, 0.0000000000000000000, 0.0000000000000000000 ) ) ;
#323 = DIRECTION ( 'NONE',  ( -1.000000000000000000, 0.0000000000000000000, 0.0000000000000000000 ) ) ;
#324 = CIRCLE ( 'NONE', #150, 0.09375000000000002776 ) ;
#325 = PRODUCT_DEFINITION_FORMATION_WITH_SPECIFIED_SOURCE ( 'ANY', '', #331, .NOT_KNOWN. ) ;
#326 = CARTESIAN_POINT ( 'NONE',  ( 0.2187500000000000000, 2.678914873134835064E-17, 2.750000000000000000 ) ) ;
#327 = ORIENTED_EDGE ( 'NONE', *, *, #281, .F. ) ;
#328 = CYLINDRICAL_SURFACE ( 'NONE', #379, 0.09375000000000002776 ) ;
#329 = ORIENTED_EDGE ( 'NONE', *, *, #45, .T. ) ;
#330 = CARTESIAN_POINT ( 'NONE',  ( 4.888775937122876441E-15, 0.0000000000000000000, -36.62007874015748143 ) ) ;
#331 = PRODUCT ( 'Micro_DC-5', 'Micro_DC-5', '', ( #233 ) ) ;
#332 = ORIENTED_EDGE ( 'NONE', *, *, #78, .F. ) ;
#333 = CYLINDRICAL_SURFACE ( 'NONE', #278, 0.09375000000000002776 ) ;
#334 = ORIENTED_EDGE ( 'NONE', *, *, #206, .F. ) ;
#335 = CARTESIAN_POINT ( 'NONE',  ( -0.09375000000000002776, 0.0000000000000000000, 1.164139770027385188E-17 ) ) ;
#336 = EDGE_CURVE ( 'NONE', #380, #89, #38, .T. ) ;
#337 = UNCERTAINTY_MEASURE_WITH_UNIT (LENGTH_MEASURE( 1.000000000000000082E-05 ), #193, 'distance_accuracy_value', 'NONE');
#338 = CARTESIAN_POINT ( 'NONE',  ( 0.2187500000000000000, 2.678914873134835064E-17, 2.289162966020057866 ) ) ;
#339 = EDGE_LOOP ( 'NONE', ( #4, #190, #239, #201 ) ) ;
#340 = VECTOR ( 'NONE', #144, 39.37007874015748854 ) ;
#341 = LINE ( 'NONE', #121, #256 ) ;
#342 = STYLED_ITEM ( 'NONE', ( #40 ), #367 ) ;
#343 = ADVANCED_FACE ( 'NONE', ( #371 ), #333, .T. ) ;
#344 = DIRECTION ( 'NONE',  ( -1.000000000000000000, 0.0000000000000000000, 0.0000000000000000000 ) ) ;
#345 = CONICAL_SURFACE ( 'NONE', #236, 0.09375000000000002776, 0.5235987755983003700 ) ;
#346 = ORIENTED_EDGE ( 'NONE', *, *, #181, .T. ) ;
#347 =( LENGTH_UNIT ( ) NAMED_UNIT ( * ) SI_UNIT ( $, .METRE. ) );
#348 = ORIENTED_EDGE ( 'NONE', *, *, #26, .F. ) ;
#349 = FILL_AREA_STYLE ('',( #276 ) ) ;
#350 = ORIENTED_EDGE ( 'NONE', *, *, #364, .F. ) ;
#351 = ADVANCED_FACE ( 'NONE', ( #215 ), #300, .T. ) ;
#352 =( NAMED_UNIT ( * ) SI_UNIT ( $, .STERADIAN. ) SOLID_ANGLE_UNIT ( ) );
#353 = DIRECTION ( 'NONE',  ( 1.000000000000000000, 0.0000000000000000000, 1.334178587669835812E-16 ) ) ;
#354 = CIRCLE ( 'NONE', #166, 0.09375000000000002776 ) ;
#355 = DIRECTION ( 'NONE',  ( 1.000000000000000000, 0.0000000000000000000, -1.334178587669835812E-16 ) ) ;
#356 = DIRECTION ( 'NONE',  ( 1.241749088029210621E-16, 0.0000000000000000000, -1.000000000000000000 ) ) ;
#357 = DIRECTION ( 'NONE',  ( 0.8571673007021137769, 0.0000000000000000000, 0.5150380749100517130 ) ) ;
#358 = EDGE_CURVE ( 'NONE', #44, #317, #72, .T. ) ;
#359 = EDGE_LOOP ( 'NONE', ( #81, #192, #124, #134 ) ) ;
#360 = AXIS2_PLACEMENT_3D ( 'NONE', #100, #28, #344 ) ;
#361 =( NAMED_UNIT ( * ) PLANE_ANGLE_UNIT ( ) SI_UNIT ( $, .RADIAN. ) );
#362 = CARTESIAN_POINT ( 'NONE',  ( 4.888775937122876441E-15, 0.0000000000000000000, 39.37007874015748143 ) ) ;
#363 = VERTEX_POINT ( 'NONE', #242 ) ;
#364 = EDGE_CURVE ( 'NONE', #103, #222, #369, .T. ) ;
#365 = DIRECTION ( 'NONE',  ( -1.000000000000000000, 0.0000000000000000000, 9.106159978880874930E-17 ) ) ;
#366 = ORIENTED_EDGE ( 'NONE', *, *, #154, .F. ) ;
#367 = MANIFOLD_SOLID_BREP ( 'Mirror1', #80 ) ;
#368 = LINE ( 'NONE', #25, #54 ) ;
#369 = LINE ( 'NONE', #335, #145 ) ;
#370 = VERTEX_POINT ( 'NONE', #378 ) ;
#371 = FACE_OUTER_BOUND ( 'NONE', #235, .T. ) ;
#372 = ORIENTED_EDGE ( 'NONE', *, *, #15, .T. ) ;
#373 = DIRECTION ( 'NONE',  ( -1.000000000000000000, 0.0000000000000000000, 1.241749088029210621E-16 ) ) ;
#374 = AXIS2_PLACEMENT_3D ( 'NONE', #330, #356, #119 ) ;
#375 = DIRECTION ( 'NONE',  ( -1.241749088029210621E-16, -0.0000000000000000000, 1.000000000000000000 ) ) ;
#376 = PRESENTATION_STYLE_ASSIGNMENT (( #76 ) ) ;
#377 = VERTEX_POINT ( 'NONE', #102 ) ;
#378 = CARTESIAN_POINT ( 'NONE',  ( 0.0000000000000000000, 0.0000000000000000000, 2.750000000000000000 ) ) ;
#379 = AXIS2_PLACEMENT_3D ( 'NONE', #52, #168, #394 ) ;
#380 = VERTEX_POINT ( 'NONE', #156 ) ;
#381 = DIRECTION ( 'NONE',  ( 1.241749088029210621E-16, 0.0000000000000000000, -1.000000000000000000 ) ) ;
#382 = DIRECTION ( 'NONE',  ( -0.8571673007021136659, 1.049727191138620298E-16, 0.5150380749100519351 ) ) ;
#383 = ORIENTED_EDGE ( 'NONE', *, *, #114, .F. ) ;
#384 = EDGE_CURVE ( 'NONE', #132, #222, #69, .T. ) ;
#385 = SHAPE_DEFINITION_REPRESENTATION ( #214, #244 ) ;
#386 = DIRECTION ( 'NONE',  ( 1.241749088029210621E-16, 0.0000000000000000000, 1.000000000000000000 ) ) ;
#387 = AXIS2_PLACEMENT_3D ( 'NONE', #320, #13, #107 ) ;
#388 = AXIS2_PLACEMENT_3D ( 'NONE', #125, #153, #373 ) ;
#389 = DIRECTION ( 'NONE',  ( 1.241749088029210621E-16, 0.0000000000000000000, -1.000000000000000000 ) ) ;
#390 = DIRECTION ( 'NONE',  ( 1.000000000000000000, 0.0000000000000000000, 0.0000000000000000000 ) ) ;
#391 = DIRECTION ( 'NONE',  ( 1.241749088029210621E-16, 0.0000000000000000000, 1.000000000000000000 ) ) ;
#392 = ORIENTED_EDGE ( 'NONE', *, *, #358, .F. ) ;
#393 = AXIS2_PLACEMENT_3D ( 'NONE', #116, #87, #84 ) ;
#394 = DIRECTION ( 'NONE',  ( -1.000000000000000000, 0.0000000000000000000, 1.241749088029210621E-16 ) ) ;
#395 = CARTESIAN_POINT ( 'NONE',  ( 5.722439666746794538E-17, 0.0000000000000000000, 0.4608370339799421900 ) ) ;
#396 = ADVANCED_FACE ( 'NONE', ( #285 ), #284, .T. ) ;
#397 = ORIENTED_EDGE ( 'NONE', *, *, #26, .T. ) ;
ENDSEC;
END-ISO-10303-21;
