ISO-10303-21;
HEADER;
FILE_DESCRIPTION (( 'STEP AP214' ),
    '1' );
FILE_NAME ('59643.STEP',
    '2023-07-24T15:18:43',
    ( '' ),
    ( '' ),
    'SwSTEP 2.0',
    'SolidWorks 2023',
    '' );
FILE_SCHEMA (( 'AUTOMOTIVE_DESIGN' ));
ENDSEC;

DATA;
#1 = FILL_AREA_STYLE_COLOUR ( '', #81 ) ;
#2 = DIRECTION ( 'NONE',  ( 1.000000000000000000, 0.000000000000000000, 0.000000000000000000 ) ) ;
#3 = CLOSED_SHELL ( 'NONE', ( #161, #210, #178, #341, #175, #155 ) ) ;
#4 = STYLED_ITEM ( 'NONE', ( #13 ), #178 ) ;
#5 = ADVANCED_FACE ( 'NONE', ( #126 ), #327, .T. ) ;
#6 = ORIENTED_EDGE ( 'NONE', *, *, #8, .T. ) ;
#7 = VERTEX_POINT ( 'NONE', #217 ) ;
#8 = EDGE_CURVE ( 'NONE', #96, #36, #151, .T. ) ;
#9 = FACE_OUTER_BOUND ( 'NONE', #154, .T. ) ;
#10 = CARTESIAN_POINT ( 'NONE',  ( -1.469576158976823750E-15, 75.00000000000000000, 0.000000000000000000 ) ) ;
#11 =( GEOMETRIC_REPRESENTATION_CONTEXT ( 3 ) GLOBAL_UNCERTAINTY_ASSIGNED_CONTEXT ( ( #332 ) ) GLOBAL_UNIT_ASSIGNED_CONTEXT ( ( #114, #127, #164 ) ) REPRESENTATION_CONTEXT ( 'NONE', 'WORKASPACE' ) );
#12 = DIRECTION ( 'NONE',  ( -0.000000000000000000, -1.000000000000000000, -0.000000000000000000 ) ) ;
#13 = PRESENTATION_STYLE_ASSIGNMENT (( #15 ) ) ;
#14 = UNCERTAINTY_MEASURE_WITH_UNIT (LENGTH_MEASURE( 1.000000000000000082E-05 ), #131, 'distance_accuracy_value', 'NONE');
#15 = SURFACE_STYLE_USAGE ( .BOTH. , #336 ) ;
#16 = EDGE_LOOP ( 'NONE', ( #162, #292, #240, #220 ) ) ;
#17 = CARTESIAN_POINT ( 'NONE',  ( 6.000000000000000000, 75.00000000000000000, 0.000000000000000000 ) ) ;
#18 = CIRCLE ( 'NONE', #363, 6.000000000000001776 ) ;
#19 = PRESENTATION_STYLE_ASSIGNMENT (( #230 ) ) ;
#20 = DIRECTION ( 'NONE',  ( 0.000000000000000000, 0.000000000000000000, -1.000000000000000000 ) ) ;
#21 = DIRECTION ( 'NONE',  ( -1.000000000000000000, 0.000000000000000000, 0.000000000000000000 ) ) ;
#22 = FACE_OUTER_BOUND ( 'NONE', #289, .T. ) ;
#23 = PRODUCT_DEFINITION ( 'UNKNOWN', '', #25, #99 ) ;
#24 =( NAMED_UNIT ( * ) SI_UNIT ( $, .STERADIAN. ) SOLID_ANGLE_UNIT ( ) );
#25 = PRODUCT_DEFINITION_FORMATION_WITH_SPECIFIED_SOURCE ( 'ANY', '', #117, .NOT_KNOWN. ) ;
#26 = DIRECTION ( 'NONE',  ( -0.000000000000000000, -1.000000000000000000, -0.000000000000000000 ) ) ;
#27 = APPLICATION_PROTOCOL_DEFINITION ( 'draft international standard', 'automotive_design', 1998, #72 ) ;
#28 = VECTOR ( 'NONE', #248, 1000.000000000000000 ) ;
#29 = SURFACE_STYLE_FILL_AREA ( #148 ) ;
#30 = CARTESIAN_POINT ( 'NONE',  ( 5.421010862427522170E-15, 18.00000000000000355, 0.000000000000000000 ) ) ;
#31 = AXIS2_PLACEMENT_3D ( 'NONE', #10, #245, #37 ) ;
#32 = PRESENTATION_LAYER_ASSIGNMENT (  '', '', ( #231 ) ) ;
#33 = ORIENTED_EDGE ( 'NONE', *, *, #232, .F. ) ;
#34 = CIRCLE ( 'NONE', #370, 6.000000000000000000 ) ;
#35 = DIRECTION ( 'NONE',  ( -1.208874916035850209E-16, 1.000000000000000000, -0.000000000000000000 ) ) ;
#36 = VERTEX_POINT ( 'NONE', #303 ) ;
#37 = DIRECTION ( 'NONE',  ( -1.000000000000000000, 0.000000000000000000, 0.000000000000000000 ) ) ;
#38 = CARTESIAN_POINT ( 'NONE',  ( 6.123233995736766282E-16, 1.000000000000000000, 5.000000000000000000 ) ) ;
#39 = ORIENTED_EDGE ( 'NONE', *, *, #277, .T. ) ;
#40 = DIRECTION ( 'NONE',  ( 0.000000000000000000, 0.000000000000000000, -1.000000000000000000 ) ) ;
#41 = UNCERTAINTY_MEASURE_WITH_UNIT (LENGTH_MEASURE( 1.000000000000000082E-05 ), #221, 'distance_accuracy_value', 'NONE');
#42 = ORIENTED_EDGE ( 'NONE', *, *, #51, .F. ) ;
#43 = CARTESIAN_POINT ( 'NONE',  ( 0.000000000000000000, 1.000000000000000000, -6.000000000000000000 ) ) ;
#44 = SURFACE_SIDE_STYLE ('',( #80 ) ) ;
#45 =( NAMED_UNIT ( * ) PLANE_ANGLE_UNIT ( ) SI_UNIT ( $, .RADIAN. ) );
#46 = CARTESIAN_POINT ( 'NONE',  ( 0.000000000000000000, 1.000000000000000000, -5.000000000000000000 ) ) ;
#47 = MECHANICAL_DESIGN_GEOMETRIC_PRESENTATION_REPRESENTATION (  '', ( #4 ), #209 ) ;
#48 = VECTOR ( 'NONE', #283, 1000.000000000000000 ) ;
#49 = DIRECTION ( 'NONE',  ( 0.000000000000000000, 0.000000000000000000, -1.000000000000000000 ) ) ;
#50 = DIRECTION ( 'NONE',  ( 1.000000000000000000, 1.208874916035850209E-16, 0.000000000000000000 ) ) ;
#51 = EDGE_CURVE ( 'NONE', #345, #361, #85, .T. ) ;
#52 = PLANE ( 'NONE',  #118 ) ;
#53 = STYLED_ITEM ( 'NONE', ( #218 ), #155 ) ;
#54 =( GEOMETRIC_REPRESENTATION_CONTEXT ( 3 ) GLOBAL_UNCERTAINTY_ASSIGNED_CONTEXT ( ( #306 ) ) GLOBAL_UNIT_ASSIGNED_CONTEXT ( ( #254, #316, #134 ) ) REPRESENTATION_CONTEXT ( 'NONE', 'WORKASPACE' ) );
#55 = AXIS2_PLACEMENT_3D ( 'NONE', #30, #116, #179 ) ;
#56 = MECHANICAL_DESIGN_GEOMETRIC_PRESENTATION_REPRESENTATION (  '', ( #357 ), #318 ) ;
#57 = ORIENTED_EDGE ( 'NONE', *, *, #186, .F. ) ;
#58 = EDGE_CURVE ( 'NONE', #36, #96, #181, .T. ) ;
#59 = EDGE_LOOP ( 'NONE', ( #42, #124, #213, #92 ) ) ;
#60 = EDGE_LOOP ( 'NONE', ( #242, #296 ) ) ;
#61 =( NAMED_UNIT ( * ) PLANE_ANGLE_UNIT ( ) SI_UNIT ( $, .RADIAN. ) );
#62 = AXIS2_PLACEMENT_3D ( 'NONE', #215, #326, #91 ) ;
#63 =( GEOMETRIC_REPRESENTATION_CONTEXT ( 3 ) GLOBAL_UNCERTAINTY_ASSIGNED_CONTEXT ( ( #362 ) ) GLOBAL_UNIT_ASSIGNED_CONTEXT ( ( #313, #365, #24 ) ) REPRESENTATION_CONTEXT ( 'NONE', 'WORKASPACE' ) );
#64 = DIRECTION ( 'NONE',  ( -1.208874916035850209E-16, 1.000000000000000000, -0.000000000000000000 ) ) ;
#65 = VERTEX_POINT ( 'NONE', #330 ) ;
#66 = SURFACE_STYLE_FILL_AREA ( #247 ) ;
#67 = DIRECTION ( 'NONE',  ( 0.000000000000000000, -1.000000000000000000, -0.000000000000000000 ) ) ;
#68 = CARTESIAN_POINT ( 'NONE',  ( 0.000000000000000000, 0.000000000000000000, 0.000000000000000000 ) ) ;
#69 = DIRECTION ( 'NONE',  ( -1.224646799147352468E-16, 0.000000000000000000, -1.000000000000000000 ) ) ;
#70 = FILL_AREA_STYLE ('',( #298 ) ) ;
#71 = DIRECTION ( 'NONE',  ( 0.000000000000000000, 0.000000000000000000, -1.000000000000000000 ) ) ;
#72 = APPLICATION_CONTEXT ( 'automotive_design' ) ;
#73 = AXIS2_PLACEMENT_3D ( 'NONE', #93, #64, #219 ) ;
#74 = UNCERTAINTY_MEASURE_WITH_UNIT (LENGTH_MEASURE( 1.000000000000000082E-05 ), #260, 'distance_accuracy_value', 'NONE');
#75 = SURFACE_STYLE_FILL_AREA ( #343 ) ;
#76 = EDGE_CURVE ( 'NONE', #100, #189, #294, .T. ) ;
#77 =( GEOMETRIC_REPRESENTATION_CONTEXT ( 3 ) GLOBAL_UNCERTAINTY_ASSIGNED_CONTEXT ( ( #74 ) ) GLOBAL_UNIT_ASSIGNED_CONTEXT ( ( #260, #136, #112 ) ) REPRESENTATION_CONTEXT ( 'NONE', 'WORKASPACE' ) );
#78 = SURFACE_STYLE_USAGE ( .BOTH. , #309 ) ;
#79 = PLANE ( 'NONE',  #252 ) ;
#80 = SURFACE_STYLE_FILL_AREA ( #201 ) ;
#81 = COLOUR_RGB ( '',1.000000000000000000, 0.000000000000000000, 0.000000000000000000 ) ;
#82 = MECHANICAL_DESIGN_GEOMETRIC_PRESENTATION_REPRESENTATION (  '', ( #163 ), #54 ) ;
#83 = PRODUCT_RELATED_PRODUCT_CATEGORY ( 'part', '', ( #117 ) ) ;
#84 = AXIS2_PLACEMENT_3D ( 'NONE', #111, #115, #20 ) ;
#85 = LINE ( 'NONE', #300, #293 ) ;
#86 = EDGE_CURVE ( 'NONE', #361, #96, #168, .T. ) ;
#87 = SURFACE_SIDE_STYLE ('',( #29 ) ) ;
#88 = PRESENTATION_LAYER_ASSIGNMENT (  '', '', ( #4 ) ) ;
#89 =( NAMED_UNIT ( * ) PLANE_ANGLE_UNIT ( ) SI_UNIT ( $, .RADIAN. ) );
#90 = SURFACE_STYLE_USAGE ( .BOTH. , #87 ) ;
#91 = DIRECTION ( 'NONE',  ( 0.000000000000000000, 0.000000000000000000, -1.000000000000000000 ) ) ;
#92 = ORIENTED_EDGE ( 'NONE', *, *, #196, .F. ) ;
#93 = CARTESIAN_POINT ( 'NONE',  ( -1.469576158976823750E-15, 75.00000000000000000, 0.000000000000000000 ) ) ;
#94 = MECHANICAL_DESIGN_GEOMETRIC_PRESENTATION_REPRESENTATION (  '', ( #122 ), #11 ) ;
#95 = EDGE_LOOP ( 'NONE', ( #157, #290, #177, #57 ) ) ;
#96 = VERTEX_POINT ( 'NONE', #280 ) ;
#97 = DIRECTION ( 'NONE',  ( 0.000000000000000000, 0.000000000000000000, -1.000000000000000000 ) ) ;
#98 = CYLINDRICAL_SURFACE ( 'NONE', #73, 5.999999999999998224 ) ;
#99 = PRODUCT_DEFINITION_CONTEXT ( 'detailed design', #328, 'design' ) ;
#100 = VERTEX_POINT ( 'NONE', #166 ) ;
#101 = EDGE_CURVE ( 'NONE', #345, #7, #34, .T. ) ;
#102 = FILL_AREA_STYLE_COLOUR ( '', #329 ) ;
#103 = COLOUR_RGB ( '',1.000000000000000000, 0.000000000000000000, 0.000000000000000000 ) ;
#104 = MECHANICAL_DESIGN_GEOMETRIC_PRESENTATION_REPRESENTATION (  '', ( #284 ), #63 ) ;
#105 = LINE ( 'NONE', #278, #48 ) ;
#106 = UNCERTAINTY_MEASURE_WITH_UNIT (LENGTH_MEASURE( 1.000000000000000082E-05 ), #317, 'distance_accuracy_value', 'NONE');
#107 = PRESENTATION_STYLE_ASSIGNMENT (( #78 ) ) ;
#108 =( GEOMETRIC_REPRESENTATION_CONTEXT ( 3 ) GLOBAL_UNCERTAINTY_ASSIGNED_CONTEXT ( ( #314 ) ) GLOBAL_UNIT_ASSIGNED_CONTEXT ( ( #267, #89, #305 ) ) REPRESENTATION_CONTEXT ( 'NONE', 'WORKASPACE' ) );
#109 = TOROIDAL_SURFACE ( 'NONE', #84, 5.000000000000000000, 0.9999999999999995559 ) ;
#110 = DIRECTION ( 'NONE',  ( 0.000000000000000000, 0.000000000000000000, 1.000000000000000000 ) ) ;
#111 = CARTESIAN_POINT ( 'NONE',  ( 0.000000000000000000, 1.000000000000000000, 0.000000000000000000 ) ) ;
#112 =( NAMED_UNIT ( * ) SI_UNIT ( $, .STERADIAN. ) SOLID_ANGLE_UNIT ( ) );
#113 = DIRECTION ( 'NONE',  ( -0.000000000000000000, -1.000000000000000000, -0.000000000000000000 ) ) ;
#114 =( LENGTH_UNIT ( ) NAMED_UNIT ( * ) SI_UNIT ( .MILLI., .METRE. ) );
#115 = DIRECTION ( 'NONE',  ( -0.000000000000000000, -1.000000000000000000, -0.000000000000000000 ) ) ;
#116 = DIRECTION ( 'NONE',  ( -1.208874916035850209E-16, 1.000000000000000000, -0.000000000000000000 ) ) ;
#117 = PRODUCT ( '59643', '59643', '', ( #352 ) ) ;
#118 = AXIS2_PLACEMENT_3D ( 'NONE', #130, #228, #173 ) ;
#119 = EDGE_CURVE ( 'NONE', #7, #271, #340, .T. ) ;
#120 = SURFACE_SIDE_STYLE ('',( #350 ) ) ;
#121 = MANIFOLD_SOLID_BREP ( 'Revolve - Cutting Edge', #3 ) ;
#122 = STYLED_ITEM ( 'NONE', ( #334 ), #121 ) ;
#123 =( NAMED_UNIT ( * ) SI_UNIT ( $, .STERADIAN. ) SOLID_ANGLE_UNIT ( ) );
#124 = ORIENTED_EDGE ( 'NONE', *, *, #101, .T. ) ;
#125 = LINE ( 'NONE', #128, #301 ) ;
#126 = FACE_OUTER_BOUND ( 'NONE', #159, .T. ) ;
#127 =( NAMED_UNIT ( * ) PLANE_ANGLE_UNIT ( ) SI_UNIT ( $, .RADIAN. ) );
#128 = CARTESIAN_POINT ( 'NONE',  ( -6.000000000000000000, 75.00000000000000000, 0.000000000000000000 ) ) ;
#129 = ORIENTED_EDGE ( 'NONE', *, *, #86, .T. ) ;
#130 = CARTESIAN_POINT ( 'NONE',  ( 0.000000000000000000, 18.00000000000000000, 0.000000000000000000 ) ) ;
#131 =( LENGTH_UNIT ( ) NAMED_UNIT ( * ) SI_UNIT ( .MILLI., .METRE. ) );
#132 = DIRECTION ( 'NONE',  ( -1.208874916035850209E-16, 1.000000000000000000, -0.000000000000000000 ) ) ;
#133 = COLOUR_RGB ( '',1.000000000000000000, 0.000000000000000000, 0.000000000000000000 ) ;
#134 =( NAMED_UNIT ( * ) SI_UNIT ( $, .STERADIAN. ) SOLID_ANGLE_UNIT ( ) );
#135 =( NAMED_UNIT ( * ) SI_UNIT ( $, .STERADIAN. ) SOLID_ANGLE_UNIT ( ) );
#136 =( NAMED_UNIT ( * ) PLANE_ANGLE_UNIT ( ) SI_UNIT ( $, .RADIAN. ) );
#137 =( LENGTH_UNIT ( ) NAMED_UNIT ( * ) SI_UNIT ( .MILLI., .METRE. ) );
#138 =( NAMED_UNIT ( * ) PLANE_ANGLE_UNIT ( ) SI_UNIT ( $, .RADIAN. ) );
#139 = SURFACE_SIDE_STYLE ('',( #75 ) ) ;
#140 = DIRECTION ( 'NONE',  ( -1.208874916035850209E-16, 1.000000000000000000, -0.000000000000000000 ) ) ;
#141 = CIRCLE ( 'NONE', #192, 6.000000000000000000 ) ;
#142 = DIRECTION ( 'NONE',  ( -0.000000000000000000, -1.000000000000000000, -0.000000000000000000 ) ) ;
#143 = DIRECTION ( 'NONE',  ( -1.208874916035850209E-16, 1.000000000000000000, -0.000000000000000000 ) ) ;
#144 = CARTESIAN_POINT ( 'NONE',  ( 0.000000000000000000, 0.000000000000000000, 0.000000000000000000 ) ) ;
#145 = APPLICATION_PROTOCOL_DEFINITION ( 'draft international standard', 'automotive_design', 1998, #328 ) ;
#146 = COLOUR_RGB ( '',0.7921568627450980005, 0.8196078431372548767, 0.9333333333333333481 ) ;
#147 = CIRCLE ( 'NONE', #169, 6.000000000000000000 ) ;
#148 = FILL_AREA_STYLE ('',( #320 ) ) ;
#149 = CARTESIAN_POINT ( 'NONE',  ( 0.000000000000000000, 0.000000000000000000, 0.000000000000000000 ) ) ;
#150 = CYLINDRICAL_SURFACE ( 'NONE', #203, 6.000000000000000000 ) ;
#151 = CIRCLE ( 'NONE', #250, 5.000000000000000000 ) ;
#152 = MECHANICAL_DESIGN_GEOMETRIC_PRESENTATION_REPRESENTATION (  '', ( #198 ), #77 ) ;
#153 = PLANE ( 'NONE',  #257 ) ;
#154 = EDGE_LOOP ( 'NONE', ( #351, #6 ) ) ;
#155 = ADVANCED_FACE ( 'NONE', ( #249 ), #52, .T. ) ;
#156 = CARTESIAN_POINT ( 'NONE',  ( 6.000000000000000000, 75.00000000000000000, 7.347880794884119736E-16 ) ) ;
#157 = ORIENTED_EDGE ( 'NONE', *, *, #172, .T. ) ;
#158 = CARTESIAN_POINT ( 'NONE',  ( 0.000000000000000000, 18.00000000000000000, 0.000000000000000000 ) ) ;
#159 = EDGE_LOOP ( 'NONE', ( #193, #39, #238, #295 ) ) ;
#160 = SURFACE_SIDE_STYLE ('',( #197 ) ) ;
#161 = ADVANCED_FACE ( 'NONE', ( #285 ), #150, .T. ) ;
#162 = ORIENTED_EDGE ( 'NONE', *, *, #216, .T. ) ;
#163 = STYLED_ITEM ( 'NONE', ( #19 ), #341 ) ;
#164 =( NAMED_UNIT ( * ) SI_UNIT ( $, .STERADIAN. ) SOLID_ANGLE_UNIT ( ) );
#165 = ORIENTED_EDGE ( 'NONE', *, *, #196, .T. ) ;
#166 = CARTESIAN_POINT ( 'NONE',  ( -6.000000000000003553, 75.00000000000000000, 0.000000000000000000 ) ) ;
#167 = CARTESIAN_POINT ( 'NONE',  ( 0.000000000000000000, 1.000000000000000000, 0.000000000000000000 ) ) ;
#168 = CIRCLE ( 'NONE', #347, 1.000000000000000000 ) ;
#169 = AXIS2_PLACEMENT_3D ( 'NONE', #261, #113, #195 ) ;
#170 = ADVANCED_BREP_SHAPE_REPRESENTATION ( '59643', ( #121, #369, #288 ), #258 ) ;
#171 = CARTESIAN_POINT ( 'NONE',  ( 7.347880794884118750E-16, 1.000000000000000000, 6.000000000000000000 ) ) ;
#172 = EDGE_CURVE ( 'NONE', #65, #269, #287, .T. ) ;
#173 = DIRECTION ( 'NONE',  ( 0.000000000000000000, -0.000000000000000000, 1.000000000000000000 ) ) ;
#174 = TOROIDAL_SURFACE ( 'NONE', #253, 5.000000000000000000, 0.9999999999999995559 ) ;
#175 = ADVANCED_FACE ( 'NONE', ( #237 ), #291, .T. ) ;
#176 = AXIS2_PLACEMENT_3D ( 'NONE', #46, #21, #110 ) ;
#177 = ORIENTED_EDGE ( 'NONE', *, *, #76, .F. ) ;
#178 = ADVANCED_FACE ( 'NONE', ( #9 ), #153, .T. ) ;
#179 = DIRECTION ( 'NONE',  ( -1.000000000000000000, 0.000000000000000000, 0.000000000000000000 ) ) ;
#180 = EDGE_LOOP ( 'NONE', ( #359, #299 ) ) ;
#181 = CIRCLE ( 'NONE', #312, 5.000000000000000000 ) ;
#182 = PRESENTATION_STYLE_ASSIGNMENT (( #90 ) ) ;
#183 = SURFACE_STYLE_FILL_AREA ( #302 ) ;
#184 = ORIENTED_EDGE ( 'NONE', *, *, #172, .F. ) ;
#185 = FACE_OUTER_BOUND ( 'NONE', #325, .T. ) ;
#186 = EDGE_CURVE ( 'NONE', #65, #100, #125, .T. ) ;
#187 = DIRECTION ( 'NONE',  ( -0.000000000000000000, -1.000000000000000000, -0.000000000000000000 ) ) ;
#188 = FACE_OUTER_BOUND ( 'NONE', #95, .T. ) ;
#189 = VERTEX_POINT ( 'NONE', #156 ) ;
#190 = SURFACE_STYLE_USAGE ( .BOTH. , #160 ) ;
#191 = SURFACE_STYLE_FILL_AREA ( #70 ) ;
#192 = AXIS2_PLACEMENT_3D ( 'NONE', #270, #244, #355 ) ;
#193 = ORIENTED_EDGE ( 'NONE', *, *, #243, .F. ) ;
#194 = CARTESIAN_POINT ( 'NONE',  ( 0.000000000000000000, 18.00000000000000000, 0.000000000000000000 ) ) ;
#195 = DIRECTION ( 'NONE',  ( 0.000000000000000000, 0.000000000000000000, -1.000000000000000000 ) ) ;
#196 = EDGE_CURVE ( 'NONE', #361, #271, #141, .T. ) ;
#197 = SURFACE_STYLE_FILL_AREA ( #274 ) ;
#198 = STYLED_ITEM ( 'NONE', ( #182 ), #161 ) ;
#199 = CIRCLE ( 'NONE', #224, 6.000000000000000000 ) ;
#200 = PLANE ( 'NONE',  #268 ) ;
#201 = FILL_AREA_STYLE ('',( #315 ) ) ;
#202 = DIRECTION ( 'NONE',  ( 0.000000000000000000, 0.000000000000000000, -1.000000000000000000 ) ) ;
#203 = AXIS2_PLACEMENT_3D ( 'NONE', #149, #323, #211 ) ;
#204 = PRESENTATION_LAYER_ASSIGNMENT (  '', '', ( #122 ) ) ;
#205 = COLOUR_RGB ( '',0.7921568627450980005, 0.8196078431372548767, 0.9333333333333333481 ) ;
#206 = PRESENTATION_STYLE_ASSIGNMENT (( #349 ) ) ;
#207 = ADVANCED_FACE ( 'NONE', ( #188 ), #98, .T. ) ;
#208 = ORIENTED_EDGE ( 'NONE', *, *, #86, .F. ) ;
#209 =( GEOMETRIC_REPRESENTATION_CONTEXT ( 3 ) GLOBAL_UNCERTAINTY_ASSIGNED_CONTEXT ( ( #14 ) ) GLOBAL_UNIT_ASSIGNED_CONTEXT ( ( #131, #61, #123 ) ) REPRESENTATION_CONTEXT ( 'NONE', 'WORKASPACE' ) );
#210 = ADVANCED_FACE ( 'NONE', ( #185 ), #174, .T. ) ;
#211 = DIRECTION ( 'NONE',  ( 0.000000000000000000, 0.000000000000000000, -1.000000000000000000 ) ) ;
#212 = ORIENTED_EDGE ( 'NONE', *, *, #8, .F. ) ;
#213 = ORIENTED_EDGE ( 'NONE', *, *, #119, .T. ) ;
#214 = MECHANICAL_DESIGN_GEOMETRIC_PRESENTATION_REPRESENTATION (  '', ( #231 ), #108 ) ;
#215 = CARTESIAN_POINT ( 'NONE',  ( 0.000000000000000000, 0.000000000000000000, 0.000000000000000000 ) ) ;
#216 = EDGE_CURVE ( 'NONE', #7, #345, #199, .T. ) ;
#217 = CARTESIAN_POINT ( 'NONE',  ( 0.000000000000000000, 18.00000000000000000, -6.000000000000000000 ) ) ;
#218 = PRESENTATION_STYLE_ASSIGNMENT (( #337 ) ) ;
#219 = DIRECTION ( 'NONE',  ( -1.000000000000000000, 0.000000000000000000, 0.000000000000000000 ) ) ;
#220 = ORIENTED_EDGE ( 'NONE', *, *, #119, .F. ) ;
#221 =( LENGTH_UNIT ( ) NAMED_UNIT ( * ) SI_UNIT ( .MILLI., .METRE. ) );
#222 = PRESENTATION_LAYER_ASSIGNMENT (  '', '', ( #284 ) ) ;
#223 = UNCERTAINTY_MEASURE_WITH_UNIT (LENGTH_MEASURE( 1.000000000000000082E-05 ), #137, 'distance_accuracy_value', 'NONE');
#224 = AXIS2_PLACEMENT_3D ( 'NONE', #158, #142, #202 ) ;
#225 = CARTESIAN_POINT ( 'NONE',  ( 0.000000000000000000, 0.000000000000000000, 0.000000000000000000 ) ) ;
#226 = DIRECTION ( 'NONE',  ( -0.000000000000000000, -1.000000000000000000, -0.000000000000000000 ) ) ;
#227 = PRESENTATION_STYLE_ASSIGNMENT (( #307 ) ) ;
#228 = DIRECTION ( 'NONE',  ( 0.000000000000000000, 1.000000000000000000, 0.000000000000000000 ) ) ;
#229 = DIRECTION ( 'NONE',  ( -1.000000000000000000, -1.208874916035850209E-16, 0.000000000000000000 ) ) ;
#230 = SURFACE_STYLE_USAGE ( .BOTH. , #139 ) ;
#231 = STYLED_ITEM ( 'NONE', ( #206 ), #175 ) ;
#232 = EDGE_CURVE ( 'NONE', #271, #36, #367, .T. ) ;
#233 =( NAMED_UNIT ( * ) PLANE_ANGLE_UNIT ( ) SI_UNIT ( $, .RADIAN. ) );
#234 = DIRECTION ( 'NONE',  ( -1.000000000000000000, 0.000000000000000000, 0.000000000000000000 ) ) ;
#235 = CARTESIAN_POINT ( 'NONE',  ( 6.000000000000000000, 18.00000000000000355, 7.347880794884119736E-16 ) ) ;
#236 = DIRECTION ( 'NONE',  ( -1.208874916035850209E-16, 1.000000000000000000, 0.000000000000000000 ) ) ;
#237 = FACE_OUTER_BOUND ( 'NONE', #59, .T. ) ;
#238 = ORIENTED_EDGE ( 'NONE', *, *, #186, .T. ) ;
#239 = COLOUR_RGB ( '',1.000000000000000000, 0.000000000000000000, 0.000000000000000000 ) ;
#240 = ORIENTED_EDGE ( 'NONE', *, *, #321, .F. ) ;
#241 = DIRECTION ( 'NONE',  ( 0.000000000000000000, 0.000000000000000000, -1.000000000000000000 ) ) ;
#242 = ORIENTED_EDGE ( 'NONE', *, *, #216, .F. ) ;
#243 = EDGE_CURVE ( 'NONE', #269, #189, #105, .T. ) ;
#244 = DIRECTION ( 'NONE',  ( -0.000000000000000000, -1.000000000000000000, -0.000000000000000000 ) ) ;
#245 = DIRECTION ( 'NONE',  ( -1.208874916035850209E-16, 1.000000000000000000, -0.000000000000000000 ) ) ;
#246 = PRESENTATION_LAYER_ASSIGNMENT (  '', '', ( #357 ) ) ;
#247 = FILL_AREA_STYLE ('',( #311 ) ) ;
#248 = DIRECTION ( 'NONE',  ( -0.000000000000000000, -1.000000000000000000, -0.000000000000000000 ) ) ;
#249 = FACE_OUTER_BOUND ( 'NONE', #60, .T. ) ;
#250 = AXIS2_PLACEMENT_3D ( 'NONE', #68, #333, #71 ) ;
#251 = DIRECTION ( 'NONE',  ( -1.000000000000000000, 0.000000000000000000, 0.000000000000000000 ) ) ;
#252 = AXIS2_PLACEMENT_3D ( 'NONE', #17, #310, #50 ) ;
#253 = AXIS2_PLACEMENT_3D ( 'NONE', #167, #226, #49 ) ;
#254 =( LENGTH_UNIT ( ) NAMED_UNIT ( * ) SI_UNIT ( .MILLI., .METRE. ) );
#255 = FILL_AREA_STYLE_COLOUR ( '', #282 ) ;
#256 =( NAMED_UNIT ( * ) SI_UNIT ( $, .STERADIAN. ) SOLID_ANGLE_UNIT ( ) );
#257 = AXIS2_PLACEMENT_3D ( 'NONE', #331, #67, #241 ) ;
#258 =( GEOMETRIC_REPRESENTATION_CONTEXT ( 3 ) GLOBAL_UNCERTAINTY_ASSIGNED_CONTEXT ( ( #223 ) ) GLOBAL_UNIT_ASSIGNED_CONTEXT ( ( #137, #138, #256 ) ) REPRESENTATION_CONTEXT ( 'NONE', 'WORKASPACE' ) );
#259 =( NAMED_UNIT ( * ) SI_UNIT ( $, .STERADIAN. ) SOLID_ANGLE_UNIT ( ) );
#260 =( LENGTH_UNIT ( ) NAMED_UNIT ( * ) SI_UNIT ( .MILLI., .METRE. ) );
#261 = CARTESIAN_POINT ( 'NONE',  ( 0.000000000000000000, 1.000000000000000000, 0.000000000000000000 ) ) ;
#262 = FILL_AREA_STYLE_COLOUR ( '', #146 ) ;
#263 = DIRECTION ( 'NONE',  ( 0.000000000000000000, 0.000000000000000000, 1.000000000000000000 ) ) ;
#264 = FILL_AREA_STYLE ('',( #1 ) ) ;
#265 = PRESENTATION_LAYER_ASSIGNMENT (  '', '', ( #198 ) ) ;
#266 = CIRCLE ( 'NONE', #275, 5.999999999999994671 ) ;
#267 =( LENGTH_UNIT ( ) NAMED_UNIT ( * ) SI_UNIT ( .MILLI., .METRE. ) );
#268 = AXIS2_PLACEMENT_3D ( 'NONE', #346, #236, #229 ) ;
#269 = VERTEX_POINT ( 'NONE', #235 ) ;
#270 = CARTESIAN_POINT ( 'NONE',  ( 0.000000000000000000, 1.000000000000000000, 0.000000000000000000 ) ) ;
#271 = VERTEX_POINT ( 'NONE', #43 ) ;
#272 = ORIENTED_EDGE ( 'NONE', *, *, #232, .T. ) ;
#273 = CLOSED_SHELL ( 'NONE', ( #207, #348, #5, #344 ) ) ;
#274 = FILL_AREA_STYLE ('',( #262 ) ) ;
#275 = AXIS2_PLACEMENT_3D ( 'NONE', #368, #132, #251 ) ;
#276 = DIRECTION ( 'NONE',  ( -1.000000000000000000, 0.000000000000000000, 0.000000000000000000 ) ) ;
#277 = EDGE_CURVE ( 'NONE', #269, #65, #266, .T. ) ;
#278 = CARTESIAN_POINT ( 'NONE',  ( 5.999999999999996447, 75.00000000000000000, 7.347880794884117764E-16 ) ) ;
#279 = FACE_OUTER_BOUND ( 'NONE', #180, .T. ) ;
#280 = CARTESIAN_POINT ( 'NONE',  ( 6.735557395310443009E-16, 0.000000000000000000, 5.000000000000000000 ) ) ;
#281 = PRESENTATION_LAYER_ASSIGNMENT (  '', '', ( #53 ) ) ;
#282 = COLOUR_RGB ( '',1.000000000000000000, 0.000000000000000000, 0.000000000000000000 ) ;
#283 = DIRECTION ( 'NONE',  ( -1.208874916035850209E-16, 1.000000000000000000, -0.000000000000000000 ) ) ;
#284 = STYLED_ITEM ( 'NONE', ( #107 ), #210 ) ;
#285 = FACE_OUTER_BOUND ( 'NONE', #16, .T. ) ;
#286 = PRODUCT_DEFINITION_SHAPE ( 'NONE', 'NONE',  #23 ) ;
#287 = CIRCLE ( 'NONE', #55, 5.999999999999994671 ) ;
#288 = AXIS2_PLACEMENT_3D ( 'NONE', #144, #263, #2 ) ;
#289 = EDGE_LOOP ( 'NONE', ( #184, #356 ) ) ;
#290 = ORIENTED_EDGE ( 'NONE', *, *, #243, .T. ) ;
#291 = CYLINDRICAL_SURFACE ( 'NONE', #62, 6.000000000000000000 ) ;
#292 = ORIENTED_EDGE ( 'NONE', *, *, #51, .T. ) ;
#293 = VECTOR ( 'NONE', #187, 1000.000000000000000 ) ;
#294 = CIRCLE ( 'NONE', #342, 6.000000000000001776 ) ;
#295 = ORIENTED_EDGE ( 'NONE', *, *, #358, .F. ) ;
#296 = ORIENTED_EDGE ( 'NONE', *, *, #101, .F. ) ;
#297 = CARTESIAN_POINT ( 'NONE',  ( -1.469576158976823750E-15, 75.00000000000000000, 0.000000000000000000 ) ) ;
#298 = FILL_AREA_STYLE_COLOUR ( '', #239 ) ;
#299 = ORIENTED_EDGE ( 'NONE', *, *, #358, .T. ) ;
#300 = CARTESIAN_POINT ( 'NONE',  ( 7.347880794884119736E-16, 0.000000000000000000, 6.000000000000000000 ) ) ;
#301 = VECTOR ( 'NONE', #35, 1000.000000000000000 ) ;
#302 = FILL_AREA_STYLE ('',( #102 ) ) ;
#303 = CARTESIAN_POINT ( 'NONE',  ( 0.000000000000000000, 0.000000000000000000, -5.000000000000000000 ) ) ;
#304 = DIRECTION ( 'NONE',  ( 1.000000000000000000, 0.000000000000000000, -1.224646799147353207E-16 ) ) ;
#305 =( NAMED_UNIT ( * ) SI_UNIT ( $, .STERADIAN. ) SOLID_ANGLE_UNIT ( ) );
#306 = UNCERTAINTY_MEASURE_WITH_UNIT (LENGTH_MEASURE( 1.000000000000000082E-05 ), #254, 'distance_accuracy_value', 'NONE');
#307 = SURFACE_STYLE_USAGE ( .BOTH. , #44 ) ;
#308 = CARTESIAN_POINT ( 'NONE',  ( 0.000000000000000000, 0.000000000000000000, -6.000000000000000000 ) ) ;
#309 = SURFACE_SIDE_STYLE ('',( #191 ) ) ;
#310 = DIRECTION ( 'NONE',  ( 1.208874916035850209E-16, -1.000000000000000000, 0.000000000000000000 ) ) ;
#311 = FILL_AREA_STYLE_COLOUR ( '', #103 ) ;
#312 = AXIS2_PLACEMENT_3D ( 'NONE', #225, #12, #40 ) ;
#313 =( LENGTH_UNIT ( ) NAMED_UNIT ( * ) SI_UNIT ( .MILLI., .METRE. ) );
#314 = UNCERTAINTY_MEASURE_WITH_UNIT (LENGTH_MEASURE( 1.000000000000000082E-05 ), #267, 'distance_accuracy_value', 'NONE');
#315 = FILL_AREA_STYLE_COLOUR ( '', #205 ) ;
#316 =( NAMED_UNIT ( * ) PLANE_ANGLE_UNIT ( ) SI_UNIT ( $, .RADIAN. ) );
#317 =( LENGTH_UNIT ( ) NAMED_UNIT ( * ) SI_UNIT ( .MILLI., .METRE. ) );
#318 =( GEOMETRIC_REPRESENTATION_CONTEXT ( 3 ) GLOBAL_UNCERTAINTY_ASSIGNED_CONTEXT ( ( #106 ) ) GLOBAL_UNIT_ASSIGNED_CONTEXT ( ( #317, #233, #259 ) ) REPRESENTATION_CONTEXT ( 'NONE', 'WORKASPACE' ) );
#319 = SHAPE_DEFINITION_REPRESENTATION ( #286, #170 ) ;
#320 = FILL_AREA_STYLE_COLOUR ( '', #133 ) ;
#321 = EDGE_CURVE ( 'NONE', #271, #361, #147, .T. ) ;
#322 = ORIENTED_EDGE ( 'NONE', *, *, #321, .T. ) ;
#323 = DIRECTION ( 'NONE',  ( -0.000000000000000000, -1.000000000000000000, -0.000000000000000000 ) ) ;
#324 = ORIENTED_EDGE ( 'NONE', *, *, #58, .F. ) ;
#325 = EDGE_LOOP ( 'NONE', ( #322, #129, #324, #33 ) ) ;
#326 = DIRECTION ( 'NONE',  ( -0.000000000000000000, -1.000000000000000000, -0.000000000000000000 ) ) ;
#327 = CYLINDRICAL_SURFACE ( 'NONE', #31, 5.999999999999998224 ) ;
#328 = APPLICATION_CONTEXT ( 'automotive_design' ) ;
#329 = COLOUR_RGB ( '',1.000000000000000000, 0.000000000000000000, 0.000000000000000000 ) ;
#330 = CARTESIAN_POINT ( 'NONE',  ( -5.999999999999989342, 18.00000000000000355, 0.000000000000000000 ) ) ;
#331 = CARTESIAN_POINT ( 'NONE',  ( 0.000000000000000000, 0.000000000000000000, 0.000000000000000000 ) ) ;
#332 = UNCERTAINTY_MEASURE_WITH_UNIT (LENGTH_MEASURE( 1.000000000000000082E-05 ), #114, 'distance_accuracy_value', 'NONE');
#333 = DIRECTION ( 'NONE',  ( -0.000000000000000000, -1.000000000000000000, -0.000000000000000000 ) ) ;
#334 = PRESENTATION_STYLE_ASSIGNMENT (( #190 ) ) ;
#335 = PRESENTATION_LAYER_ASSIGNMENT (  '', '', ( #163 ) ) ;
#336 = SURFACE_SIDE_STYLE ('',( #183 ) ) ;
#337 = SURFACE_STYLE_USAGE ( .BOTH. , #360 ) ;
#338 = FACE_OUTER_BOUND ( 'NONE', #354, .T. ) ;
#339 = CARTESIAN_POINT ( 'NONE',  ( -1.469576158976823750E-15, 75.00000000000000000, 0.000000000000000000 ) ) ;
#340 = LINE ( 'NONE', #308, #28 ) ;
#341 = ADVANCED_FACE ( 'NONE', ( #338 ), #109, .T. ) ;
#342 = AXIS2_PLACEMENT_3D ( 'NONE', #297, #143, #276 ) ;
#343 = FILL_AREA_STYLE ('',( #255 ) ) ;
#344 = ADVANCED_FACE ( 'NONE', ( #279 ), #79, .F. ) ;
#345 = VERTEX_POINT ( 'NONE', #364 ) ;
#346 = CARTESIAN_POINT ( 'NONE',  ( 5.421010862427522170E-15, 18.00000000000000000, 0.000000000000000000 ) ) ;
#347 = AXIS2_PLACEMENT_3D ( 'NONE', #38, #304, #69 ) ;
#348 = ADVANCED_FACE ( 'NONE', ( #22 ), #200, .F. ) ;
#349 = SURFACE_STYLE_USAGE ( .BOTH. , #120 ) ;
#350 = SURFACE_STYLE_FILL_AREA ( #264 ) ;
#351 = ORIENTED_EDGE ( 'NONE', *, *, #58, .T. ) ;
#352 = PRODUCT_CONTEXT ( 'NONE', #72, 'mechanical' ) ;
#353 =( GEOMETRIC_REPRESENTATION_CONTEXT ( 3 ) GLOBAL_UNCERTAINTY_ASSIGNED_CONTEXT ( ( #41 ) ) GLOBAL_UNIT_ASSIGNED_CONTEXT ( ( #221, #45, #135 ) ) REPRESENTATION_CONTEXT ( 'NONE', 'WORKASPACE' ) );
#354 = EDGE_LOOP ( 'NONE', ( #208, #165, #272, #212 ) ) ;
#355 = DIRECTION ( 'NONE',  ( 0.000000000000000000, 0.000000000000000000, -1.000000000000000000 ) ) ;
#356 = ORIENTED_EDGE ( 'NONE', *, *, #277, .F. ) ;
#357 = STYLED_ITEM ( 'NONE', ( #227 ), #369 ) ;
#358 = EDGE_CURVE ( 'NONE', #189, #100, #18, .T. ) ;
#359 = ORIENTED_EDGE ( 'NONE', *, *, #76, .T. ) ;
#360 = SURFACE_SIDE_STYLE ('',( #66 ) ) ;
#361 = VERTEX_POINT ( 'NONE', #171 ) ;
#362 = UNCERTAINTY_MEASURE_WITH_UNIT (LENGTH_MEASURE( 1.000000000000000082E-05 ), #313, 'distance_accuracy_value', 'NONE');
#363 = AXIS2_PLACEMENT_3D ( 'NONE', #339, #140, #234 ) ;
#364 = CARTESIAN_POINT ( 'NONE',  ( 7.347880794884119736E-16, 18.00000000000000000, 6.000000000000000000 ) ) ;
#365 =( NAMED_UNIT ( * ) PLANE_ANGLE_UNIT ( ) SI_UNIT ( $, .RADIAN. ) );
#366 = MECHANICAL_DESIGN_GEOMETRIC_PRESENTATION_REPRESENTATION (  '', ( #53 ), #353 ) ;
#367 = CIRCLE ( 'NONE', #176, 1.000000000000000000 ) ;
#368 = CARTESIAN_POINT ( 'NONE',  ( 5.421010862427522170E-15, 18.00000000000000355, 0.000000000000000000 ) ) ;
#369 = MANIFOLD_SOLID_BREP ( 'Revolve - Tool Body (Straight Shanked)', #273 ) ;
#370 = AXIS2_PLACEMENT_3D ( 'NONE', #194, #26, #97 ) ;
ENDSEC;
END-ISO-10303-21;
