ISO-10303-21;
HEADER;
FILE_DESCRIPTION (( 'STEP AP214' ),
    '1' );
FILE_NAME ('59661.STEP',
    '2023-07-24T15:20:57',
    ( '' ),
    ( '' ),
    'SwSTEP 2.0',
    'SolidWorks 2023',
    '' );
FILE_SCHEMA (( 'AUTOMOTIVE_DESIGN' ));
ENDSEC;

DATA;
#1 = LINE ( 'NONE', #57, #91 ) ;
#2 = ORIENTED_EDGE ( 'NONE', *, *, #59, .T. ) ;
#3 = PRODUCT ( '59661', '59661', '', ( #206 ) ) ;
#4 = SURFACE_SIDE_STYLE ('',( #172 ) ) ;
#5 = EDGE_LOOP ( 'NONE', ( #56, #222 ) ) ;
#6 = AXIS2_PLACEMENT_3D ( 'NONE', #195, #50, #289 ) ;
#7 = ORIENTED_EDGE ( 'NONE', *, *, #367, .F. ) ;
#8 =( NAMED_UNIT ( * ) PLANE_ANGLE_UNIT ( ) SI_UNIT ( $, .RADIAN. ) );
#9 = ORIENTED_EDGE ( 'NONE', *, *, #299, .T. ) ;
#10 = DIRECTION ( 'NONE',  ( -0.000000000000000000, -1.000000000000000000, -0.000000000000000000 ) ) ;
#11 =( GEOMETRIC_REPRESENTATION_CONTEXT ( 3 ) GLOBAL_UNCERTAINTY_ASSIGNED_CONTEXT ( ( #79 ) ) GLOBAL_UNIT_ASSIGNED_CONTEXT ( ( #285, #308, #342 ) ) REPRESENTATION_CONTEXT ( 'NONE', 'WORKASPACE' ) );
#12 =( NAMED_UNIT ( * ) SI_UNIT ( $, .STERADIAN. ) SOLID_ANGLE_UNIT ( ) );
#13 = CARTESIAN_POINT ( 'NONE',  ( -1.469576158976823750E-15, 75.00000000000000000, 0.000000000000000000 ) ) ;
#14 =( LENGTH_UNIT ( ) NAMED_UNIT ( * ) SI_UNIT ( .MILLI., .METRE. ) );
#15 = PRESENTATION_STYLE_ASSIGNMENT (( #292 ) ) ;
#16 = SHAPE_DEFINITION_REPRESENTATION ( #365, #68 ) ;
#17 = DIRECTION ( 'NONE',  ( 0.000000000000000000, 0.000000000000000000, -1.000000000000000000 ) ) ;
#18 =( GEOMETRIC_REPRESENTATION_CONTEXT ( 3 ) GLOBAL_UNCERTAINTY_ASSIGNED_CONTEXT ( ( #250 ) ) GLOBAL_UNIT_ASSIGNED_CONTEXT ( ( #315, #259, #196 ) ) REPRESENTATION_CONTEXT ( 'NONE', 'WORKASPACE' ) );
#19 = AXIS2_PLACEMENT_3D ( 'NONE', #135, #334, #279 ) ;
#20 = DIRECTION ( 'NONE',  ( 0.000000000000000000, 0.000000000000000000, 1.000000000000000000 ) ) ;
#21 = DIRECTION ( 'NONE',  ( -1.000000000000000000, 0.000000000000000000, 0.000000000000000000 ) ) ;
#22 = CARTESIAN_POINT ( 'NONE',  ( 0.000000000000000000, 24.00000000000000000, 0.000000000000000000 ) ) ;
#23 = MANIFOLD_SOLID_BREP ( 'Revolve - Cutting Edge', #316 ) ;
#24 = CIRCLE ( 'NONE', #174, 1.000000000000000000 ) ;
#25 = FACE_OUTER_BOUND ( 'NONE', #263, .T. ) ;
#26 = DIRECTION ( 'NONE',  ( 0.000000000000000000, 0.000000000000000000, 1.000000000000000000 ) ) ;
#27 = PRESENTATION_LAYER_ASSIGNMENT (  '', '', ( #344 ) ) ;
#28 = FILL_AREA_STYLE_COLOUR ( '', #48 ) ;
#29 = ORIENTED_EDGE ( 'NONE', *, *, #120, .F. ) ;
#30 = PLANE ( 'NONE',  #6 ) ;
#31 = VERTEX_POINT ( 'NONE', #199 ) ;
#32 = ADVANCED_FACE ( 'NONE', ( #320 ), #219, .T. ) ;
#33 = AXIS2_PLACEMENT_3D ( 'NONE', #217, #364, #46 ) ;
#34 = COLOUR_RGB ( '',1.000000000000000000, 0.000000000000000000, 0.000000000000000000 ) ;
#35 = PRESENTATION_STYLE_ASSIGNMENT (( #255 ) ) ;
#36 = ORIENTED_EDGE ( 'NONE', *, *, #367, .T. ) ;
#37 = DIRECTION ( 'NONE',  ( -1.223542297630008506E-16, 1.000000000000000000, -0.000000000000000000 ) ) ;
#38 =( NAMED_UNIT ( * ) PLANE_ANGLE_UNIT ( ) SI_UNIT ( $, .RADIAN. ) );
#39 = SURFACE_SIDE_STYLE ('',( #93 ) ) ;
#40 = AXIS2_PLACEMENT_3D ( 'NONE', #326, #242, #358 ) ;
#41 = CARTESIAN_POINT ( 'NONE',  ( 6.000000000000000000, 24.00000000000000000, 7.347880794884120722E-16 ) ) ;
#42 = DIRECTION ( 'NONE',  ( -0.000000000000000000, -1.000000000000000000, -0.000000000000000000 ) ) ;
#43 =( GEOMETRIC_REPRESENTATION_CONTEXT ( 3 ) GLOBAL_UNCERTAINTY_ASSIGNED_CONTEXT ( ( #296 ) ) GLOBAL_UNIT_ASSIGNED_CONTEXT ( ( #314, #8, #148 ) ) REPRESENTATION_CONTEXT ( 'NONE', 'WORKASPACE' ) );
#44 = UNCERTAINTY_MEASURE_WITH_UNIT (LENGTH_MEASURE( 1.000000000000000082E-05 ), #293, 'distance_accuracy_value', 'NONE');
#45 = SURFACE_STYLE_USAGE ( .BOTH. , #218 ) ;
#46 = DIRECTION ( 'NONE',  ( -1.000000000000000000, 0.000000000000000000, 0.000000000000000000 ) ) ;
#47 = EDGE_LOOP ( 'NONE', ( #62, #9, #29, #228 ) ) ;
#48 = COLOUR_RGB ( '',1.000000000000000000, 0.000000000000000000, 0.000000000000000000 ) ;
#49 =( NAMED_UNIT ( * ) SI_UNIT ( $, .STERADIAN. ) SOLID_ANGLE_UNIT ( ) );
#50 = DIRECTION ( 'NONE',  ( 0.000000000000000000, -1.000000000000000000, -0.000000000000000000 ) ) ;
#51 = SURFACE_STYLE_FILL_AREA ( #83 ) ;
#52 = MECHANICAL_DESIGN_GEOMETRIC_PRESENTATION_REPRESENTATION (  '', ( #215 ), #43 ) ;
#53 = EDGE_LOOP ( 'NONE', ( #341, #190, #283, #290 ) ) ;
#54 = DIRECTION ( 'NONE',  ( 1.000000000000000000, 0.000000000000000000, -1.224646799147353207E-16 ) ) ;
#55 = ORIENTED_EDGE ( 'NONE', *, *, #225, .T. ) ;
#56 = ORIENTED_EDGE ( 'NONE', *, *, #120, .T. ) ;
#57 = CARTESIAN_POINT ( 'NONE',  ( 7.347880794884119736E-16, 0.000000000000000000, 6.000000000000000000 ) ) ;
#58 = AXIS2_PLACEMENT_3D ( 'NONE', #152, #357, #323 ) ;
#59 = EDGE_CURVE ( 'NONE', #104, #60, #270, .T. ) ;
#60 = VERTEX_POINT ( 'NONE', #209 ) ;
#61 =( GEOMETRIC_REPRESENTATION_CONTEXT ( 3 ) GLOBAL_UNCERTAINTY_ASSIGNED_CONTEXT ( ( #359 ) ) GLOBAL_UNIT_ASSIGNED_CONTEXT ( ( #294, #151, #69 ) ) REPRESENTATION_CONTEXT ( 'NONE', 'WORKASPACE' ) );
#62 = ORIENTED_EDGE ( 'NONE', *, *, #95, .T. ) ;
#63 = DIRECTION ( 'NONE',  ( 0.000000000000000000, 0.000000000000000000, -1.000000000000000000 ) ) ;
#64 =( NAMED_UNIT ( * ) PLANE_ANGLE_UNIT ( ) SI_UNIT ( $, .RADIAN. ) );
#65 = DIRECTION ( 'NONE',  ( -1.000000000000000000, -1.223542297630008506E-16, 0.000000000000000000 ) ) ;
#66 = CARTESIAN_POINT ( 'NONE',  ( 0.000000000000000000, 0.000000000000000000, 0.000000000000000000 ) ) ;
#67 = PRESENTATION_STYLE_ASSIGNMENT (( #72 ) ) ;
#68 = ADVANCED_BREP_SHAPE_REPRESENTATION ( '59661', ( #23, #147, #307 ), #337 ) ;
#69 =( NAMED_UNIT ( * ) SI_UNIT ( $, .STERADIAN. ) SOLID_ANGLE_UNIT ( ) );
#70 = UNCERTAINTY_MEASURE_WITH_UNIT (LENGTH_MEASURE( 1.000000000000000082E-05 ), #109, 'distance_accuracy_value', 'NONE');
#71 = CARTESIAN_POINT ( 'NONE',  ( 5.999999999999996447, 75.00000000000000000, 7.347880794884117764E-16 ) ) ;
#72 = SURFACE_STYLE_USAGE ( .BOTH. , #207 ) ;
#73 = EDGE_CURVE ( 'NONE', #348, #104, #154, .T. ) ;
#74 = CARTESIAN_POINT ( 'NONE',  ( 0.000000000000000000, 1.000000000000000000, -5.000000000000000000 ) ) ;
#75 = DIRECTION ( 'NONE',  ( -1.000000000000000000, 0.000000000000000000, 0.000000000000000000 ) ) ;
#76 = VERTEX_POINT ( 'NONE', #101 ) ;
#77 =( GEOMETRIC_REPRESENTATION_CONTEXT ( 3 ) GLOBAL_UNCERTAINTY_ASSIGNED_CONTEXT ( ( #276 ) ) GLOBAL_UNIT_ASSIGNED_CONTEXT ( ( #295, #128, #269 ) ) REPRESENTATION_CONTEXT ( 'NONE', 'WORKASPACE' ) );
#78 = COLOUR_RGB ( '',1.000000000000000000, 0.000000000000000000, 0.000000000000000000 ) ;
#79 = UNCERTAINTY_MEASURE_WITH_UNIT (LENGTH_MEASURE( 1.000000000000000082E-05 ), #285, 'distance_accuracy_value', 'NONE');
#80 = SURFACE_SIDE_STYLE ('',( #51 ) ) ;
#81 = SURFACE_STYLE_USAGE ( .BOTH. , #4 ) ;
#82 = EDGE_LOOP ( 'NONE', ( #119, #162, #90, #7 ) ) ;
#83 = FILL_AREA_STYLE ('',( #89 ) ) ;
#84 = CIRCLE ( 'NONE', #138, 6.000000000000000000 ) ;
#85 = SURFACE_STYLE_USAGE ( .BOTH. , #343 ) ;
#86 =( GEOMETRIC_REPRESENTATION_CONTEXT ( 3 ) GLOBAL_UNCERTAINTY_ASSIGNED_CONTEXT ( ( #133 ) ) GLOBAL_UNIT_ASSIGNED_CONTEXT ( ( #231, #319, #204 ) ) REPRESENTATION_CONTEXT ( 'NONE', 'WORKASPACE' ) );
#87 = SURFACE_SIDE_STYLE ('',( #264 ) ) ;
#88 = ORIENTED_EDGE ( 'NONE', *, *, #59, .F. ) ;
#89 = FILL_AREA_STYLE_COLOUR ( '', #317 ) ;
#90 = ORIENTED_EDGE ( 'NONE', *, *, #95, .F. ) ;
#91 = VECTOR ( 'NONE', #117, 1000.000000000000000 ) ;
#92 = DIRECTION ( 'NONE',  ( -0.000000000000000000, -1.000000000000000000, -0.000000000000000000 ) ) ;
#93 = SURFACE_STYLE_FILL_AREA ( #224 ) ;
#94 = DIRECTION ( 'NONE',  ( -1.223542297630008506E-16, 1.000000000000000000, -0.000000000000000000 ) ) ;
#95 = EDGE_CURVE ( 'NONE', #258, #346, #105, .T. ) ;
#96 = SURFACE_STYLE_USAGE ( .BOTH. , #177 ) ;
#97 = CARTESIAN_POINT ( 'NONE',  ( 0.000000000000000000, 24.00000000000000000, 0.000000000000000000 ) ) ;
#98 = AXIS2_PLACEMENT_3D ( 'NONE', #107, #192, #189 ) ;
#99 = CIRCLE ( 'NONE', #40, 6.000000000000000000 ) ;
#100 = FILL_AREA_STYLE_COLOUR ( '', #106 ) ;
#101 = CARTESIAN_POINT ( 'NONE',  ( 0.000000000000000000, 24.00000000000000000, -6.000000000000000000 ) ) ;
#102 = CARTESIAN_POINT ( 'NONE',  ( -1.469576158976823750E-15, 75.00000000000000000, 0.000000000000000000 ) ) ;
#103 = DIRECTION ( 'NONE',  ( -1.223542297630008506E-16, 1.000000000000000000, -0.000000000000000000 ) ) ;
#104 = VERTEX_POINT ( 'NONE', #132 ) ;
#105 = CIRCLE ( 'NONE', #360, 6.000000000000000000 ) ;
#106 = COLOUR_RGB ( '',1.000000000000000000, 0.000000000000000000, 0.000000000000000000 ) ;
#107 = CARTESIAN_POINT ( 'NONE',  ( 6.000000000000000000, 75.00000000000000000, 0.000000000000000000 ) ) ;
#108 = PRODUCT_DEFINITION ( 'UNKNOWN', '', #318, #213 ) ;
#109 =( LENGTH_UNIT ( ) NAMED_UNIT ( * ) SI_UNIT ( .MILLI., .METRE. ) );
#110 = AXIS2_PLACEMENT_3D ( 'NONE', #236, #211, #65 ) ;
#111 = DIRECTION ( 'NONE',  ( -1.223542297630008506E-16, 1.000000000000000000, -0.000000000000000000 ) ) ;
#112 = FACE_OUTER_BOUND ( 'NONE', #232, .T. ) ;
#113 = ORIENTED_EDGE ( 'NONE', *, *, #249, .F. ) ;
#114 = ADVANCED_FACE ( 'NONE', ( #126 ), #205, .F. ) ;
#115 = DIRECTION ( 'NONE',  ( 0.000000000000000000, 0.000000000000000000, -1.000000000000000000 ) ) ;
#116 = ORIENTED_EDGE ( 'NONE', *, *, #156, .T. ) ;
#117 = DIRECTION ( 'NONE',  ( -0.000000000000000000, -1.000000000000000000, -0.000000000000000000 ) ) ;
#118 = VECTOR ( 'NONE', #214, 1000.000000000000000 ) ;
#119 = ORIENTED_EDGE ( 'NONE', *, *, #139, .T. ) ;
#120 = EDGE_CURVE ( 'NONE', #229, #136, #350, .T. ) ;
#121 = PRESENTATION_STYLE_ASSIGNMENT (( #85 ) ) ;
#122 = PRESENTATION_STYLE_ASSIGNMENT (( #262 ) ) ;
#123 = DIRECTION ( 'NONE',  ( -1.000000000000000000, 0.000000000000000000, 0.000000000000000000 ) ) ;
#124 = AXIS2_PLACEMENT_3D ( 'NONE', #22, #274, #165 ) ;
#125 = CARTESIAN_POINT ( 'NONE',  ( 0.000000000000000000, 1.000000000000000000, 0.000000000000000000 ) ) ;
#126 = FACE_OUTER_BOUND ( 'NONE', #302, .T. ) ;
#127 = EDGE_CURVE ( 'NONE', #348, #332, #246, .T. ) ;
#128 =( NAMED_UNIT ( * ) PLANE_ANGLE_UNIT ( ) SI_UNIT ( $, .RADIAN. ) );
#129 = STYLED_ITEM ( 'NONE', ( #15 ), #32 ) ;
#130 = AXIS2_PLACEMENT_3D ( 'NONE', #102, #103, #75 ) ;
#131 = PRESENTATION_LAYER_ASSIGNMENT (  '', '', ( #362 ) ) ;
#132 = CARTESIAN_POINT ( 'NONE',  ( 6.000000000000000000, 75.00000000000000000, 7.347880794884119736E-16 ) ) ;
#133 = UNCERTAINTY_MEASURE_WITH_UNIT (LENGTH_MEASURE( 1.000000000000000082E-05 ), #231, 'distance_accuracy_value', 'NONE');
#134 = CARTESIAN_POINT ( 'NONE',  ( 4.770489558936219510E-15, 24.00000000000000000, 0.000000000000000000 ) ) ;
#135 = CARTESIAN_POINT ( 'NONE',  ( 0.000000000000000000, 0.000000000000000000, 0.000000000000000000 ) ) ;
#136 = VERTEX_POINT ( 'NONE', #297 ) ;
#137 = FACE_OUTER_BOUND ( 'NONE', #142, .T. ) ;
#138 = AXIS2_PLACEMENT_3D ( 'NONE', #97, #42, #183 ) ;
#139 = EDGE_CURVE ( 'NONE', #76, #31, #84, .T. ) ;
#140 = FILL_AREA_STYLE_COLOUR ( '', #260 ) ;
#141 = ORIENTED_EDGE ( 'NONE', *, *, #333, .F. ) ;
#142 = EDGE_LOOP ( 'NONE', ( #347, #173, #55, #88 ) ) ;
#143 = EDGE_CURVE ( 'NONE', #346, #258, #99, .T. ) ;
#144 =( GEOMETRIC_REPRESENTATION_CONTEXT ( 3 ) GLOBAL_UNCERTAINTY_ASSIGNED_CONTEXT ( ( #70 ) ) GLOBAL_UNIT_ASSIGNED_CONTEXT ( ( #109, #159, #164 ) ) REPRESENTATION_CONTEXT ( 'NONE', 'WORKASPACE' ) );
#145 = DIRECTION ( 'NONE',  ( -0.000000000000000000, -1.000000000000000000, -0.000000000000000000 ) ) ;
#146 = EDGE_LOOP ( 'NONE', ( #116, #2 ) ) ;
#147 = MANIFOLD_SOLID_BREP ( 'Revolve - Tool Body (Straight Shanked)', #349 ) ;
#148 =( NAMED_UNIT ( * ) SI_UNIT ( $, .STERADIAN. ) SOLID_ANGLE_UNIT ( ) );
#149 = FILL_AREA_STYLE_COLOUR ( '', #180 ) ;
#150 = DIRECTION ( 'NONE',  ( 0.000000000000000000, 0.000000000000000000, -1.000000000000000000 ) ) ;
#151 =( NAMED_UNIT ( * ) PLANE_ANGLE_UNIT ( ) SI_UNIT ( $, .RADIAN. ) );
#152 = CARTESIAN_POINT ( 'NONE',  ( 0.000000000000000000, 1.000000000000000000, 0.000000000000000000 ) ) ;
#153 = CARTESIAN_POINT ( 'NONE',  ( 0.000000000000000000, 0.000000000000000000, -6.000000000000000000 ) ) ;
#154 = LINE ( 'NONE', #71, #253 ) ;
#155 = FILL_AREA_STYLE ('',( #100 ) ) ;
#156 = EDGE_CURVE ( 'NONE', #60, #104, #181, .T. ) ;
#157 = AXIS2_PLACEMENT_3D ( 'NONE', #282, #145, #115 ) ;
#158 = FACE_OUTER_BOUND ( 'NONE', #146, .T. ) ;
#159 =( NAMED_UNIT ( * ) PLANE_ANGLE_UNIT ( ) SI_UNIT ( $, .RADIAN. ) );
#160 = SURFACE_STYLE_FILL_AREA ( #301 ) ;
#161 = ADVANCED_FACE ( 'NONE', ( #158 ), #329, .F. ) ;
#162 = ORIENTED_EDGE ( 'NONE', *, *, #333, .T. ) ;
#163 = AXIS2_PLACEMENT_3D ( 'NONE', #248, #216, #185 ) ;
#164 =( NAMED_UNIT ( * ) SI_UNIT ( $, .STERADIAN. ) SOLID_ANGLE_UNIT ( ) );
#165 = DIRECTION ( 'NONE',  ( 0.000000000000000000, -0.000000000000000000, 1.000000000000000000 ) ) ;
#166 = DIRECTION ( 'NONE',  ( -1.224646799147352468E-16, 0.000000000000000000, -1.000000000000000000 ) ) ;
#167 = ORIENTED_EDGE ( 'NONE', *, *, #249, .T. ) ;
#168 = MECHANICAL_DESIGN_GEOMETRIC_PRESENTATION_REPRESENTATION (  '', ( #328 ), #11 ) ;
#169 = CARTESIAN_POINT ( 'NONE',  ( 6.123233995736766282E-16, 1.000000000000000000, 5.000000000000000000 ) ) ;
#170 = ORIENTED_EDGE ( 'NONE', *, *, #171, .T. ) ;
#171 = EDGE_CURVE ( 'NONE', #258, #229, #24, .T. ) ;
#172 = SURFACE_STYLE_FILL_AREA ( #200 ) ;
#173 = ORIENTED_EDGE ( 'NONE', *, *, #127, .T. ) ;
#174 = AXIS2_PLACEMENT_3D ( 'NONE', #74, #275, #26 ) ;
#175 = FILL_AREA_STYLE_COLOUR ( '', #34 ) ;
#176 = ORIENTED_EDGE ( 'NONE', *, *, #299, .F. ) ;
#177 = SURFACE_SIDE_STYLE ('',( #266 ) ) ;
#178 = DIRECTION ( 'NONE',  ( 0.000000000000000000, 0.000000000000000000, -1.000000000000000000 ) ) ;
#179 = PRESENTATION_STYLE_ASSIGNMENT (( #96 ) ) ;
#180 = COLOUR_RGB ( '',0.7921568627450980005, 0.8196078431372548767, 0.9333333333333333481 ) ;
#181 = CIRCLE ( 'NONE', #130, 6.000000000000001776 ) ;
#182 = CARTESIAN_POINT ( 'NONE',  ( 7.347880794884118750E-16, 1.000000000000000000, 6.000000000000000000 ) ) ;
#183 = DIRECTION ( 'NONE',  ( 0.000000000000000000, 0.000000000000000000, -1.000000000000000000 ) ) ;
#184 = DIRECTION ( 'NONE',  ( -1.000000000000000000, 0.000000000000000000, 0.000000000000000000 ) ) ;
#185 = DIRECTION ( 'NONE',  ( 0.000000000000000000, 0.000000000000000000, -1.000000000000000000 ) ) ;
#186 = AXIS2_PLACEMENT_3D ( 'NONE', #327, #238, #17 ) ;
#187 = FACE_OUTER_BOUND ( 'NONE', #53, .T. ) ;
#188 = ORIENTED_EDGE ( 'NONE', *, *, #143, .F. ) ;
#189 = DIRECTION ( 'NONE',  ( 1.000000000000000000, 1.223542297630008506E-16, 0.000000000000000000 ) ) ;
#190 = ORIENTED_EDGE ( 'NONE', *, *, #73, .T. ) ;
#191 = MECHANICAL_DESIGN_GEOMETRIC_PRESENTATION_REPRESENTATION (  '', ( #208 ), #18 ) ;
#192 = DIRECTION ( 'NONE',  ( 1.223542297630008506E-16, -1.000000000000000000, 0.000000000000000000 ) ) ;
#193 = ADVANCED_FACE ( 'NONE', ( #187 ), #338, .T. ) ;
#194 = ORIENTED_EDGE ( 'NONE', *, *, #127, .F. ) ;
#195 = CARTESIAN_POINT ( 'NONE',  ( 0.000000000000000000, 0.000000000000000000, 0.000000000000000000 ) ) ;
#196 =( NAMED_UNIT ( * ) SI_UNIT ( $, .STERADIAN. ) SOLID_ANGLE_UNIT ( ) );
#197 = APPLICATION_CONTEXT ( 'automotive_design' ) ;
#198 = PRESENTATION_STYLE_ASSIGNMENT (( #81 ) ) ;
#199 = CARTESIAN_POINT ( 'NONE',  ( 7.347880794884119736E-16, 24.00000000000000000, 6.000000000000000000 ) ) ;
#200 = FILL_AREA_STYLE ('',( #28 ) ) ;
#201 = AXIS2_PLACEMENT_3D ( 'NONE', #13, #272, #123 ) ;
#202 = AXIS2_PLACEMENT_3D ( 'NONE', #66, #321, #63 ) ;
#203 = EDGE_CURVE ( 'NONE', #136, #229, #281, .T. ) ;
#204 =( NAMED_UNIT ( * ) SI_UNIT ( $, .STERADIAN. ) SOLID_ANGLE_UNIT ( ) );
#205 = PLANE ( 'NONE',  #110 ) ;
#206 = PRODUCT_CONTEXT ( 'NONE', #197, 'mechanical' ) ;
#207 = SURFACE_SIDE_STYLE ('',( #265 ) ) ;
#208 = STYLED_ITEM ( 'NONE', ( #121 ), #23 ) ;
#209 = CARTESIAN_POINT ( 'NONE',  ( -6.000000000000003553, 75.00000000000000000, 0.000000000000000000 ) ) ;
#210 = AXIS2_PLACEMENT_3D ( 'NONE', #169, #54, #166 ) ;
#211 = DIRECTION ( 'NONE',  ( -1.223542297630008506E-16, 1.000000000000000000, 0.000000000000000000 ) ) ;
#212 = FILL_AREA_STYLE_COLOUR ( '', #306 ) ;
#213 = PRODUCT_DEFINITION_CONTEXT ( 'detailed design', #237, 'design' ) ;
#214 = DIRECTION ( 'NONE',  ( -1.223542297630008506E-16, 1.000000000000000000, -0.000000000000000000 ) ) ;
#215 = STYLED_ITEM ( 'NONE', ( #198 ), #309 ) ;
#216 = DIRECTION ( 'NONE',  ( -0.000000000000000000, -1.000000000000000000, -0.000000000000000000 ) ) ;
#217 = CARTESIAN_POINT ( 'NONE',  ( -1.469576158976823750E-15, 75.00000000000000000, 0.000000000000000000 ) ) ;
#218 = SURFACE_SIDE_STYLE ('',( #160 ) ) ;
#219 = TOROIDAL_SURFACE ( 'NONE', #58, 5.000000000000000000, 0.9999999999999995559 ) ;
#220 = MECHANICAL_DESIGN_GEOMETRIC_PRESENTATION_REPRESENTATION (  '', ( #362 ), #61 ) ;
#221 = PLANE ( 'NONE',  #124 ) ;
#222 = ORIENTED_EDGE ( 'NONE', *, *, #203, .T. ) ;
#223 = CYLINDRICAL_SURFACE ( 'NONE', #202, 6.000000000000000000 ) ;
#224 = FILL_AREA_STYLE ('',( #140 ) ) ;
#225 = EDGE_CURVE ( 'NONE', #332, #60, #245, .T. ) ;
#226 =( GEOMETRIC_REPRESENTATION_CONTEXT ( 3 ) GLOBAL_UNCERTAINTY_ASSIGNED_CONTEXT ( ( #44 ) ) GLOBAL_UNIT_ASSIGNED_CONTEXT ( ( #293, #64, #49 ) ) REPRESENTATION_CONTEXT ( 'NONE', 'WORKASPACE' ) );
#227 = FACE_OUTER_BOUND ( 'NONE', #82, .T. ) ;
#228 = ORIENTED_EDGE ( 'NONE', *, *, #171, .F. ) ;
#229 = VERTEX_POINT ( 'NONE', #363 ) ;
#230 = ADVANCED_FACE ( 'NONE', ( #25 ), #221, .T. ) ;
#231 =( LENGTH_UNIT ( ) NAMED_UNIT ( * ) SI_UNIT ( .MILLI., .METRE. ) );
#232 = EDGE_LOOP ( 'NONE', ( #141, #167, #36, #188 ) ) ;
#233 = AXIS2_PLACEMENT_3D ( 'NONE', #368, #111, #21 ) ;
#234 = FACE_OUTER_BOUND ( 'NONE', #370, .T. ) ;
#235 = CARTESIAN_POINT ( 'NONE',  ( 0.000000000000000000, 1.000000000000000000, 0.000000000000000000 ) ) ;
#236 = CARTESIAN_POINT ( 'NONE',  ( 4.770489558936219510E-15, 24.00000000000000000, 0.000000000000000000 ) ) ;
#237 = APPLICATION_CONTEXT ( 'automotive_design' ) ;
#238 = DIRECTION ( 'NONE',  ( -0.000000000000000000, -1.000000000000000000, -0.000000000000000000 ) ) ;
#239 = APPLICATION_PROTOCOL_DEFINITION ( 'draft international standard', 'automotive_design', 1998, #197 ) ;
#240 = CIRCLE ( 'NONE', #163, 6.000000000000000000 ) ;
#241 = PRESENTATION_LAYER_ASSIGNMENT (  '', '', ( #325 ) ) ;
#242 = DIRECTION ( 'NONE',  ( -0.000000000000000000, -1.000000000000000000, -0.000000000000000000 ) ) ;
#243 = DIRECTION ( 'NONE',  ( -1.223542297630008506E-16, 1.000000000000000000, -0.000000000000000000 ) ) ;
#244 = PRODUCT_RELATED_PRODUCT_CATEGORY ( 'part', '', ( #3 ) ) ;
#245 = LINE ( 'NONE', #277, #118 ) ;
#246 = CIRCLE ( 'NONE', #300, 5.999999999999996447 ) ;
#247 = VECTOR ( 'NONE', #10, 1000.000000000000000 ) ;
#248 = CARTESIAN_POINT ( 'NONE',  ( 0.000000000000000000, 24.00000000000000000, 0.000000000000000000 ) ) ;
#249 = EDGE_CURVE ( 'NONE', #31, #76, #240, .T. ) ;
#250 = UNCERTAINTY_MEASURE_WITH_UNIT (LENGTH_MEASURE( 1.000000000000000082E-05 ), #315, 'distance_accuracy_value', 'NONE');
#251 = PRESENTATION_STYLE_ASSIGNMENT (( #45 ) ) ;
#252 = CYLINDRICAL_SURFACE ( 'NONE', #233, 5.999999999999998224 ) ;
#253 = VECTOR ( 'NONE', #37, 1000.000000000000000 ) ;
#254 = CIRCLE ( 'NONE', #210, 1.000000000000000000 ) ;
#255 = SURFACE_STYLE_USAGE ( .BOTH. , #80 ) ;
#256 = ORIENTED_EDGE ( 'NONE', *, *, #143, .T. ) ;
#257 = CARTESIAN_POINT ( 'NONE',  ( -5.999999999999991118, 24.00000000000000000, 0.000000000000000000 ) ) ;
#258 = VERTEX_POINT ( 'NONE', #280 ) ;
#259 =( NAMED_UNIT ( * ) PLANE_ANGLE_UNIT ( ) SI_UNIT ( $, .RADIAN. ) );
#260 = COLOUR_RGB ( '',1.000000000000000000, 0.000000000000000000, 0.000000000000000000 ) ;
#261 = PRESENTATION_LAYER_ASSIGNMENT (  '', '', ( #215 ) ) ;
#262 = SURFACE_STYLE_USAGE ( .BOTH. , #87 ) ;
#263 = EDGE_LOOP ( 'NONE', ( #313, #113 ) ) ;
#264 = SURFACE_STYLE_FILL_AREA ( #345 ) ;
#265 = SURFACE_STYLE_FILL_AREA ( #352 ) ;
#266 = SURFACE_STYLE_FILL_AREA ( #155 ) ;
#267 = DIRECTION ( 'NONE',  ( -0.000000000000000000, -1.000000000000000000, -0.000000000000000000 ) ) ;
#268 = DIRECTION ( 'NONE',  ( 1.000000000000000000, 0.000000000000000000, 0.000000000000000000 ) ) ;
#269 =( NAMED_UNIT ( * ) SI_UNIT ( $, .STERADIAN. ) SOLID_ANGLE_UNIT ( ) );
#270 = CIRCLE ( 'NONE', #201, 6.000000000000001776 ) ;
#271 = AXIS2_PLACEMENT_3D ( 'NONE', #134, #243, #361 ) ;
#272 = DIRECTION ( 'NONE',  ( -1.223542297630008506E-16, 1.000000000000000000, -0.000000000000000000 ) ) ;
#273 = ADVANCED_FACE ( 'NONE', ( #137 ), #252, .T. ) ;
#274 = DIRECTION ( 'NONE',  ( 0.000000000000000000, 1.000000000000000000, 0.000000000000000000 ) ) ;
#275 = DIRECTION ( 'NONE',  ( -1.000000000000000000, 0.000000000000000000, 0.000000000000000000 ) ) ;
#276 = UNCERTAINTY_MEASURE_WITH_UNIT (LENGTH_MEASURE( 1.000000000000000082E-05 ), #295, 'distance_accuracy_value', 'NONE');
#277 = CARTESIAN_POINT ( 'NONE',  ( -6.000000000000000000, 75.00000000000000000, 0.000000000000000000 ) ) ;
#278 = PRESENTATION_LAYER_ASSIGNMENT (  '', '', ( #208 ) ) ;
#279 = DIRECTION ( 'NONE',  ( 0.000000000000000000, 0.000000000000000000, -1.000000000000000000 ) ) ;
#280 = CARTESIAN_POINT ( 'NONE',  ( 0.000000000000000000, 1.000000000000000000, -6.000000000000000000 ) ) ;
#281 = CIRCLE ( 'NONE', #19, 5.000000000000000000 ) ;
#282 = CARTESIAN_POINT ( 'NONE',  ( 0.000000000000000000, 0.000000000000000000, 0.000000000000000000 ) ) ;
#283 = ORIENTED_EDGE ( 'NONE', *, *, #156, .F. ) ;
#284 = FILL_AREA_STYLE ('',( #149 ) ) ;
#285 =( LENGTH_UNIT ( ) NAMED_UNIT ( * ) SI_UNIT ( .MILLI., .METRE. ) );
#286 = SURFACE_STYLE_FILL_AREA ( #284 ) ;
#287 = EDGE_CURVE ( 'NONE', #332, #348, #356, .T. ) ;
#288 = PRESENTATION_LAYER_ASSIGNMENT (  '', '', ( #328 ) ) ;
#289 = DIRECTION ( 'NONE',  ( 0.000000000000000000, 0.000000000000000000, -1.000000000000000000 ) ) ;
#290 = ORIENTED_EDGE ( 'NONE', *, *, #225, .F. ) ;
#291 = LINE ( 'NONE', #153, #247 ) ;
#292 = SURFACE_STYLE_USAGE ( .BOTH. , #39 ) ;
#293 =( LENGTH_UNIT ( ) NAMED_UNIT ( * ) SI_UNIT ( .MILLI., .METRE. ) );
#294 =( LENGTH_UNIT ( ) NAMED_UNIT ( * ) SI_UNIT ( .MILLI., .METRE. ) );
#295 =( LENGTH_UNIT ( ) NAMED_UNIT ( * ) SI_UNIT ( .MILLI., .METRE. ) );
#296 = UNCERTAINTY_MEASURE_WITH_UNIT (LENGTH_MEASURE( 1.000000000000000082E-05 ), #314, 'distance_accuracy_value', 'NONE');
#297 = CARTESIAN_POINT ( 'NONE',  ( 6.735557395310443009E-16, 0.000000000000000000, 5.000000000000000000 ) ) ;
#298 = ADVANCED_FACE ( 'NONE', ( #331 ), #30, .T. ) ;
#299 = EDGE_CURVE ( 'NONE', #346, #136, #254, .T. ) ;
#300 = AXIS2_PLACEMENT_3D ( 'NONE', #354, #94, #184 ) ;
#301 = FILL_AREA_STYLE ('',( #305 ) ) ;
#302 = EDGE_LOOP ( 'NONE', ( #310, #194 ) ) ;
#303 = ORIENTED_EDGE ( 'NONE', *, *, #203, .F. ) ;
#304 = PRESENTATION_LAYER_ASSIGNMENT (  '', '', ( #129 ) ) ;
#305 = FILL_AREA_STYLE_COLOUR ( '', #78 ) ;
#306 = COLOUR_RGB ( '',0.7921568627450980005, 0.8196078431372548767, 0.9333333333333333481 ) ;
#307 = AXIS2_PLACEMENT_3D ( 'NONE', #353, #20, #268 ) ;
#308 =( NAMED_UNIT ( * ) PLANE_ANGLE_UNIT ( ) SI_UNIT ( $, .RADIAN. ) );
#309 = ADVANCED_FACE ( 'NONE', ( #112 ), #340, .T. ) ;
#310 = ORIENTED_EDGE ( 'NONE', *, *, #287, .F. ) ;
#311 = STYLED_ITEM ( 'NONE', ( #251 ), #230 ) ;
#312 = TOROIDAL_SURFACE ( 'NONE', #351, 5.000000000000000000, 0.9999999999999995559 ) ;
#313 = ORIENTED_EDGE ( 'NONE', *, *, #139, .F. ) ;
#314 =( LENGTH_UNIT ( ) NAMED_UNIT ( * ) SI_UNIT ( .MILLI., .METRE. ) );
#315 =( LENGTH_UNIT ( ) NAMED_UNIT ( * ) SI_UNIT ( .MILLI., .METRE. ) );
#316 = CLOSED_SHELL ( 'NONE', ( #339, #32, #298, #366, #309, #230 ) ) ;
#317 = COLOUR_RGB ( '',1.000000000000000000, 0.000000000000000000, 0.000000000000000000 ) ;
#318 = PRODUCT_DEFINITION_FORMATION_WITH_SPECIFIED_SOURCE ( 'ANY', '', #3, .NOT_KNOWN. ) ;
#319 =( NAMED_UNIT ( * ) PLANE_ANGLE_UNIT ( ) SI_UNIT ( $, .RADIAN. ) );
#320 = FACE_OUTER_BOUND ( 'NONE', #47, .T. ) ;
#321 = DIRECTION ( 'NONE',  ( -0.000000000000000000, -1.000000000000000000, -0.000000000000000000 ) ) ;
#322 = APPLICATION_PROTOCOL_DEFINITION ( 'draft international standard', 'automotive_design', 1998, #237 ) ;
#323 = DIRECTION ( 'NONE',  ( 0.000000000000000000, 0.000000000000000000, -1.000000000000000000 ) ) ;
#324 = MECHANICAL_DESIGN_GEOMETRIC_PRESENTATION_REPRESENTATION (  '', ( #344 ), #226 ) ;
#325 = STYLED_ITEM ( 'NONE', ( #122 ), #339 ) ;
#326 = CARTESIAN_POINT ( 'NONE',  ( 0.000000000000000000, 1.000000000000000000, 0.000000000000000000 ) ) ;
#327 = CARTESIAN_POINT ( 'NONE',  ( 0.000000000000000000, 0.000000000000000000, 0.000000000000000000 ) ) ;
#328 = STYLED_ITEM ( 'NONE', ( #35 ), #298 ) ;
#329 = PLANE ( 'NONE',  #98 ) ;
#330 = MECHANICAL_DESIGN_GEOMETRIC_PRESENTATION_REPRESENTATION (  '', ( #325 ), #86 ) ;
#331 = FACE_OUTER_BOUND ( 'NONE', #5, .T. ) ;
#332 = VERTEX_POINT ( 'NONE', #257 ) ;
#333 = EDGE_CURVE ( 'NONE', #31, #346, #1, .T. ) ;
#334 = DIRECTION ( 'NONE',  ( -0.000000000000000000, -1.000000000000000000, -0.000000000000000000 ) ) ;
#335 = UNCERTAINTY_MEASURE_WITH_UNIT (LENGTH_MEASURE( 1.000000000000000082E-05 ), #14, 'distance_accuracy_value', 'NONE');
#336 = PRESENTATION_LAYER_ASSIGNMENT (  '', '', ( #311 ) ) ;
#337 =( GEOMETRIC_REPRESENTATION_CONTEXT ( 3 ) GLOBAL_UNCERTAINTY_ASSIGNED_CONTEXT ( ( #335 ) ) GLOBAL_UNIT_ASSIGNED_CONTEXT ( ( #14, #38, #12 ) ) REPRESENTATION_CONTEXT ( 'NONE', 'WORKASPACE' ) );
#338 = CYLINDRICAL_SURFACE ( 'NONE', #33, 5.999999999999998224 ) ;
#339 = ADVANCED_FACE ( 'NONE', ( #227 ), #223, .T. ) ;
#340 = CYLINDRICAL_SURFACE ( 'NONE', #157, 6.000000000000000000 ) ;
#341 = ORIENTED_EDGE ( 'NONE', *, *, #287, .T. ) ;
#342 =( NAMED_UNIT ( * ) SI_UNIT ( $, .STERADIAN. ) SOLID_ANGLE_UNIT ( ) );
#343 = SURFACE_SIDE_STYLE ('',( #286 ) ) ;
#344 = STYLED_ITEM ( 'NONE', ( #67 ), #147 ) ;
#345 = FILL_AREA_STYLE ('',( #175 ) ) ;
#346 = VERTEX_POINT ( 'NONE', #182 ) ;
#347 = ORIENTED_EDGE ( 'NONE', *, *, #73, .F. ) ;
#348 = VERTEX_POINT ( 'NONE', #41 ) ;
#349 = CLOSED_SHELL ( 'NONE', ( #193, #114, #273, #161 ) ) ;
#350 = CIRCLE ( 'NONE', #186, 5.000000000000000000 ) ;
#351 = AXIS2_PLACEMENT_3D ( 'NONE', #125, #92, #178 ) ;
#352 = FILL_AREA_STYLE ('',( #212 ) ) ;
#353 = CARTESIAN_POINT ( 'NONE',  ( 0.000000000000000000, 0.000000000000000000, 0.000000000000000000 ) ) ;
#354 = CARTESIAN_POINT ( 'NONE',  ( 4.770489558936219510E-15, 24.00000000000000000, 0.000000000000000000 ) ) ;
#355 = MECHANICAL_DESIGN_GEOMETRIC_PRESENTATION_REPRESENTATION (  '', ( #129 ), #77 ) ;
#356 = CIRCLE ( 'NONE', #271, 5.999999999999996447 ) ;
#357 = DIRECTION ( 'NONE',  ( -0.000000000000000000, -1.000000000000000000, -0.000000000000000000 ) ) ;
#358 = DIRECTION ( 'NONE',  ( 0.000000000000000000, 0.000000000000000000, -1.000000000000000000 ) ) ;
#359 = UNCERTAINTY_MEASURE_WITH_UNIT (LENGTH_MEASURE( 1.000000000000000082E-05 ), #294, 'distance_accuracy_value', 'NONE');
#360 = AXIS2_PLACEMENT_3D ( 'NONE', #235, #267, #150 ) ;
#361 = DIRECTION ( 'NONE',  ( -1.000000000000000000, 0.000000000000000000, 0.000000000000000000 ) ) ;
#362 = STYLED_ITEM ( 'NONE', ( #179 ), #366 ) ;
#363 = CARTESIAN_POINT ( 'NONE',  ( 0.000000000000000000, 0.000000000000000000, -5.000000000000000000 ) ) ;
#364 = DIRECTION ( 'NONE',  ( -1.223542297630008506E-16, 1.000000000000000000, -0.000000000000000000 ) ) ;
#365 = PRODUCT_DEFINITION_SHAPE ( 'NONE', 'NONE',  #108 ) ;
#366 = ADVANCED_FACE ( 'NONE', ( #234 ), #312, .T. ) ;
#367 = EDGE_CURVE ( 'NONE', #76, #258, #291, .T. ) ;
#368 = CARTESIAN_POINT ( 'NONE',  ( -1.469576158976823750E-15, 75.00000000000000000, 0.000000000000000000 ) ) ;
#369 = MECHANICAL_DESIGN_GEOMETRIC_PRESENTATION_REPRESENTATION (  '', ( #311 ), #144 ) ;
#370 = EDGE_LOOP ( 'NONE', ( #176, #256, #170, #303 ) ) ;
ENDSEC;
END-ISO-10303-21;
