ISO-10303-21;
HEADER;
FILE_DESCRIPTION (( 'STEP AP214' ),
    '1' );
FILE_NAME ('59719.STEP',
    '2023-07-24T15:28:36',
    ( '' ),
    ( '' ),
    'SwSTEP 2.0',
    'SolidWorks 2023',
    '' );
FILE_SCHEMA (( 'AUTOMOTIVE_DESIGN' ));
ENDSEC;

DATA;
#1 = MECHANICAL_DESIGN_GEOMETRIC_PRESENTATION_REPRESENTATION (  '', ( #62 ), #194 ) ;
#2 = PRESENTATION_LAYER_ASSIGNMENT (  '', '', ( #47 ) ) ;
#3 = DIRECTION ( 'NONE',  ( 1.231212018341879827E-16, -1.000000000000000000, 0.000000000000000000 ) ) ;
#4 = EDGE_CURVE ( 'NONE', #67, #232, #257, .T. ) ;
#5 = EDGE_LOOP ( 'NONE', ( #176, #92, #207, #48 ) ) ;
#6 = SURFACE_SIDE_STYLE ('',( #350 ) ) ;
#7 = COLOUR_RGB ( '',1.000000000000000000, 0.000000000000000000, 0.000000000000000000 ) ;
#8 = UNCERTAINTY_MEASURE_WITH_UNIT (LENGTH_MEASURE( 1.000000000000000082E-05 ), #108, 'distance_accuracy_value', 'NONE');
#9 = PRESENTATION_STYLE_ASSIGNMENT (( #58 ) ) ;
#10 = CARTESIAN_POINT ( 'NONE',  ( 0.000000000000000000, 1.000000000000000000, 0.000000000000000000 ) ) ;
#11 = AXIS2_PLACEMENT_3D ( 'NONE', #150, #303, #25 ) ;
#12 = PRESENTATION_LAYER_ASSIGNMENT (  '', '', ( #163 ) ) ;
#13 = PLANE ( 'NONE',  #326 ) ;
#14 = SURFACE_SIDE_STYLE ('',( #249 ) ) ;
#15 = SURFACE_STYLE_USAGE ( .BOTH. , #40 ) ;
#16 =( NAMED_UNIT ( * ) SI_UNIT ( $, .STERADIAN. ) SOLID_ANGLE_UNIT ( ) );
#17 = ADVANCED_FACE ( 'NONE', ( #246 ), #54, .F. ) ;
#18 = DIRECTION ( 'NONE',  ( 0.000000000000000000, 0.000000000000000000, 1.000000000000000000 ) ) ;
#19 = ADVANCED_FACE ( 'NONE', ( #101 ), #209, .T. ) ;
#20 = EDGE_LOOP ( 'NONE', ( #151, #154, #332, #117 ) ) ;
#21 = AXIS2_PLACEMENT_3D ( 'NONE', #165, #3, #306 ) ;
#22 = AXIS2_PLACEMENT_3D ( 'NONE', #156, #51, #49 ) ;
#23 = VECTOR ( 'NONE', #77, 1000.000000000000000 ) ;
#24 =( LENGTH_UNIT ( ) NAMED_UNIT ( * ) SI_UNIT ( .MILLI., .METRE. ) );
#25 = DIRECTION ( 'NONE',  ( 0.000000000000000000, 0.000000000000000000, -1.000000000000000000 ) ) ;
#26 = CARTESIAN_POINT ( 'NONE',  ( 6.288372600415925717E-15, 23.99999999999999289, 0.000000000000000000 ) ) ;
#27 = LINE ( 'NONE', #161, #72 ) ;
#28 = COLOUR_RGB ( '',1.000000000000000000, 0.000000000000000000, 0.000000000000000000 ) ;
#29 = EDGE_CURVE ( 'NONE', #231, #89, #86, .T. ) ;
#30 = ADVANCED_BREP_SHAPE_REPRESENTATION ( '59719', ( #202, #333, #305 ), #96 ) ;
#31 = FILL_AREA_STYLE ('',( #251 ) ) ;
#32 = ORIENTED_EDGE ( 'NONE', *, *, #29, .F. ) ;
#33 = COLOUR_RGB ( '',0.7921568627450980005, 0.8196078431372548767, 0.9333333333333333481 ) ;
#34 = FILL_AREA_STYLE_COLOUR ( '', #28 ) ;
#35 = EDGE_CURVE ( 'NONE', #232, #210, #149, .T. ) ;
#36 = CARTESIAN_POINT ( 'NONE',  ( 0.000000000000000000, 0.000000000000000000, 0.000000000000000000 ) ) ;
#37 = FACE_OUTER_BOUND ( 'NONE', #125, .T. ) ;
#38 = SURFACE_STYLE_FILL_AREA ( #227 ) ;
#39 = AXIS2_PLACEMENT_3D ( 'NONE', #245, #311, #271 ) ;
#40 = SURFACE_SIDE_STYLE ('',( #91 ) ) ;
#41 = APPLICATION_PROTOCOL_DEFINITION ( 'draft international standard', 'automotive_design', 1998, #289 ) ;
#42 =( NAMED_UNIT ( * ) SI_UNIT ( $, .STERADIAN. ) SOLID_ANGLE_UNIT ( ) );
#43 = SURFACE_STYLE_USAGE ( .BOTH. , #239 ) ;
#44 = ORIENTED_EDGE ( 'NONE', *, *, #35, .T. ) ;
#45 =( GEOMETRIC_REPRESENTATION_CONTEXT ( 3 ) GLOBAL_UNCERTAINTY_ASSIGNED_CONTEXT ( ( #344 ) ) GLOBAL_UNIT_ASSIGNED_CONTEXT ( ( #288, #331, #364 ) ) REPRESENTATION_CONTEXT ( 'NONE', 'WORKASPACE' ) );
#46 = CARTESIAN_POINT ( 'NONE',  ( 9.797174393178825657E-16, 0.000000000000000000, 8.000000000000000000 ) ) ;
#47 = STYLED_ITEM ( 'NONE', ( #53 ), #333 ) ;
#48 = ORIENTED_EDGE ( 'NONE', *, *, #290, .F. ) ;
#49 = DIRECTION ( 'NONE',  ( 0.000000000000000000, 0.000000000000000000, -1.000000000000000000 ) ) ;
#50 = CIRCLE ( 'NONE', #304, 8.000000000000000000 ) ;
#51 = DIRECTION ( 'NONE',  ( -0.000000000000000000, -1.000000000000000000, -0.000000000000000000 ) ) ;
#52 = MECHANICAL_DESIGN_GEOMETRIC_PRESENTATION_REPRESENTATION (  '', ( #348 ), #116 ) ;
#53 = PRESENTATION_STYLE_ASSIGNMENT (( #314 ) ) ;
#54 = PLANE ( 'NONE',  #21 ) ;
#55 = DIRECTION ( 'NONE',  ( 0.000000000000000000, 0.000000000000000000, -1.000000000000000000 ) ) ;
#56 = CARTESIAN_POINT ( 'NONE',  ( -7.999999999999986677, 23.99999999999999289, 0.000000000000000000 ) ) ;
#57 = EDGE_CURVE ( 'NONE', #89, #231, #110, .T. ) ;
#58 = SURFACE_STYLE_USAGE ( .BOTH. , #6 ) ;
#59 = CLOSED_SHELL ( 'NONE', ( #153, #19, #114, #82, #168, #345 ) ) ;
#60 = CARTESIAN_POINT ( 'NONE',  ( 0.000000000000000000, 0.000000000000000000, 0.000000000000000000 ) ) ;
#61 = APPLICATION_PROTOCOL_DEFINITION ( 'draft international standard', 'automotive_design', 1998, #236 ) ;
#62 = STYLED_ITEM ( 'NONE', ( #287 ), #82 ) ;
#63 = FACE_OUTER_BOUND ( 'NONE', #204, .T. ) ;
#64 = PRESENTATION_LAYER_ASSIGNMENT (  '', '', ( #348 ) ) ;
#65 = ORIENTED_EDGE ( 'NONE', *, *, #276, .T. ) ;
#66 = ORIENTED_EDGE ( 'NONE', *, *, #162, .T. ) ;
#67 = VERTEX_POINT ( 'NONE', #166 ) ;
#68 = ORIENTED_EDGE ( 'NONE', *, *, #35, .F. ) ;
#69 = DIRECTION ( 'NONE',  ( 0.000000000000000000, 1.000000000000000000, 0.000000000000000000 ) ) ;
#70 = DIRECTION ( 'NONE',  ( -0.000000000000000000, -1.000000000000000000, -0.000000000000000000 ) ) ;
#71 = EDGE_LOOP ( 'NONE', ( #211, #32 ) ) ;
#72 = VECTOR ( 'NONE', #76, 1000.000000000000000 ) ;
#73 = EDGE_CURVE ( 'NONE', #232, #67, #50, .T. ) ;
#74 = DIRECTION ( 'NONE',  ( 0.000000000000000000, 0.000000000000000000, 1.000000000000000000 ) ) ;
#75 = AXIS2_PLACEMENT_3D ( 'NONE', #274, #215, #55 ) ;
#76 = DIRECTION ( 'NONE',  ( -0.000000000000000000, -1.000000000000000000, -0.000000000000000000 ) ) ;
#77 = DIRECTION ( 'NONE',  ( -1.231212018341879827E-16, 1.000000000000000000, -0.000000000000000000 ) ) ;
#78 = DIRECTION ( 'NONE',  ( -1.224646799147353454E-16, 0.000000000000000000, -1.000000000000000000 ) ) ;
#79 = FILL_AREA_STYLE_COLOUR ( '', #33 ) ;
#80 = CLOSED_SHELL ( 'NONE', ( #243, #119, #104, #17 ) ) ;
#81 =( GEOMETRIC_REPRESENTATION_CONTEXT ( 3 ) GLOBAL_UNCERTAINTY_ASSIGNED_CONTEXT ( ( #339 ) ) GLOBAL_UNIT_ASSIGNED_CONTEXT ( ( #189, #158, #313 ) ) REPRESENTATION_CONTEXT ( 'NONE', 'WORKASPACE' ) );
#82 = ADVANCED_FACE ( 'NONE', ( #83 ), #266, .T. ) ;
#83 = FACE_OUTER_BOUND ( 'NONE', #299, .T. ) ;
#84 = CARTESIAN_POINT ( 'NONE',  ( -1.714505518806293849E-15, 89.00000000000000000, 0.000000000000000000 ) ) ;
#85 = PRESENTATION_LAYER_ASSIGNMENT (  '', '', ( #241 ) ) ;
#86 = CIRCLE ( 'NONE', #75, 8.000000000000000000 ) ;
#87 = DIRECTION ( 'NONE',  ( -1.000000000000000000, 0.000000000000000000, 0.000000000000000000 ) ) ;
#88 = FILL_AREA_STYLE_COLOUR ( '', #297 ) ;
#89 = VERTEX_POINT ( 'NONE', #198 ) ;
#90 =( NAMED_UNIT ( * ) SI_UNIT ( $, .STERADIAN. ) SOLID_ANGLE_UNIT ( ) );
#91 = SURFACE_STYLE_FILL_AREA ( #171 ) ;
#92 = ORIENTED_EDGE ( 'NONE', *, *, #159, .T. ) ;
#93 = ORIENTED_EDGE ( 'NONE', *, *, #73, .T. ) ;
#94 = SURFACE_STYLE_FILL_AREA ( #365 ) ;
#95 = ORIENTED_EDGE ( 'NONE', *, *, #172, .T. ) ;
#96 =( GEOMETRIC_REPRESENTATION_CONTEXT ( 3 ) GLOBAL_UNCERTAINTY_ASSIGNED_CONTEXT ( ( #320 ) ) GLOBAL_UNIT_ASSIGNED_CONTEXT ( ( #97, #183, #90 ) ) REPRESENTATION_CONTEXT ( 'NONE', 'WORKASPACE' ) );
#97 =( LENGTH_UNIT ( ) NAMED_UNIT ( * ) SI_UNIT ( .MILLI., .METRE. ) );
#98 = FILL_AREA_STYLE ('',( #244 ) ) ;
#99 = CARTESIAN_POINT ( 'NONE',  ( 9.184850993605147944E-16, 0.000000000000000000, 7.000000000000000000 ) ) ;
#100 = EDGE_CURVE ( 'NONE', #265, #337, #170, .T. ) ;
#101 = FACE_OUTER_BOUND ( 'NONE', #235, .T. ) ;
#102 =( NAMED_UNIT ( * ) SI_UNIT ( $, .STERADIAN. ) SOLID_ANGLE_UNIT ( ) );
#103 = CARTESIAN_POINT ( 'NONE',  ( 0.000000000000000000, 0.000000000000000000, 0.000000000000000000 ) ) ;
#104 = ADVANCED_FACE ( 'NONE', ( #63 ), #112, .T. ) ;
#105 = AXIS2_PLACEMENT_3D ( 'NONE', #36, #109, #223 ) ;
#106 = COLOUR_RGB ( '',1.000000000000000000, 0.000000000000000000, 0.000000000000000000 ) ;
#107 = DIRECTION ( 'NONE',  ( -0.000000000000000000, -1.000000000000000000, -0.000000000000000000 ) ) ;
#108 =( LENGTH_UNIT ( ) NAMED_UNIT ( * ) SI_UNIT ( .MILLI., .METRE. ) );
#109 = DIRECTION ( 'NONE',  ( 0.000000000000000000, -1.000000000000000000, -0.000000000000000000 ) ) ;
#110 = CIRCLE ( 'NONE', #142, 8.000000000000000000 ) ;
#111 =( GEOMETRIC_REPRESENTATION_CONTEXT ( 3 ) GLOBAL_UNCERTAINTY_ASSIGNED_CONTEXT ( ( #8 ) ) GLOBAL_UNIT_ASSIGNED_CONTEXT ( ( #108, #129, #102 ) ) REPRESENTATION_CONTEXT ( 'NONE', 'WORKASPACE' ) );
#112 = CYLINDRICAL_SURFACE ( 'NONE', #219, 7.999999999999996447 ) ;
#113 = SURFACE_STYLE_USAGE ( .BOTH. , #14 ) ;
#114 = ADVANCED_FACE ( 'NONE', ( #37 ), #357, .T. ) ;
#115 =( GEOMETRIC_REPRESENTATION_CONTEXT ( 3 ) GLOBAL_UNCERTAINTY_ASSIGNED_CONTEXT ( ( #280 ) ) GLOBAL_UNIT_ASSIGNED_CONTEXT ( ( #197, #282, #42 ) ) REPRESENTATION_CONTEXT ( 'NONE', 'WORKASPACE' ) );
#116 =( GEOMETRIC_REPRESENTATION_CONTEXT ( 3 ) GLOBAL_UNCERTAINTY_ASSIGNED_CONTEXT ( ( #262 ) ) GLOBAL_UNIT_ASSIGNED_CONTEXT ( ( #24, #240, #213 ) ) REPRESENTATION_CONTEXT ( 'NONE', 'WORKASPACE' ) );
#117 = ORIENTED_EDGE ( 'NONE', *, *, #276, .F. ) ;
#118 = PRESENTATION_STYLE_ASSIGNMENT (( #15 ) ) ;
#119 = ADVANCED_FACE ( 'NONE', ( #255 ), #13, .F. ) ;
#120 = ORIENTED_EDGE ( 'NONE', *, *, #327, .T. ) ;
#121 = FACE_OUTER_BOUND ( 'NONE', #201, .T. ) ;
#122 = ORIENTED_EDGE ( 'NONE', *, *, #162, .F. ) ;
#123 = COLOUR_RGB ( '',1.000000000000000000, 0.000000000000000000, 0.000000000000000000 ) ;
#124 = STYLED_ITEM ( 'NONE', ( #367 ), #345 ) ;
#125 = EDGE_LOOP ( 'NONE', ( #234, #66 ) ) ;
#126 = CARTESIAN_POINT ( 'NONE',  ( 0.000000000000000000, 1.000000000000000000, -7.000000000000000000 ) ) ;
#127 = DIRECTION ( 'NONE',  ( -1.231212018341879827E-16, 1.000000000000000000, -0.000000000000000000 ) ) ;
#128 = DIRECTION ( 'NONE',  ( -1.000000000000000000, 0.000000000000000000, 0.000000000000000000 ) ) ;
#129 =( NAMED_UNIT ( * ) PLANE_ANGLE_UNIT ( ) SI_UNIT ( $, .RADIAN. ) );
#130 = CIRCLE ( 'NONE', #359, 7.000000000000000000 ) ;
#131 = DIRECTION ( 'NONE',  ( 0.000000000000000000, 0.000000000000000000, -1.000000000000000000 ) ) ;
#132 = SURFACE_STYLE_USAGE ( .BOTH. , #242 ) ;
#133 = EDGE_CURVE ( 'NONE', #368, #337, #335, .T. ) ;
#134 = ORIENTED_EDGE ( 'NONE', *, *, #184, .F. ) ;
#135 = LINE ( 'NONE', #307, #23 ) ;
#136 = CIRCLE ( 'NONE', #173, 1.000000000000000000 ) ;
#137 = MECHANICAL_DESIGN_GEOMETRIC_PRESENTATION_REPRESENTATION (  '', ( #252 ), #237 ) ;
#138 = MECHANICAL_DESIGN_GEOMETRIC_PRESENTATION_REPRESENTATION (  '', ( #47 ), #111 ) ;
#139 = DIRECTION ( 'NONE',  ( -1.231212018341879827E-16, 1.000000000000000000, 0.000000000000000000 ) ) ;
#140 = DIRECTION ( 'NONE',  ( -0.000000000000000000, -1.000000000000000000, -0.000000000000000000 ) ) ;
#141 = FILL_AREA_STYLE_COLOUR ( '', #106 ) ;
#142 = AXIS2_PLACEMENT_3D ( 'NONE', #190, #164, #272 ) ;
#143 = DIRECTION ( 'NONE',  ( 0.000000000000000000, 0.000000000000000000, -1.000000000000000000 ) ) ;
#144 = CARTESIAN_POINT ( 'NONE',  ( 7.999999999999994671, 89.00000000000000000, 9.797174393178821713E-16 ) ) ;
#145 = CARTESIAN_POINT ( 'NONE',  ( 8.000000000000000000, 89.00000000000000000, 9.797174393178825657E-16 ) ) ;
#146 = PRESENTATION_STYLE_ASSIGNMENT (( #325 ) ) ;
#147 = UNCERTAINTY_MEASURE_WITH_UNIT (LENGTH_MEASURE( 1.000000000000000082E-05 ), #205, 'distance_accuracy_value', 'NONE');
#148 = COLOUR_RGB ( '',1.000000000000000000, 0.000000000000000000, 0.000000000000000000 ) ;
#149 = CIRCLE ( 'NONE', #340, 1.000000000000000000 ) ;
#150 = CARTESIAN_POINT ( 'NONE',  ( 0.000000000000000000, 1.000000000000000000, 0.000000000000000000 ) ) ;
#151 = ORIENTED_EDGE ( 'NONE', *, *, #184, .T. ) ;
#152 = CARTESIAN_POINT ( 'NONE',  ( -8.000000000000003553, 89.00000000000000000, 0.000000000000000000 ) ) ;
#153 = ADVANCED_FACE ( 'NONE', ( #317 ), #295, .T. ) ;
#154 = ORIENTED_EDGE ( 'NONE', *, *, #100, .T. ) ;
#155 = MECHANICAL_DESIGN_GEOMETRIC_PRESENTATION_REPRESENTATION (  '', ( #163 ), #45 ) ;
#156 = CARTESIAN_POINT ( 'NONE',  ( 0.000000000000000000, 0.000000000000000000, 0.000000000000000000 ) ) ;
#157 = MECHANICAL_DESIGN_GEOMETRIC_PRESENTATION_REPRESENTATION (  '', ( #124 ), #195 ) ;
#158 =( NAMED_UNIT ( * ) PLANE_ANGLE_UNIT ( ) SI_UNIT ( $, .RADIAN. ) );
#159 = EDGE_CURVE ( 'NONE', #231, #232, #322, .T. ) ;
#160 = CARTESIAN_POINT ( 'NONE',  ( 0.000000000000000000, 0.000000000000000000, -7.000000000000000000 ) ) ;
#161 = CARTESIAN_POINT ( 'NONE',  ( 0.000000000000000000, 0.000000000000000000, -8.000000000000000000 ) ) ;
#162 = EDGE_CURVE ( 'NONE', #210, #182, #130, .T. ) ;
#163 = STYLED_ITEM ( 'NONE', ( #118 ), #153 ) ;
#164 = DIRECTION ( 'NONE',  ( -0.000000000000000000, -1.000000000000000000, -0.000000000000000000 ) ) ;
#165 = CARTESIAN_POINT ( 'NONE',  ( 8.000000000000000000, 89.00000000000000000, 0.000000000000000000 ) ) ;
#166 = CARTESIAN_POINT ( 'NONE',  ( 0.000000000000000000, 1.000000000000000000, -8.000000000000000000 ) ) ;
#167 = AXIS2_PLACEMENT_3D ( 'NONE', #292, #70, #179 ) ;
#168 = ADVANCED_FACE ( 'NONE', ( #121 ), #254, .T. ) ;
#169 = DIRECTION ( 'NONE',  ( -1.231212018341879827E-16, 1.000000000000000000, -0.000000000000000000 ) ) ;
#170 = LINE ( 'NONE', #144, #284 ) ;
#171 = FILL_AREA_STYLE ('',( #88 ) ) ;
#172 = EDGE_CURVE ( 'NONE', #67, #182, #136, .T. ) ;
#173 = AXIS2_PLACEMENT_3D ( 'NONE', #126, #369, #74 ) ;
#174 = AXIS2_PLACEMENT_3D ( 'NONE', #103, #222, #131 ) ;
#175 = ORIENTED_EDGE ( 'NONE', *, *, #159, .F. ) ;
#176 = ORIENTED_EDGE ( 'NONE', *, *, #57, .T. ) ;
#177 = ORIENTED_EDGE ( 'NONE', *, *, #73, .F. ) ;
#178 = DIRECTION ( 'NONE',  ( 0.000000000000000000, -0.000000000000000000, 1.000000000000000000 ) ) ;
#179 = DIRECTION ( 'NONE',  ( 0.000000000000000000, 0.000000000000000000, -1.000000000000000000 ) ) ;
#180 = PRODUCT_DEFINITION_CONTEXT ( 'detailed design', #289, 'design' ) ;
#181 = PRESENTATION_LAYER_ASSIGNMENT (  '', '', ( #62 ) ) ;
#182 = VERTEX_POINT ( 'NONE', #160 ) ;
#183 =( NAMED_UNIT ( * ) PLANE_ANGLE_UNIT ( ) SI_UNIT ( $, .RADIAN. ) );
#184 = EDGE_CURVE ( 'NONE', #260, #265, #298, .T. ) ;
#185 = CYLINDRICAL_SURFACE ( 'NONE', #39, 7.999999999999996447 ) ;
#186 = DIRECTION ( 'NONE',  ( -1.231212018341879827E-16, 1.000000000000000000, -0.000000000000000000 ) ) ;
#187 = UNCERTAINTY_MEASURE_WITH_UNIT (LENGTH_MEASURE( 1.000000000000000082E-05 ), #334, 'distance_accuracy_value', 'NONE');
#188 = FACE_OUTER_BOUND ( 'NONE', #20, .T. ) ;
#189 =( LENGTH_UNIT ( ) NAMED_UNIT ( * ) SI_UNIT ( .MILLI., .METRE. ) );
#190 = CARTESIAN_POINT ( 'NONE',  ( 0.000000000000000000, 24.00000000000000000, 0.000000000000000000 ) ) ;
#191 = FILL_AREA_STYLE ('',( #79 ) ) ;
#192 = DIRECTION ( 'NONE',  ( -0.000000000000000000, -1.000000000000000000, -0.000000000000000000 ) ) ;
#193 =( NAMED_UNIT ( * ) PLANE_ANGLE_UNIT ( ) SI_UNIT ( $, .RADIAN. ) );
#194 =( GEOMETRIC_REPRESENTATION_CONTEXT ( 3 ) GLOBAL_UNCERTAINTY_ASSIGNED_CONTEXT ( ( #293 ) ) GLOBAL_UNIT_ASSIGNED_CONTEXT ( ( #321, #193, #16 ) ) REPRESENTATION_CONTEXT ( 'NONE', 'WORKASPACE' ) );
#195 =( GEOMETRIC_REPRESENTATION_CONTEXT ( 3 ) GLOBAL_UNCERTAINTY_ASSIGNED_CONTEXT ( ( #147 ) ) GLOBAL_UNIT_ASSIGNED_CONTEXT ( ( #205, #267, #330 ) ) REPRESENTATION_CONTEXT ( 'NONE', 'WORKASPACE' ) );
#196 = PRODUCT_DEFINITION ( 'UNKNOWN', '', #230, #180 ) ;
#197 =( LENGTH_UNIT ( ) NAMED_UNIT ( * ) SI_UNIT ( .MILLI., .METRE. ) );
#198 = CARTESIAN_POINT ( 'NONE',  ( 0.000000000000000000, 24.00000000000000000, -8.000000000000000000 ) ) ;
#199 = DIRECTION ( 'NONE',  ( -0.000000000000000000, -1.000000000000000000, -0.000000000000000000 ) ) ;
#200 = PRODUCT_RELATED_PRODUCT_CATEGORY ( 'part', '', ( #301 ) ) ;
#201 = EDGE_LOOP ( 'NONE', ( #175, #203, #206, #177 ) ) ;
#202 = MANIFOLD_SOLID_BREP ( 'Revolve - Cutting Edge', #59 ) ;
#203 = ORIENTED_EDGE ( 'NONE', *, *, #29, .T. ) ;
#204 = EDGE_LOOP ( 'NONE', ( #315, #120, #65, #294 ) ) ;
#205 =( LENGTH_UNIT ( ) NAMED_UNIT ( * ) SI_UNIT ( .MILLI., .METRE. ) );
#206 = ORIENTED_EDGE ( 'NONE', *, *, #290, .T. ) ;
#207 = ORIENTED_EDGE ( 'NONE', *, *, #4, .F. ) ;
#208 = SURFACE_SIDE_STYLE ('',( #94 ) ) ;
#209 = TOROIDAL_SURFACE ( 'NONE', #225, 7.000000000000000000, 1.000000000000000000 ) ;
#210 = VERTEX_POINT ( 'NONE', #99 ) ;
#211 = ORIENTED_EDGE ( 'NONE', *, *, #57, .F. ) ;
#212 = SURFACE_STYLE_FILL_AREA ( #98 ) ;
#213 =( NAMED_UNIT ( * ) SI_UNIT ( $, .STERADIAN. ) SOLID_ANGLE_UNIT ( ) );
#214 = AXIS2_PLACEMENT_3D ( 'NONE', #10, #140, #324 ) ;
#215 = DIRECTION ( 'NONE',  ( -0.000000000000000000, -1.000000000000000000, -0.000000000000000000 ) ) ;
#216 = CARTESIAN_POINT ( 'NONE',  ( 0.000000000000000000, 1.000000000000000000, 0.000000000000000000 ) ) ;
#217 = CARTESIAN_POINT ( 'NONE',  ( 9.797174393178825657E-16, 1.000000000000000000, 8.000000000000000000 ) ) ;
#218 = SURFACE_SIDE_STYLE ('',( #309 ) ) ;
#219 = AXIS2_PLACEMENT_3D ( 'NONE', #84, #279, #281 ) ;
#220 = AXIS2_PLACEMENT_3D ( 'NONE', #343, #316, #347 ) ;
#221 = DIRECTION ( 'NONE',  ( 0.000000000000000000, 0.000000000000000000, -1.000000000000000000 ) ) ;
#222 = DIRECTION ( 'NONE',  ( -0.000000000000000000, -1.000000000000000000, -0.000000000000000000 ) ) ;
#223 = DIRECTION ( 'NONE',  ( 0.000000000000000000, 0.000000000000000000, -1.000000000000000000 ) ) ;
#224 = DIRECTION ( 'NONE',  ( -1.000000000000000000, 0.000000000000000000, 0.000000000000000000 ) ) ;
#225 = AXIS2_PLACEMENT_3D ( 'NONE', #216, #192, #275 ) ;
#226 = CARTESIAN_POINT ( 'NONE',  ( -1.714505518806293652E-15, 89.00000000000000000, 0.000000000000000000 ) ) ;
#227 = FILL_AREA_STYLE ('',( #250 ) ) ;
#228 = FILL_AREA_STYLE_COLOUR ( '', #123 ) ;
#229 = CARTESIAN_POINT ( 'NONE',  ( 6.288372600415925717E-15, 24.00000000000000000, 0.000000000000000000 ) ) ;
#230 = PRODUCT_DEFINITION_FORMATION_WITH_SPECIFIED_SOURCE ( 'ANY', '', #301, .NOT_KNOWN. ) ;
#231 = VERTEX_POINT ( 'NONE', #370 ) ;
#232 = VERTEX_POINT ( 'NONE', #217 ) ;
#233 = SHAPE_DEFINITION_REPRESENTATION ( #356, #30 ) ;
#234 = ORIENTED_EDGE ( 'NONE', *, *, #263, .T. ) ;
#235 = EDGE_LOOP ( 'NONE', ( #362, #44, #328, #363 ) ) ;
#236 = APPLICATION_CONTEXT ( 'automotive_design' ) ;
#237 =( GEOMETRIC_REPRESENTATION_CONTEXT ( 3 ) GLOBAL_UNCERTAINTY_ASSIGNED_CONTEXT ( ( #187 ) ) GLOBAL_UNIT_ASSIGNED_CONTEXT ( ( #334, #308, #338 ) ) REPRESENTATION_CONTEXT ( 'NONE', 'WORKASPACE' ) );
#238 = AXIS2_PLACEMENT_3D ( 'NONE', #302, #69, #178 ) ;
#239 = SURFACE_SIDE_STYLE ('',( #352 ) ) ;
#240 =( NAMED_UNIT ( * ) PLANE_ANGLE_UNIT ( ) SI_UNIT ( $, .RADIAN. ) );
#241 = STYLED_ITEM ( 'NONE', ( #310 ), #19 ) ;
#242 = SURFACE_SIDE_STYLE ('',( #212 ) ) ;
#243 = ADVANCED_FACE ( 'NONE', ( #188 ), #185, .T. ) ;
#244 = FILL_AREA_STYLE_COLOUR ( '', #148 ) ;
#245 = CARTESIAN_POINT ( 'NONE',  ( -1.714505518806293849E-15, 89.00000000000000000, 0.000000000000000000 ) ) ;
#246 = FACE_OUTER_BOUND ( 'NONE', #336, .T. ) ;
#247 = CARTESIAN_POINT ( 'NONE',  ( 0.000000000000000000, 1.000000000000000000, 0.000000000000000000 ) ) ;
#248 = CARTESIAN_POINT ( 'NONE',  ( 6.288372600415925717E-15, 23.99999999999999289, 0.000000000000000000 ) ) ;
#249 = SURFACE_STYLE_FILL_AREA ( #253 ) ;
#250 = FILL_AREA_STYLE_COLOUR ( '', #7 ) ;
#251 = FILL_AREA_STYLE_COLOUR ( '', #341 ) ;
#252 = STYLED_ITEM ( 'NONE', ( #146 ), #168 ) ;
#253 = FILL_AREA_STYLE ('',( #34 ) ) ;
#254 = CYLINDRICAL_SURFACE ( 'NONE', #22, 8.000000000000000000 ) ;
#255 = FACE_OUTER_BOUND ( 'NONE', #329, .T. ) ;
#256 = FACE_OUTER_BOUND ( 'NONE', #71, .T. ) ;
#257 = CIRCLE ( 'NONE', #11, 8.000000000000000000 ) ;
#258 = PRESENTATION_LAYER_ASSIGNMENT (  '', '', ( #269 ) ) ;
#259 = PRESENTATION_LAYER_ASSIGNMENT (  '', '', ( #124 ) ) ;
#260 = VERTEX_POINT ( 'NONE', #56 ) ;
#261 = DIRECTION ( 'NONE',  ( -0.000000000000000000, -1.000000000000000000, -0.000000000000000000 ) ) ;
#262 = UNCERTAINTY_MEASURE_WITH_UNIT (LENGTH_MEASURE( 1.000000000000000082E-05 ), #24, 'distance_accuracy_value', 'NONE');
#263 = EDGE_CURVE ( 'NONE', #182, #210, #361, .T. ) ;
#264 = ORIENTED_EDGE ( 'NONE', *, *, #273, .T. ) ;
#265 = VERTEX_POINT ( 'NONE', #268 ) ;
#266 = TOROIDAL_SURFACE ( 'NONE', #214, 7.000000000000000000, 1.000000000000000000 ) ;
#267 =( NAMED_UNIT ( * ) PLANE_ANGLE_UNIT ( ) SI_UNIT ( $, .RADIAN. ) );
#268 = CARTESIAN_POINT ( 'NONE',  ( 8.000000000000000000, 23.99999999999999289, 9.797174393178825657E-16 ) ) ;
#269 = STYLED_ITEM ( 'NONE', ( #351 ), #114 ) ;
#270 = CIRCLE ( 'NONE', #355, 7.999999999999992895 ) ;
#271 = DIRECTION ( 'NONE',  ( -1.000000000000000000, 0.000000000000000000, 0.000000000000000000 ) ) ;
#272 = DIRECTION ( 'NONE',  ( 0.000000000000000000, 0.000000000000000000, -1.000000000000000000 ) ) ;
#273 = EDGE_CURVE ( 'NONE', #337, #368, #318, .T. ) ;
#274 = CARTESIAN_POINT ( 'NONE',  ( 0.000000000000000000, 24.00000000000000000, 0.000000000000000000 ) ) ;
#275 = DIRECTION ( 'NONE',  ( 0.000000000000000000, 0.000000000000000000, -1.000000000000000000 ) ) ;
#276 = EDGE_CURVE ( 'NONE', #260, #368, #135, .T. ) ;
#277 = MECHANICAL_DESIGN_GEOMETRIC_PRESENTATION_REPRESENTATION (  '', ( #269 ), #115 ) ;
#278 = DIRECTION ( 'NONE',  ( -1.000000000000000000, -1.231212018341879827E-16, 0.000000000000000000 ) ) ;
#279 = DIRECTION ( 'NONE',  ( -1.231212018341879827E-16, 1.000000000000000000, -0.000000000000000000 ) ) ;
#280 = UNCERTAINTY_MEASURE_WITH_UNIT (LENGTH_MEASURE( 1.000000000000000082E-05 ), #197, 'distance_accuracy_value', 'NONE');
#281 = DIRECTION ( 'NONE',  ( -1.000000000000000000, 0.000000000000000000, 0.000000000000000000 ) ) ;
#282 =( NAMED_UNIT ( * ) PLANE_ANGLE_UNIT ( ) SI_UNIT ( $, .RADIAN. ) );
#283 = CARTESIAN_POINT ( 'NONE',  ( 0.000000000000000000, 0.000000000000000000, 0.000000000000000000 ) ) ;
#284 = VECTOR ( 'NONE', #169, 1000.000000000000000 ) ;
#285 = PRODUCT_CONTEXT ( 'NONE', #236, 'mechanical' ) ;
#286 = AXIS2_PLACEMENT_3D ( 'NONE', #26, #127, #224 ) ;
#287 = PRESENTATION_STYLE_ASSIGNMENT (( #354 ) ) ;
#288 =( LENGTH_UNIT ( ) NAMED_UNIT ( * ) SI_UNIT ( .MILLI., .METRE. ) );
#289 = APPLICATION_CONTEXT ( 'automotive_design' ) ;
#290 = EDGE_CURVE ( 'NONE', #89, #67, #27, .T. ) ;
#291 = ORIENTED_EDGE ( 'NONE', *, *, #327, .F. ) ;
#292 = CARTESIAN_POINT ( 'NONE',  ( 0.000000000000000000, 0.000000000000000000, 0.000000000000000000 ) ) ;
#293 = UNCERTAINTY_MEASURE_WITH_UNIT (LENGTH_MEASURE( 1.000000000000000082E-05 ), #321, 'distance_accuracy_value', 'NONE');
#294 = ORIENTED_EDGE ( 'NONE', *, *, #273, .F. ) ;
#295 = CYLINDRICAL_SURFACE ( 'NONE', #167, 8.000000000000000000 ) ;
#296 = MECHANICAL_DESIGN_GEOMETRIC_PRESENTATION_REPRESENTATION (  '', ( #241 ), #81 ) ;
#297 = COLOUR_RGB ( '',1.000000000000000000, 0.000000000000000000, 0.000000000000000000 ) ;
#298 = CIRCLE ( 'NONE', #286, 7.999999999999992895 ) ;
#299 = EDGE_LOOP ( 'NONE', ( #68, #93, #95, #122 ) ) ;
#300 = PLANE ( 'NONE',  #238 ) ;
#301 = PRODUCT ( '59719', '59719', '', ( #285 ) ) ;
#302 = CARTESIAN_POINT ( 'NONE',  ( 0.000000000000000000, 24.00000000000000000, 0.000000000000000000 ) ) ;
#303 = DIRECTION ( 'NONE',  ( -0.000000000000000000, -1.000000000000000000, -0.000000000000000000 ) ) ;
#304 = AXIS2_PLACEMENT_3D ( 'NONE', #247, #107, #221 ) ;
#305 = AXIS2_PLACEMENT_3D ( 'NONE', #60, #18, #323 ) ;
#306 = DIRECTION ( 'NONE',  ( 1.000000000000000000, 1.231212018341879827E-16, 0.000000000000000000 ) ) ;
#307 = CARTESIAN_POINT ( 'NONE',  ( -7.999999999999998224, 89.00000000000000000, 0.000000000000000000 ) ) ;
#308 =( NAMED_UNIT ( * ) PLANE_ANGLE_UNIT ( ) SI_UNIT ( $, .RADIAN. ) );
#309 = SURFACE_STYLE_FILL_AREA ( #191 ) ;
#310 = PRESENTATION_STYLE_ASSIGNMENT (( #132 ) ) ;
#311 = DIRECTION ( 'NONE',  ( -1.231212018341879827E-16, 1.000000000000000000, -0.000000000000000000 ) ) ;
#312 = VECTOR ( 'NONE', #199, 1000.000000000000000 ) ;
#313 =( NAMED_UNIT ( * ) SI_UNIT ( $, .STERADIAN. ) SOLID_ANGLE_UNIT ( ) );
#314 = SURFACE_STYLE_USAGE ( .BOTH. , #218 ) ;
#315 = ORIENTED_EDGE ( 'NONE', *, *, #100, .F. ) ;
#316 = DIRECTION ( 'NONE',  ( -1.231212018341879827E-16, 1.000000000000000000, -0.000000000000000000 ) ) ;
#317 = FACE_OUTER_BOUND ( 'NONE', #5, .T. ) ;
#318 = CIRCLE ( 'NONE', #220, 8.000000000000001776 ) ;
#319 = SURFACE_SIDE_STYLE ('',( #38 ) ) ;
#320 = UNCERTAINTY_MEASURE_WITH_UNIT (LENGTH_MEASURE( 1.000000000000000082E-05 ), #97, 'distance_accuracy_value', 'NONE');
#321 =( LENGTH_UNIT ( ) NAMED_UNIT ( * ) SI_UNIT ( .MILLI., .METRE. ) );
#322 = LINE ( 'NONE', #46, #312 ) ;
#323 = DIRECTION ( 'NONE',  ( 1.000000000000000000, 0.000000000000000000, 0.000000000000000000 ) ) ;
#324 = DIRECTION ( 'NONE',  ( 0.000000000000000000, 0.000000000000000000, -1.000000000000000000 ) ) ;
#325 = SURFACE_STYLE_USAGE ( .BOTH. , #208 ) ;
#326 = AXIS2_PLACEMENT_3D ( 'NONE', #229, #139, #278 ) ;
#327 = EDGE_CURVE ( 'NONE', #265, #260, #270, .T. ) ;
#328 = ORIENTED_EDGE ( 'NONE', *, *, #263, .F. ) ;
#329 = EDGE_LOOP ( 'NONE', ( #134, #291 ) ) ;
#330 =( NAMED_UNIT ( * ) SI_UNIT ( $, .STERADIAN. ) SOLID_ANGLE_UNIT ( ) );
#331 =( NAMED_UNIT ( * ) PLANE_ANGLE_UNIT ( ) SI_UNIT ( $, .RADIAN. ) );
#332 = ORIENTED_EDGE ( 'NONE', *, *, #133, .F. ) ;
#333 = MANIFOLD_SOLID_BREP ( 'Revolve - Tool Body (Straight Shanked)', #80 ) ;
#334 =( LENGTH_UNIT ( ) NAMED_UNIT ( * ) SI_UNIT ( .MILLI., .METRE. ) );
#335 = CIRCLE ( 'NONE', #360, 8.000000000000001776 ) ;
#336 = EDGE_LOOP ( 'NONE', ( #366, #264 ) ) ;
#337 = VERTEX_POINT ( 'NONE', #145 ) ;
#338 =( NAMED_UNIT ( * ) SI_UNIT ( $, .STERADIAN. ) SOLID_ANGLE_UNIT ( ) );
#339 = UNCERTAINTY_MEASURE_WITH_UNIT (LENGTH_MEASURE( 1.000000000000000082E-05 ), #189, 'distance_accuracy_value', 'NONE');
#340 = AXIS2_PLACEMENT_3D ( 'NONE', #342, #346, #78 ) ;
#341 = COLOUR_RGB ( '',0.7921568627450980005, 0.8196078431372548767, 0.9333333333333333481 ) ;
#342 = CARTESIAN_POINT ( 'NONE',  ( 8.572527594031473190E-16, 1.000000000000000000, 7.000000000000000000 ) ) ;
#343 = CARTESIAN_POINT ( 'NONE',  ( -1.714505518806293652E-15, 89.00000000000000000, 0.000000000000000000 ) ) ;
#344 = UNCERTAINTY_MEASURE_WITH_UNIT (LENGTH_MEASURE( 1.000000000000000082E-05 ), #288, 'distance_accuracy_value', 'NONE');
#345 = ADVANCED_FACE ( 'NONE', ( #256 ), #300, .T. ) ;
#346 = DIRECTION ( 'NONE',  ( 1.000000000000000000, 0.000000000000000000, -1.224646799147353207E-16 ) ) ;
#347 = DIRECTION ( 'NONE',  ( -1.000000000000000000, 0.000000000000000000, 0.000000000000000000 ) ) ;
#348 = STYLED_ITEM ( 'NONE', ( #9 ), #202 ) ;
#349 = FILL_AREA_STYLE ('',( #141 ) ) ;
#350 = SURFACE_STYLE_FILL_AREA ( #31 ) ;
#351 = PRESENTATION_STYLE_ASSIGNMENT (( #113 ) ) ;
#352 = SURFACE_STYLE_FILL_AREA ( #349 ) ;
#353 = PRESENTATION_LAYER_ASSIGNMENT (  '', '', ( #252 ) ) ;
#354 = SURFACE_STYLE_USAGE ( .BOTH. , #319 ) ;
#355 = AXIS2_PLACEMENT_3D ( 'NONE', #248, #186, #128 ) ;
#356 = PRODUCT_DEFINITION_SHAPE ( 'NONE', 'NONE',  #196 ) ;
#357 = PLANE ( 'NONE',  #105 ) ;
#358 = DIRECTION ( 'NONE',  ( -1.231212018341879827E-16, 1.000000000000000000, -0.000000000000000000 ) ) ;
#359 = AXIS2_PLACEMENT_3D ( 'NONE', #283, #261, #143 ) ;
#360 = AXIS2_PLACEMENT_3D ( 'NONE', #226, #358, #87 ) ;
#361 = CIRCLE ( 'NONE', #174, 7.000000000000000000 ) ;
#362 = ORIENTED_EDGE ( 'NONE', *, *, #4, .T. ) ;
#363 = ORIENTED_EDGE ( 'NONE', *, *, #172, .F. ) ;
#364 =( NAMED_UNIT ( * ) SI_UNIT ( $, .STERADIAN. ) SOLID_ANGLE_UNIT ( ) );
#365 = FILL_AREA_STYLE ('',( #228 ) ) ;
#366 = ORIENTED_EDGE ( 'NONE', *, *, #133, .T. ) ;
#367 = PRESENTATION_STYLE_ASSIGNMENT (( #43 ) ) ;
#368 = VERTEX_POINT ( 'NONE', #152 ) ;
#369 = DIRECTION ( 'NONE',  ( -1.000000000000000000, 0.000000000000000000, 0.000000000000000000 ) ) ;
#370 = CARTESIAN_POINT ( 'NONE',  ( 9.797174393178825657E-16, 24.00000000000000000, 8.000000000000000000 ) ) ;
ENDSEC;
END-ISO-10303-21;
