ISO-10303-21;
HEADER;
FILE_DESCRIPTION (( 'STEP AP214' ),
    '1' );
FILE_NAME ('84757.STEP',
    '2023-06-30T23:45:57',
    ( '' ),
    ( '' ),
    'SwSTEP 2.0',
    'SolidWorks 2023',
    '' );
FILE_SCHEMA (( 'AUTOMOTIVE_DESIGN' ));
ENDSEC;

DATA;
#1 = DIRECTION ( 'NONE',  ( -1.000000000000000000, 0.000000000000000000, 0.000000000000000000 ) ) ;
#2 = CARTESIAN_POINT ( 'NONE',  ( 0.000000000000000000, 0.000000000000000000, -0.09374999999999995837 ) ) ;
#3 = DIRECTION ( 'NONE',  ( -0.000000000000000000, -1.000000000000000000, -0.000000000000000000 ) ) ;
#4 = CIRCLE ( 'NONE', #345, 0.09374999999999998612 ) ;
#5 =( NAMED_UNIT ( * ) PLANE_ANGLE_UNIT ( ) SI_UNIT ( $, .RADIAN. ) );
#6 = CARTESIAN_POINT ( 'NONE',  ( 1.148106374200643863E-17, 0.09375000000000002776, 0.09375000000000002776 ) ) ;
#7 = FILL_AREA_STYLE_COLOUR ( '', #19 ) ;
#8 = EDGE_LOOP ( 'NONE', ( #122, #226 ) ) ;
#9 = EDGE_CURVE ( 'NONE', #42, #320, #79, .T. ) ;
#10 = SURFACE_SIDE_STYLE ('',( #64 ) ) ;
#11 = EDGE_LOOP ( 'NONE', ( #69, #60, #143, #126, #253 ) ) ;
#12 = AXIS2_PLACEMENT_3D ( 'NONE', #66, #40, #254 ) ;
#13 = AXIS2_PLACEMENT_3D ( 'NONE', #243, #277, #354 ) ;
#14 = PRESENTATION_STYLE_ASSIGNMENT (( #68 ) ) ;
#15 = EDGE_LOOP ( 'NONE', ( #261, #362, #86, #176 ) ) ;
#16 = EDGE_CURVE ( 'NONE', #155, #294, #263, .T. ) ;
#17 = CARTESIAN_POINT ( 'NONE',  ( 0.000000000000000000, 1.187499999999999778, 0.000000000000000000 ) ) ;
#18 = CARTESIAN_POINT ( 'NONE',  ( -0.09375000000000002776, 0.09375000000000002776, 1.148106374200643863E-17 ) ) ;
#19 = COLOUR_RGB ( '',1.000000000000000000, 0.000000000000000000, 0.000000000000000000 ) ;
#20 =( NAMED_UNIT ( * ) SI_UNIT ( $, .STERADIAN. ) SOLID_ANGLE_UNIT ( ) );
#21 = LENGTH_MEASURE_WITH_UNIT ( LENGTH_MEASURE( 0.02539999999999999897 ), #232 );
#22 =( CONVERSION_BASED_UNIT ( 'INCH', #325 ) LENGTH_UNIT ( ) NAMED_UNIT ( #167 ) );
#23 = ADVANCED_FACE ( 'NONE', ( #186 ), #313, .F. ) ;
#24 = CIRCLE ( 'NONE', #49, 0.09374999999999976408 ) ;
#25 = PRODUCT_CONTEXT ( 'NONE', #270, 'mechanical' ) ;
#26 = CIRCLE ( 'NONE', #50, 0.09375000000000002776 ) ;
#27 = SHAPE_DEFINITION_REPRESENTATION ( #202, #107 ) ;
#28 = DIRECTION ( 'NONE',  ( 0.000000000000000000, 1.000000000000000000, 0.000000000000000000 ) ) ;
#29 = ORIENTED_EDGE ( 'NONE', *, *, #208, .T. ) ;
#30 = CIRCLE ( 'NONE', #264, 0.09374999999999976408 ) ;
#31 = LENGTH_MEASURE_WITH_UNIT ( LENGTH_MEASURE( 0.02539999999999999897 ), #217 );
#32 = EDGE_CURVE ( 'NONE', #104, #131, #141, .T. ) ;
#33 = FILL_AREA_STYLE_COLOUR ( '', #111 ) ;
#34 = CYLINDRICAL_SURFACE ( 'NONE', #188, 0.09374999999999995837 ) ;
#35 = AXIS2_PLACEMENT_3D ( 'NONE', #17, #133, #65 ) ;
#36 = PRESENTATION_LAYER_ASSIGNMENT (  '', '', ( #339 ) ) ;
#37 = EDGE_LOOP ( 'NONE', ( #318, #284, #29, #343 ) ) ;
#38 = STYLED_ITEM ( 'NONE', ( #53 ), #365 ) ;
#39 = DIRECTION ( 'NONE',  ( -1.000000000000000000, 0.000000000000000000, 0.000000000000000000 ) ) ;
#40 = DIRECTION ( 'NONE',  ( 0.000000000000000000, 0.000000000000000000, -1.000000000000000000 ) ) ;
#41 = PRESENTATION_STYLE_ASSIGNMENT (( #319 ) ) ;
#42 = VERTEX_POINT ( 'NONE', #6 ) ;
#43 = COLOUR_RGB ( '',1.000000000000000000, 0.000000000000000000, 0.000000000000000000 ) ;
#44 = EDGE_CURVE ( 'NONE', #320, #274, #236, .T. ) ;
#45 = CARTESIAN_POINT ( 'NONE',  ( 0.000000000000000000, 0.09375000000000002776, -0.09375000000000002776 ) ) ;
#46 = EDGE_LOOP ( 'NONE', ( #344, #102 ) ) ;
#47 = SPHERICAL_SURFACE ( 'NONE', #73, 0.09375000000000002776 ) ;
#48 = MANIFOLD_SOLID_BREP ( 'Revolve - Tool Body (Straight Shanked)', #314 ) ;
#49 = AXIS2_PLACEMENT_3D ( 'NONE', #252, #220, #39 ) ;
#50 = AXIS2_PLACEMENT_3D ( 'NONE', #350, #51, #81 ) ;
#51 = DIRECTION ( 'NONE',  ( 1.224646799147353207E-16, -0.000000000000000000, 1.000000000000000000 ) ) ;
#52 = MANIFOLD_SOLID_BREP ( 'Revolve - Cutting Edge', #256 ) ;
#53 = PRESENTATION_STYLE_ASSIGNMENT (( #229 ) ) ;
#54 = CARTESIAN_POINT ( 'NONE',  ( 1.148106374200643092E-17, 0.000000000000000000, 0.09374999999999995837 ) ) ;
#55 = EDGE_CURVE ( 'NONE', #324, #303, #96, .T. ) ;
#56 = AXIS2_PLACEMENT_3D ( 'NONE', #273, #352, #370 ) ;
#57 = CARTESIAN_POINT ( 'NONE',  ( 0.000000000000000000, 1.187499999999999778, 0.000000000000000000 ) ) ;
#58 = FACE_OUTER_BOUND ( 'NONE', #8, .T. ) ;
#59 = SURFACE_STYLE_USAGE ( .BOTH. , #211 ) ;
#60 = ORIENTED_EDGE ( 'NONE', *, *, #321, .T. ) ;
#61 = COLOUR_RGB ( '',1.000000000000000000, 0.000000000000000000, 0.000000000000000000 ) ;
#62 = DIRECTION ( 'NONE',  ( 0.000000000000000000, 0.000000000000000000, -1.000000000000000000 ) ) ;
#63 = UNCERTAINTY_MEASURE_WITH_UNIT (LENGTH_MEASURE( 1.000000000000000082E-05 ), #269, 'distance_accuracy_value', 'NONE');
#64 = SURFACE_STYLE_FILL_AREA ( #341 ) ;
#65 = DIRECTION ( 'NONE',  ( 0.000000000000000000, 0.000000000000000000, -1.000000000000000000 ) ) ;
#66 = CARTESIAN_POINT ( 'NONE',  ( -1.148106374200643863E-17, 0.09375000000000001388, 0.000000000000000000 ) ) ;
#67 = SURFACE_STYLE_FILL_AREA ( #342 ) ;
#68 = SURFACE_STYLE_USAGE ( .BOTH. , #225 ) ;
#69 = ORIENTED_EDGE ( 'NONE', *, *, #16, .T. ) ;
#70 = CARTESIAN_POINT ( 'NONE',  ( 0.000000000000000000, 0.000000000000000000, 0.000000000000000000 ) ) ;
#71 = VERTEX_POINT ( 'NONE', #173 ) ;
#72 = AXIS2_PLACEMENT_3D ( 'NONE', #288, #195, #323 ) ;
#73 = AXIS2_PLACEMENT_3D ( 'NONE', #106, #233, #332 ) ;
#74 =( CONVERSION_BASED_UNIT ( 'INCH', #329 ) LENGTH_UNIT ( ) NAMED_UNIT ( #290 ) );
#75 =( NAMED_UNIT ( * ) SI_UNIT ( $, .STERADIAN. ) SOLID_ANGLE_UNIT ( ) );
#76 = CARTESIAN_POINT ( 'NONE',  ( -1.148106374200643863E-17, 0.09375000000000001388, 0.000000000000000000 ) ) ;
#77 =( CONVERSION_BASED_UNIT ( 'INCH', #108 ) LENGTH_UNIT ( ) NAMED_UNIT ( #193 ) );
#78 = SURFACE_STYLE_FILL_AREA ( #114 ) ;
#79 = CIRCLE ( 'NONE', #307, 0.09375000000000002776 ) ;
#80 = MECHANICAL_DESIGN_GEOMETRIC_PRESENTATION_REPRESENTATION (  '', ( #174 ), #216 ) ;
#81 = DIRECTION ( 'NONE',  ( 1.000000000000000000, 0.000000000000000000, -1.224646799147353207E-16 ) ) ;
#82 = FACE_OUTER_BOUND ( 'NONE', #219, .T. ) ;
#83 = CIRCLE ( 'NONE', #137, 0.09375000000000002776 ) ;
#84 =( GEOMETRIC_REPRESENTATION_CONTEXT ( 3 ) GLOBAL_UNCERTAINTY_ASSIGNED_CONTEXT ( ( #255 ) ) GLOBAL_UNIT_ASSIGNED_CONTEXT ( ( #74, #169, #198 ) ) REPRESENTATION_CONTEXT ( 'NONE', 'WORKASPACE' ) );
#85 = CARTESIAN_POINT ( 'NONE',  ( -5.740531871003217773E-18, -1.707404996040164512E-17, 0.000000000000000000 ) ) ;
#86 = ORIENTED_EDGE ( 'NONE', *, *, #32, .F. ) ;
#87 = DIRECTION ( 'NONE',  ( 0.000000000000000000, 0.000000000000000000, 1.000000000000000000 ) ) ;
#88 = DIRECTION ( 'NONE',  ( 0.000000000000000000, -0.000000000000000000, 1.000000000000000000 ) ) ;
#89 = ADVANCED_FACE ( 'NONE', ( #82 ), #348, .T. ) ;
#90 = DIRECTION ( 'NONE',  ( -1.000000000000000000, 0.000000000000000000, 0.000000000000000000 ) ) ;
#91 = COLOUR_RGB ( '',0.7921568627450980005, 0.8196078431372548767, 0.9333333333333333481 ) ;
#92 =( GEOMETRIC_REPRESENTATION_CONTEXT ( 3 ) GLOBAL_UNCERTAINTY_ASSIGNED_CONTEXT ( ( #187 ) ) GLOBAL_UNIT_ASSIGNED_CONTEXT ( ( #77, #234, #75 ) ) REPRESENTATION_CONTEXT ( 'NONE', 'WORKASPACE' ) );
#93 = FILL_AREA_STYLE ('',( #33 ) ) ;
#94 = ORIENTED_EDGE ( 'NONE', *, *, #197, .T. ) ;
#95 = ADVANCED_FACE ( 'NONE', ( #164 ), #113, .T. ) ;
#96 = LINE ( 'NONE', #204, #158 ) ;
#97 = DIRECTION ( 'NONE',  ( -0.000000000000000000, -1.000000000000000000, -0.000000000000000000 ) ) ;
#98 = STYLED_ITEM ( 'NONE', ( #14 ), #278 ) ;
#99 = CARTESIAN_POINT ( 'NONE',  ( 0.000000000000000000, 0.09375000000000002776, 0.000000000000000000 ) ) ;
#100 = DIMENSIONAL_EXPONENTS ( 1.000000000000000000, 0.000000000000000000, 0.000000000000000000, 0.000000000000000000, 0.000000000000000000, 0.000000000000000000, 0.000000000000000000 ) ;
#101 = ORIENTED_EDGE ( 'NONE', *, *, #248, .F. ) ;
#102 = ORIENTED_EDGE ( 'NONE', *, *, #272, .T. ) ;
#103 = FILL_AREA_STYLE_COLOUR ( '', #43 ) ;
#104 = VERTEX_POINT ( 'NONE', #240 ) ;
#105 = AXIS2_PLACEMENT_3D ( 'NONE', #333, #3, #184 ) ;
#106 = CARTESIAN_POINT ( 'NONE',  ( -1.148106374200643863E-17, 0.09375000000000001388, 0.000000000000000000 ) ) ;
#107 = ADVANCED_BREP_SHAPE_REPRESENTATION ( '84757', ( #52, #48, #310 ), #138 ) ;
#108 = LENGTH_MEASURE_WITH_UNIT ( LENGTH_MEASURE( 0.02539999999999999897 ), #267 );
#109 = SURFACE_STYLE_FILL_AREA ( #172 ) ;
#110 =( LENGTH_UNIT ( ) NAMED_UNIT ( * ) SI_UNIT ( $, .METRE. ) );
#111 = COLOUR_RGB ( '',1.000000000000000000, 0.000000000000000000, 0.000000000000000000 ) ;
#112 = EDGE_CURVE ( 'NONE', #294, #155, #366, .T. ) ;
#113 = CYLINDRICAL_SURFACE ( 'NONE', #105, 0.09374999999999995837 ) ;
#114 = FILL_AREA_STYLE ('',( #347 ) ) ;
#115 = PRESENTATION_STYLE_ASSIGNMENT (( #59 ) ) ;
#116 = PRESENTATION_LAYER_ASSIGNMENT (  '', '', ( #244 ) ) ;
#117 = APPLICATION_PROTOCOL_DEFINITION ( 'draft international standard', 'automotive_design', 1998, #168 ) ;
#118 = DIRECTION ( 'NONE',  ( 0.000000000000000000, 0.000000000000000000, -1.000000000000000000 ) ) ;
#119 = ADVANCED_FACE ( 'NONE', ( #58 ), #142, .T. ) ;
#120 =( NAMED_UNIT ( * ) PLANE_ANGLE_UNIT ( ) SI_UNIT ( $, .RADIAN. ) );
#121 = CARTESIAN_POINT ( 'NONE',  ( -1.224646799147353700E-16, 3.000000000000000444, 0.000000000000000000 ) ) ;
#122 = ORIENTED_EDGE ( 'NONE', *, *, #16, .F. ) ;
#123 = MECHANICAL_DESIGN_GEOMETRIC_PRESENTATION_REPRESENTATION (  '', ( #98 ), #355 ) ;
#124 = PRESENTATION_LAYER_ASSIGNMENT (  '', '', ( #38 ) ) ;
#125 = ADVANCED_FACE ( 'NONE', ( #371 ), #373, .F. ) ;
#126 = ORIENTED_EDGE ( 'NONE', *, *, #208, .F. ) ;
#127 = PRODUCT_DEFINITION_CONTEXT ( 'detailed design', #168, 'design' ) ;
#128 = ORIENTED_EDGE ( 'NONE', *, *, #356, .T. ) ;
#129 =( CONVERSION_BASED_UNIT ( 'INCH', #157 ) LENGTH_UNIT ( ) NAMED_UNIT ( #132 ) );
#130 = PRODUCT_DEFINITION ( 'UNKNOWN', '', #282, #127 ) ;
#131 = VERTEX_POINT ( 'NONE', #85 ) ;
#132 = DIMENSIONAL_EXPONENTS ( 1.000000000000000000, 0.000000000000000000, 0.000000000000000000, 0.000000000000000000, 0.000000000000000000, 0.000000000000000000, 0.000000000000000000 ) ;
#133 = DIRECTION ( 'NONE',  ( -0.000000000000000000, -1.000000000000000000, -0.000000000000000000 ) ) ;
#134 = CARTESIAN_POINT ( 'NONE',  ( -0.09374999999999966693, 1.187499999999999778, 0.000000000000000000 ) ) ;
#135 =( GEOMETRIC_REPRESENTATION_CONTEXT ( 3 ) GLOBAL_UNCERTAINTY_ASSIGNED_CONTEXT ( ( #153 ) ) GLOBAL_UNIT_ASSIGNED_CONTEXT ( ( #330, #171, #175 ) ) REPRESENTATION_CONTEXT ( 'NONE', 'WORKASPACE' ) );
#136 = ADVANCED_FACE ( 'NONE', ( #178 ), #144, .T. ) ;
#137 = AXIS2_PLACEMENT_3D ( 'NONE', #280, #334, #62 ) ;
#138 =( GEOMETRIC_REPRESENTATION_CONTEXT ( 3 ) GLOBAL_UNCERTAINTY_ASSIGNED_CONTEXT ( ( #183 ) ) GLOBAL_UNIT_ASSIGNED_CONTEXT ( ( #304, #120, #146 ) ) REPRESENTATION_CONTEXT ( 'NONE', 'WORKASPACE' ) );
#139 = DIRECTION ( 'NONE',  ( -1.224646799147353454E-16, 1.000000000000000000, -0.000000000000000000 ) ) ;
#140 = SURFACE_STYLE_FILL_AREA ( #207 ) ;
#141 = CIRCLE ( 'NONE', #12, 0.09375000000000002776 ) ;
#142 = PLANE ( 'NONE',  #291 ) ;
#143 = ORIENTED_EDGE ( 'NONE', *, *, #298, .F. ) ;
#144 = CYLINDRICAL_SURFACE ( 'NONE', #316, 0.09374999999999988898 ) ;
#145 = AXIS2_PLACEMENT_3D ( 'NONE', #246, #337, #118 ) ;
#146 =( NAMED_UNIT ( * ) SI_UNIT ( $, .STERADIAN. ) SOLID_ANGLE_UNIT ( ) );
#147 = DIRECTION ( 'NONE',  ( -1.224646799147353454E-16, 1.000000000000000000, -0.000000000000000000 ) ) ;
#148 = CARTESIAN_POINT ( 'NONE',  ( 9.950255243072248044E-17, 1.187499999999999778, 0.000000000000000000 ) ) ;
#149 = SURFACE_STYLE_FILL_AREA ( #93 ) ;
#150 = DIRECTION ( 'NONE',  ( -1.000000000000000000, -1.224646799147353454E-16, 0.000000000000000000 ) ) ;
#151 = FACE_OUTER_BOUND ( 'NONE', #37, .T. ) ;
#152 = ORIENTED_EDGE ( 'NONE', *, *, #248, .T. ) ;
#153 = UNCERTAINTY_MEASURE_WITH_UNIT (LENGTH_MEASURE( 1.000000000000000082E-05 ), #330, 'distance_accuracy_value', 'NONE');
#154 = DIRECTION ( 'NONE',  ( -0.000000000000000000, -1.000000000000000000, -0.000000000000000000 ) ) ;
#155 = VERTEX_POINT ( 'NONE', #213 ) ;
#156 = STYLED_ITEM ( 'NONE', ( #41 ), #48 ) ;
#157 = LENGTH_MEASURE_WITH_UNIT ( LENGTH_MEASURE( 0.02539999999999999897 ), #361 );
#158 = VECTOR ( 'NONE', #297, 39.37007874015748143 ) ;
#159 = MECHANICAL_DESIGN_GEOMETRIC_PRESENTATION_REPRESENTATION (  '', ( #38 ), #84 ) ;
#160 = ORIENTED_EDGE ( 'NONE', *, *, #55, .T. ) ;
#161 = FACE_OUTER_BOUND ( 'NONE', #245, .T. ) ;
#162 = DIRECTION ( 'NONE',  ( -0.000000000000000000, -1.000000000000000000, -0.000000000000000000 ) ) ;
#163 = PRODUCT_RELATED_PRODUCT_CATEGORY ( 'part', '', ( #260 ) ) ;
#164 = FACE_OUTER_BOUND ( 'NONE', #11, .T. ) ;
#165 = PRESENTATION_STYLE_ASSIGNMENT (( #239 ) ) ;
#166 = STYLED_ITEM ( 'NONE', ( #115 ), #119 ) ;
#167 = DIMENSIONAL_EXPONENTS ( 1.000000000000000000, 0.000000000000000000, 0.000000000000000000, 0.000000000000000000, 0.000000000000000000, 0.000000000000000000, 0.000000000000000000 ) ;
#168 = APPLICATION_CONTEXT ( 'automotive_design' ) ;
#169 =( NAMED_UNIT ( * ) PLANE_ANGLE_UNIT ( ) SI_UNIT ( $, .RADIAN. ) );
#170 =( NAMED_UNIT ( * ) PLANE_ANGLE_UNIT ( ) SI_UNIT ( $, .RADIAN. ) );
#171 =( NAMED_UNIT ( * ) PLANE_ANGLE_UNIT ( ) SI_UNIT ( $, .RADIAN. ) );
#172 = FILL_AREA_STYLE ('',( #103 ) ) ;
#173 = CARTESIAN_POINT ( 'NONE',  ( 0.09374999999999984734, 1.187499999999999778, 1.148106374200642938E-17 ) ) ;
#174 = STYLED_ITEM ( 'NONE', ( #258 ), #241 ) ;
#175 =( NAMED_UNIT ( * ) SI_UNIT ( $, .STERADIAN. ) SOLID_ANGLE_UNIT ( ) );
#176 = ORIENTED_EDGE ( 'NONE', *, *, #298, .T. ) ;
#177 = EDGE_CURVE ( 'NONE', #303, #230, #4, .T. ) ;
#178 = FACE_OUTER_BOUND ( 'NONE', #287, .T. ) ;
#179 = UNCERTAINTY_MEASURE_WITH_UNIT (LENGTH_MEASURE( 1.000000000000000082E-05 ), #247, 'distance_accuracy_value', 'NONE');
#180 = ORIENTED_EDGE ( 'NONE', *, *, #197, .F. ) ;
#181 = MECHANICAL_DESIGN_GEOMETRIC_PRESENTATION_REPRESENTATION (  '', ( #339 ), #135 ) ;
#182 = LINE ( 'NONE', #2, #257 ) ;
#183 = UNCERTAINTY_MEASURE_WITH_UNIT (LENGTH_MEASURE( 1.000000000000000082E-05 ), #304, 'distance_accuracy_value', 'NONE');
#184 = DIRECTION ( 'NONE',  ( 0.000000000000000000, 0.000000000000000000, -1.000000000000000000 ) ) ;
#185 =( NAMED_UNIT ( * ) SI_UNIT ( $, .STERADIAN. ) SOLID_ANGLE_UNIT ( ) );
#186 = FACE_OUTER_BOUND ( 'NONE', #364, .T. ) ;
#187 = UNCERTAINTY_MEASURE_WITH_UNIT (LENGTH_MEASURE( 1.000000000000000082E-05 ), #77, 'distance_accuracy_value', 'NONE');
#188 = AXIS2_PLACEMENT_3D ( 'NONE', #70, #154, #292 ) ;
#189 = VECTOR ( 'NONE', #327, 39.37007874015748143 ) ;
#190 = VECTOR ( 'NONE', #139, 39.37007874015748143 ) ;
#191 = CARTESIAN_POINT ( 'NONE',  ( 9.950255243072245579E-17, 1.187499999999999778, 0.000000000000000000 ) ) ;
#192 = SURFACE_SIDE_STYLE ('',( #67 ) ) ;
#193 = DIMENSIONAL_EXPONENTS ( 1.000000000000000000, 0.000000000000000000, 0.000000000000000000, 0.000000000000000000, 0.000000000000000000, 0.000000000000000000, 0.000000000000000000 ) ;
#194 = ORIENTED_EDGE ( 'NONE', *, *, #356, .F. ) ;
#195 = DIRECTION ( 'NONE',  ( -1.224646799147353454E-16, 1.000000000000000000, -0.000000000000000000 ) ) ;
#196 = CARTESIAN_POINT ( 'NONE',  ( 0.000000000000000000, 0.09375000000000002776, 0.000000000000000000 ) ) ;
#197 = EDGE_CURVE ( 'NONE', #324, #71, #30, .T. ) ;
#198 =( NAMED_UNIT ( * ) SI_UNIT ( $, .STERADIAN. ) SOLID_ANGLE_UNIT ( ) );
#199 =( NAMED_UNIT ( * ) SI_UNIT ( $, .STERADIAN. ) SOLID_ANGLE_UNIT ( ) );
#200 = DIMENSIONAL_EXPONENTS ( 1.000000000000000000, 0.000000000000000000, 0.000000000000000000, 0.000000000000000000, 0.000000000000000000, 0.000000000000000000, 0.000000000000000000 ) ;
#201 = CARTESIAN_POINT ( 'NONE',  ( 0.09374999999999976408, 3.000000000000000444, 1.148106374200642322E-17 ) ) ;
#202 = PRODUCT_DEFINITION_SHAPE ( 'NONE', 'NONE',  #130 ) ;
#203 = FACE_OUTER_BOUND ( 'NONE', #15, .T. ) ;
#204 = CARTESIAN_POINT ( 'NONE',  ( -0.09375000000000001388, 3.000000000000000444, 0.000000000000000000 ) ) ;
#205 =( GEOMETRIC_REPRESENTATION_CONTEXT ( 3 ) GLOBAL_UNCERTAINTY_ASSIGNED_CONTEXT ( ( #179 ) ) GLOBAL_UNIT_ASSIGNED_CONTEXT ( ( #247, #281, #357 ) ) REPRESENTATION_CONTEXT ( 'NONE', 'WORKASPACE' ) );
#206 = SURFACE_SIDE_STYLE ('',( #109 ) ) ;
#207 = FILL_AREA_STYLE ('',( #300 ) ) ;
#208 = EDGE_CURVE ( 'NONE', #274, #104, #83, .T. ) ;
#209 =( LENGTH_UNIT ( ) NAMED_UNIT ( * ) SI_UNIT ( $, .METRE. ) );
#210 = MECHANICAL_DESIGN_GEOMETRIC_PRESENTATION_REPRESENTATION (  '', ( #166 ), #205 ) ;
#211 = SURFACE_SIDE_STYLE ('',( #149 ) ) ;
#212 = DIRECTION ( 'NONE',  ( 1.000000000000000000, 0.000000000000000000, 0.000000000000000000 ) ) ;
#213 = CARTESIAN_POINT ( 'NONE',  ( 0.000000000000000000, 1.187499999999999778, -0.09374999999999987510 ) ) ;
#214 = DIRECTION ( 'NONE',  ( -1.224646799147353454E-16, 1.000000000000000000, -0.000000000000000000 ) ) ;
#215 = PRESENTATION_LAYER_ASSIGNMENT (  '', '', ( #156 ) ) ;
#216 =( GEOMETRIC_REPRESENTATION_CONTEXT ( 3 ) GLOBAL_UNCERTAINTY_ASSIGNED_CONTEXT ( ( #285 ) ) GLOBAL_UNIT_ASSIGNED_CONTEXT ( ( #129, #5, #185 ) ) REPRESENTATION_CONTEXT ( 'NONE', 'WORKASPACE' ) );
#217 =( LENGTH_UNIT ( ) NAMED_UNIT ( * ) SI_UNIT ( $, .METRE. ) );
#218 = FILL_AREA_STYLE ('',( #7 ) ) ;
#219 = EDGE_LOOP ( 'NONE', ( #94, #128, #262, #372 ) ) ;
#220 = DIRECTION ( 'NONE',  ( -1.224646799147353454E-16, 1.000000000000000000, -0.000000000000000000 ) ) ;
#221 = FILL_AREA_STYLE_COLOUR ( '', #91 ) ;
#222 = EDGE_CURVE ( 'NONE', #155, #274, #182, .T. ) ;
#223 = FILL_AREA_STYLE_COLOUR ( '', #315 ) ;
#224 = DIRECTION ( 'NONE',  ( -1.224646799147353454E-16, 1.000000000000000000, 0.000000000000000000 ) ) ;
#225 = SURFACE_SIDE_STYLE ('',( #283 ) ) ;
#226 = ORIENTED_EDGE ( 'NONE', *, *, #112, .F. ) ;
#227 = SURFACE_STYLE_USAGE ( .BOTH. , #10 ) ;
#228 = ORIENTED_EDGE ( 'NONE', *, *, #9, .F. ) ;
#229 = SURFACE_STYLE_USAGE ( .BOTH. , #206 ) ;
#230 = VERTEX_POINT ( 'NONE', #317 ) ;
#231 = DIMENSIONAL_EXPONENTS ( 1.000000000000000000, 0.000000000000000000, 0.000000000000000000, 0.000000000000000000, 0.000000000000000000, 0.000000000000000000, 0.000000000000000000 ) ;
#232 =( LENGTH_UNIT ( ) NAMED_UNIT ( * ) SI_UNIT ( $, .METRE. ) );
#233 = DIRECTION ( 'NONE',  ( 0.000000000000000000, 0.000000000000000000, 1.000000000000000000 ) ) ;
#234 =( NAMED_UNIT ( * ) PLANE_ANGLE_UNIT ( ) SI_UNIT ( $, .RADIAN. ) );
#235 = DIRECTION ( 'NONE',  ( 1.000000000000000000, 0.000000000000000000, 0.000000000000000000 ) ) ;
#236 = CIRCLE ( 'NONE', #335, 0.09375000000000002776 ) ;
#237 = PRESENTATION_LAYER_ASSIGNMENT (  '', '', ( #166 ) ) ;
#238 = DIRECTION ( 'NONE',  ( 0.000000000000000000, 0.000000000000000000, -1.000000000000000000 ) ) ;
#239 = SURFACE_STYLE_USAGE ( .BOTH. , #295 ) ;
#240 = CARTESIAN_POINT ( 'NONE',  ( 0.09375000000000002776, 0.09375000000000002776, 0.000000000000000000 ) ) ;
#241 = ADVANCED_FACE ( 'NONE', ( #161 ), #34, .T. ) ;
#242 = APPLICATION_PROTOCOL_DEFINITION ( 'draft international standard', 'automotive_design', 1998, #270 ) ;
#243 = CARTESIAN_POINT ( 'NONE',  ( 0.09374999999999987510, 3.000000000000000444, 0.000000000000000000 ) ) ;
#244 = STYLED_ITEM ( 'NONE', ( #328 ), #52 ) ;
#245 = EDGE_LOOP ( 'NONE', ( #251, #309, #293, #360, #228 ) ) ;
#246 = CARTESIAN_POINT ( 'NONE',  ( 0.000000000000000000, 1.187499999999999778, 0.000000000000000000 ) ) ;
#247 =( CONVERSION_BASED_UNIT ( 'INCH', #31 ) LENGTH_UNIT ( ) NAMED_UNIT ( #200 ) );
#248 = EDGE_CURVE ( 'NONE', #71, #324, #24, .T. ) ;
#249 = MECHANICAL_DESIGN_GEOMETRIC_PRESENTATION_REPRESENTATION (  '', ( #156 ), #296 ) ;
#250 = CIRCLE ( 'NONE', #72, 0.09374999999999998612 ) ;
#251 = ORIENTED_EDGE ( 'NONE', *, *, #321, .F. ) ;
#252 = CARTESIAN_POINT ( 'NONE',  ( 9.950255243072248044E-17, 1.187499999999999778, 0.000000000000000000 ) ) ;
#253 = ORIENTED_EDGE ( 'NONE', *, *, #222, .F. ) ;
#254 = DIRECTION ( 'NONE',  ( -1.000000000000000000, 0.000000000000000000, 0.000000000000000000 ) ) ;
#255 = UNCERTAINTY_MEASURE_WITH_UNIT (LENGTH_MEASURE( 1.000000000000000082E-05 ), #74, 'distance_accuracy_value', 'NONE');
#256 = CLOSED_SHELL ( 'NONE', ( #365, #95, #119, #241, #278 ) ) ;
#257 = VECTOR ( 'NONE', #97, 39.37007874015748143 ) ;
#258 = PRESENTATION_STYLE_ASSIGNMENT (( #227 ) ) ;
#259 = DIMENSIONAL_EXPONENTS ( 1.000000000000000000, 0.000000000000000000, 0.000000000000000000, 0.000000000000000000, 0.000000000000000000, 0.000000000000000000, 0.000000000000000000 ) ;
#260 = PRODUCT ( '84757', '84757', '', ( #25 ) ) ;
#261 = ORIENTED_EDGE ( 'NONE', *, *, #9, .T. ) ;
#262 = ORIENTED_EDGE ( 'NONE', *, *, #177, .F. ) ;
#263 = CIRCLE ( 'NONE', #35, 0.09374999999999987510 ) ;
#264 = AXIS2_PLACEMENT_3D ( 'NONE', #148, #214, #311 ) ;
#265 = SURFACE_STYLE_USAGE ( .BOTH. , #326 ) ;
#266 = CARTESIAN_POINT ( 'NONE',  ( 0.000000000000000000, 0.09375000000000002776, 0.000000000000000000 ) ) ;
#267 =( LENGTH_UNIT ( ) NAMED_UNIT ( * ) SI_UNIT ( $, .METRE. ) );
#268 = DIRECTION ( 'NONE',  ( 0.000000000000000000, 0.000000000000000000, 1.000000000000000000 ) ) ;
#269 =( CONVERSION_BASED_UNIT ( 'INCH', #21 ) LENGTH_UNIT ( ) NAMED_UNIT ( #100 ) );
#270 = APPLICATION_CONTEXT ( 'automotive_design' ) ;
#271 = PRESENTATION_LAYER_ASSIGNMENT (  '', '', ( #174 ) ) ;
#272 = EDGE_CURVE ( 'NONE', #230, #303, #250, .T. ) ;
#273 = CARTESIAN_POINT ( 'NONE',  ( -1.224646799147353700E-16, 3.000000000000000444, 0.000000000000000000 ) ) ;
#274 = VERTEX_POINT ( 'NONE', #45 ) ;
#275 = DIRECTION ( 'NONE',  ( -1.224646799147353454E-16, 1.000000000000000000, -0.000000000000000000 ) ) ;
#276 = CIRCLE ( 'NONE', #340, 0.09375000000000002776 ) ;
#277 = DIRECTION ( 'NONE',  ( 1.224646799147353454E-16, -1.000000000000000000, 0.000000000000000000 ) ) ;
#278 = ADVANCED_FACE ( 'NONE', ( #151 ), #299, .T. ) ;
#279 = CARTESIAN_POINT ( 'NONE',  ( 0.000000000000000000, 0.000000000000000000, 0.000000000000000000 ) ) ;
#280 = CARTESIAN_POINT ( 'NONE',  ( 0.000000000000000000, 0.09375000000000002776, 0.000000000000000000 ) ) ;
#281 =( NAMED_UNIT ( * ) PLANE_ANGLE_UNIT ( ) SI_UNIT ( $, .RADIAN. ) );
#282 = PRODUCT_DEFINITION_FORMATION_WITH_SPECIFIED_SOURCE ( 'ANY', '', #260, .NOT_KNOWN. ) ;
#283 = SURFACE_STYLE_FILL_AREA ( #218 ) ;
#284 = ORIENTED_EDGE ( 'NONE', *, *, #44, .T. ) ;
#285 = UNCERTAINTY_MEASURE_WITH_UNIT (LENGTH_MEASURE( 1.000000000000000082E-05 ), #129, 'distance_accuracy_value', 'NONE');
#286 = CARTESIAN_POINT ( 'NONE',  ( 1.148106374200642476E-17, 1.187499999999999778, 0.09374999999999987510 ) ) ;
#287 = EDGE_LOOP ( 'NONE', ( #194, #152, #160, #363 ) ) ;
#288 = CARTESIAN_POINT ( 'NONE',  ( -1.224646799147353700E-16, 3.000000000000000444, 0.000000000000000000 ) ) ;
#289 = DIRECTION ( 'NONE',  ( 0.000000000000000000, 0.000000000000000000, -1.000000000000000000 ) ) ;
#290 = DIMENSIONAL_EXPONENTS ( 1.000000000000000000, 0.000000000000000000, 0.000000000000000000, 0.000000000000000000, 0.000000000000000000, 0.000000000000000000, 0.000000000000000000 ) ;
#291 = AXIS2_PLACEMENT_3D ( 'NONE', #57, #28, #88 ) ;
#292 = DIRECTION ( 'NONE',  ( 0.000000000000000000, 0.000000000000000000, -1.000000000000000000 ) ) ;
#293 = ORIENTED_EDGE ( 'NONE', *, *, #222, .T. ) ;
#294 = VERTEX_POINT ( 'NONE', #286 ) ;
#295 = SURFACE_SIDE_STYLE ('',( #140 ) ) ;
#296 =( GEOMETRIC_REPRESENTATION_CONTEXT ( 3 ) GLOBAL_UNCERTAINTY_ASSIGNED_CONTEXT ( ( #63 ) ) GLOBAL_UNIT_ASSIGNED_CONTEXT ( ( #269, #367, #199 ) ) REPRESENTATION_CONTEXT ( 'NONE', 'WORKASPACE' ) );
#297 = DIRECTION ( 'NONE',  ( -1.224646799147353454E-16, 1.000000000000000000, -0.000000000000000000 ) ) ;
#298 = EDGE_CURVE ( 'NONE', #104, #42, #276, .T. ) ;
#299 = SPHERICAL_SURFACE ( 'NONE', #358, 0.09375000000000002776 ) ;
#300 = FILL_AREA_STYLE_COLOUR ( '', #61 ) ;
#301 =( LENGTH_UNIT ( ) NAMED_UNIT ( * ) SI_UNIT ( $, .METRE. ) );
#302 = PRESENTATION_LAYER_ASSIGNMENT (  '', '', ( #98 ) ) ;
#303 = VERTEX_POINT ( 'NONE', #369 ) ;
#304 =( CONVERSION_BASED_UNIT ( 'INCH', #353 ) LENGTH_UNIT ( ) NAMED_UNIT ( #231 ) );
#305 =( LENGTH_UNIT ( ) NAMED_UNIT ( * ) SI_UNIT ( $, .METRE. ) );
#306 = CARTESIAN_POINT ( 'NONE',  ( -1.224646799147353700E-16, 3.000000000000000444, 0.000000000000000000 ) ) ;
#307 = AXIS2_PLACEMENT_3D ( 'NONE', #196, #162, #338 ) ;
#308 = MECHANICAL_DESIGN_GEOMETRIC_PRESENTATION_REPRESENTATION (  '', ( #244 ), #92 ) ;
#309 = ORIENTED_EDGE ( 'NONE', *, *, #112, .T. ) ;
#310 = AXIS2_PLACEMENT_3D ( 'NONE', #279, #87, #212 ) ;
#311 = DIRECTION ( 'NONE',  ( -1.000000000000000000, 0.000000000000000000, 0.000000000000000000 ) ) ;
#312 = EDGE_CURVE ( 'NONE', #320, #131, #26, .T. ) ;
#313 = PLANE ( 'NONE',  #349 ) ;
#314 = CLOSED_SHELL ( 'NONE', ( #89, #23, #136, #125 ) ) ;
#315 = COLOUR_RGB ( '',1.000000000000000000, 0.000000000000000000, 0.000000000000000000 ) ;
#316 = AXIS2_PLACEMENT_3D ( 'NONE', #121, #275, #90 ) ;
#317 = CARTESIAN_POINT ( 'NONE',  ( 0.09374999999999984734, 3.000000000000000444, 1.148106374200642938E-17 ) ) ;
#318 = ORIENTED_EDGE ( 'NONE', *, *, #312, .F. ) ;
#319 = SURFACE_STYLE_USAGE ( .BOTH. , #192 ) ;
#320 = VERTEX_POINT ( 'NONE', #18 ) ;
#321 = EDGE_CURVE ( 'NONE', #294, #42, #331, .T. ) ;
#322 = COLOUR_RGB ( '',0.7921568627450980005, 0.8196078431372548767, 0.9333333333333333481 ) ;
#323 = DIRECTION ( 'NONE',  ( -1.000000000000000000, 0.000000000000000000, 0.000000000000000000 ) ) ;
#324 = VERTEX_POINT ( 'NONE', #134 ) ;
#325 = LENGTH_MEASURE_WITH_UNIT ( LENGTH_MEASURE( 0.02539999999999999897 ), #209 );
#326 = SURFACE_SIDE_STYLE ('',( #78 ) ) ;
#327 = DIRECTION ( 'NONE',  ( -0.000000000000000000, -1.000000000000000000, -0.000000000000000000 ) ) ;
#328 = PRESENTATION_STYLE_ASSIGNMENT (( #265 ) ) ;
#329 = LENGTH_MEASURE_WITH_UNIT ( LENGTH_MEASURE( 0.02539999999999999897 ), #301 );
#330 =( CONVERSION_BASED_UNIT ( 'INCH', #351 ) LENGTH_UNIT ( ) NAMED_UNIT ( #259 ) );
#331 = LINE ( 'NONE', #54, #189 ) ;
#332 = DIRECTION ( 'NONE',  ( 1.000000000000000000, 0.000000000000000000, 0.000000000000000000 ) ) ;
#333 = CARTESIAN_POINT ( 'NONE',  ( 0.000000000000000000, 0.000000000000000000, 0.000000000000000000 ) ) ;
#334 = DIRECTION ( 'NONE',  ( -0.000000000000000000, -1.000000000000000000, -0.000000000000000000 ) ) ;
#335 = AXIS2_PLACEMENT_3D ( 'NONE', #99, #359, #289 ) ;
#336 = UNCERTAINTY_MEASURE_WITH_UNIT (LENGTH_MEASURE( 1.000000000000000082E-05 ), #22, 'distance_accuracy_value', 'NONE');
#337 = DIRECTION ( 'NONE',  ( -0.000000000000000000, -1.000000000000000000, -0.000000000000000000 ) ) ;
#338 = DIRECTION ( 'NONE',  ( 0.000000000000000000, 0.000000000000000000, -1.000000000000000000 ) ) ;
#339 = STYLED_ITEM ( 'NONE', ( #165 ), #95 ) ;
#340 = AXIS2_PLACEMENT_3D ( 'NONE', #266, #346, #238 ) ;
#341 = FILL_AREA_STYLE ('',( #223 ) ) ;
#342 = FILL_AREA_STYLE ('',( #221 ) ) ;
#343 = ORIENTED_EDGE ( 'NONE', *, *, #32, .T. ) ;
#344 = ORIENTED_EDGE ( 'NONE', *, *, #177, .T. ) ;
#345 = AXIS2_PLACEMENT_3D ( 'NONE', #306, #147, #1 ) ;
#346 = DIRECTION ( 'NONE',  ( -0.000000000000000000, -1.000000000000000000, -0.000000000000000000 ) ) ;
#347 = FILL_AREA_STYLE_COLOUR ( '', #322 ) ;
#348 = CYLINDRICAL_SURFACE ( 'NONE', #56, 0.09374999999999988898 ) ;
#349 = AXIS2_PLACEMENT_3D ( 'NONE', #191, #224, #150 ) ;
#350 = CARTESIAN_POINT ( 'NONE',  ( -1.148106374200643863E-17, 0.09375000000000001388, 0.000000000000000000 ) ) ;
#351 = LENGTH_MEASURE_WITH_UNIT ( LENGTH_MEASURE( 0.02539999999999999897 ), #110 );
#352 = DIRECTION ( 'NONE',  ( -1.224646799147353454E-16, 1.000000000000000000, -0.000000000000000000 ) ) ;
#353 = LENGTH_MEASURE_WITH_UNIT ( LENGTH_MEASURE( 0.02539999999999999897 ), #305 );
#354 = DIRECTION ( 'NONE',  ( 1.000000000000000000, 1.224646799147353454E-16, 0.000000000000000000 ) ) ;
#355 =( GEOMETRIC_REPRESENTATION_CONTEXT ( 3 ) GLOBAL_UNCERTAINTY_ASSIGNED_CONTEXT ( ( #336 ) ) GLOBAL_UNIT_ASSIGNED_CONTEXT ( ( #22, #170, #20 ) ) REPRESENTATION_CONTEXT ( 'NONE', 'WORKASPACE' ) );
#356 = EDGE_CURVE ( 'NONE', #71, #230, #368, .T. ) ;
#357 =( NAMED_UNIT ( * ) SI_UNIT ( $, .STERADIAN. ) SOLID_ANGLE_UNIT ( ) );
#358 = AXIS2_PLACEMENT_3D ( 'NONE', #76, #268, #235 ) ;
#359 = DIRECTION ( 'NONE',  ( -0.000000000000000000, -1.000000000000000000, -0.000000000000000000 ) ) ;
#360 = ORIENTED_EDGE ( 'NONE', *, *, #44, .F. ) ;
#361 =( LENGTH_UNIT ( ) NAMED_UNIT ( * ) SI_UNIT ( $, .METRE. ) );
#362 = ORIENTED_EDGE ( 'NONE', *, *, #312, .T. ) ;
#363 = ORIENTED_EDGE ( 'NONE', *, *, #272, .F. ) ;
#364 = EDGE_LOOP ( 'NONE', ( #180, #101 ) ) ;
#365 = ADVANCED_FACE ( 'NONE', ( #203 ), #47, .T. ) ;
#366 = CIRCLE ( 'NONE', #145, 0.09374999999999987510 ) ;
#367 =( NAMED_UNIT ( * ) PLANE_ANGLE_UNIT ( ) SI_UNIT ( $, .RADIAN. ) );
#368 = LINE ( 'NONE', #201, #190 ) ;
#369 = CARTESIAN_POINT ( 'NONE',  ( -0.09375000000000011102, 3.000000000000000444, 0.000000000000000000 ) ) ;
#370 = DIRECTION ( 'NONE',  ( -1.000000000000000000, 0.000000000000000000, 0.000000000000000000 ) ) ;
#371 = FACE_OUTER_BOUND ( 'NONE', #46, .T. ) ;
#372 = ORIENTED_EDGE ( 'NONE', *, *, #55, .F. ) ;
#373 = PLANE ( 'NONE',  #13 ) ;
ENDSEC;
END-ISO-10303-21;
